  0
SECTION
  2
HEADER
  9
$ACADVER
  1
AC1018
  9
$ACADMAINTVER
 70
   104
  9
$DWGCODEPAGE
  3
ANSI_936
  9
$LASTSAVEDBY
  1
chaxiu.zhu
  9
$INSBASE
 10
0.0
 20
0.0
 30
0.0
  9
$EXTMIN
 10
41092.70809802331
 20
-3201.614879733256
 30
-0.00000001
  9
$EXTMAX
 10
41920.02806529571
 20
-2151.64498932001
 30
0.00000001
  9
$LIMMIN
 10
0.0
 20
0.0
  9
$LIMMAX
 10
420.0
 20
297.0
  9
$ORTHOMODE
 70
     1
  9
$REGENMODE
 70
     1
  9
$FILLMODE
 70
     1
  9
$QTEXTMODE
 70
     0
  9
$MIRRTEXT
 70
     0
  9
$LTSCALE
 40
1.0
  9
$ATTMODE
 70
     1
  9
$TEXTSIZE
 40
2.5
  9
$TRACEWID
 40
1.0
  9
$TEXTSTYLE
  7
Standard
  9
$CLAYER
  8
轮廓线.
  9
$CELTYPE
  6
ByLayer
  9
$CECOLOR
 62
   256
  9
$CELTSCALE
 40
1.0
  9
$DISPSILH
 70
     0
  9
$DIMSCALE
 40
0.5
  9
$DIMASZ
 40
20.0
  9
$DIMEXO
 40
0.0
  9
$DIMDLI
 40
3.75
  9
$DIMRND
 40
0.0
  9
$DIMDLE
 40
0.0
  9
$DIMEXE
 40
10.0
  9
$DIMTP
 40
0.0
  9
$DIMTM
 40
0.0
  9
$DIMTXT
 40
30.0
  9
$DIMCEN
 40
0.0
  9
$DIMTSZ
 40
0.0
  9
$DIMTOL
 70
     0
  9
$DIMLIM
 70
     0
  9
$DIMTIH
 70
     0
  9
$DIMTOH
 70
     1
  9
$DIMSE1
 70
     0
  9
$DIMSE2
 70
     0
  9
$DIMTAD
 70
     0
  9
$DIMZIN
 70
     8
  9
$DIMBLK
  1

  9
$DIMASO
 70
     1
  9
$DIMSHO
 70
     1
  9
$DIMPOST
  1

  9
$DIMAPOST
  1

  9
$DIMALT
 70
     0
  9
$DIMALTD
 70
     3
  9
$DIMALTF
 40
0.03937007874016
  9
$DIMLFAC
 40
1.0
  9
$DIMTOFL
 70
     1
  9
$DIMTVP
 40
0.0
  9
$DIMTIX
 70
     0
  9
$DIMSOXD
 70
     0
  9
$DIMSAH
 70
     0
  9
$DIMBLK1
  1

  9
$DIMBLK2
  1

  9
$DIMSTYLE
  2
宋体
  9
$DIMCLRD
 70
     0
  9
$DIMCLRE
 70
     0
  9
$DIMCLRT
 70
     0
  9
$DIMTFAC
 40
1.0
  9
$DIMGAP
 40
20.0
  9
$DIMJUST
 70
     0
  9
$DIMSD1
 70
     0
  9
$DIMSD2
 70
     0
  9
$DIMTOLJ
 70
     1
  9
$DIMTZIN
 70
     8
  9
$DIMALTZ
 70
     0
  9
$DIMALTTZ
 70
     0
  9
$DIMUPT
 70
     0
  9
$DIMDEC
 70
     0
  9
$DIMTDEC
 70
     0
  9
$DIMALTU
 70
     2
  9
$DIMALTTD
 70
     3
  9
$DIMTXSTY
  7
Standard
  9
$DIMAUNIT
 70
     0
  9
$DIMADEC
 70
     0
  9
$DIMALTRND
 40
0.0
  9
$DIMAZIN
 70
     0
  9
$DIMDSEP
 70
    46
  9
$DIMATFIT
 70
     3
  9
$DIMFRAC
 70
     0
  9
$DIMLDRBLK
  1

  9
$DIMLUNIT
 70
     2
  9
$DIMLWD
 70
    -2
  9
$DIMLWE
 70
    -2
  9
$DIMTMOVE
 70
     1
  9
$LUNITS
 70
     2
  9
$LUPREC
 70
     4
  9
$SKETCHINC
 40
1.0
  9
$FILLETRAD
 40
0.0
  9
$AUNITS
 70
     0
  9
$AUPREC
 70
     0
  9
$MENU
  1
.
  9
$ELEVATION
 40
0.0
  9
$PELEVATION
 40
0.0
  9
$THICKNESS
 40
0.0
  9
$LIMCHECK
 70
     0
  9
$CHAMFERA
 40
0.0
  9
$CHAMFERB
 40
0.0
  9
$CHAMFERC
 40
0.0
  9
$CHAMFERD
 40
0.0
  9
$SKPOLY
 70
     0
  9
$TDCREATE
 40
2455843.370532037
  9
$TDUCREATE
 40
2455843.037198704
  9
$TDUPDATE
 40
2458858.499219688
  9
$TDUUPDATE
 40
2458858.165886354
  9
$TDINDWG
 40
19.7999878009
  9
$TDUSRTIMER
 40
19.7999876273
  9
$USRTIMER
 70
     1
  9
$ANGBASE
 50
0.0
  9
$ANGDIR
 70
     0
  9
$PDMODE
 70
     0
  9
$PDSIZE
 40
0.0
  9
$PLINEWID
 40
0.0
  9
$SPLFRAME
 70
     0
  9
$SPLINETYPE
 70
     6
  9
$SPLINESEGS
 70
     8
  9
$HANDSEED
  5
698
  9
$SURFTAB1
 70
     6
  9
$SURFTAB2
 70
     6
  9
$SURFTYPE
 70
     6
  9
$SURFU
 70
     6
  9
$SURFV
 70
     6
  9
$UCSBASE
  2

  9
$UCSNAME
  2

  9
$UCSORG
 10
0.0
 20
0.0
 30
0.0
  9
$UCSXDIR
 10
1.0
 20
0.0
 30
0.0
  9
$UCSYDIR
 10
0.0
 20
1.0
 30
0.0
  9
$UCSORTHOREF
  2

  9
$UCSORTHOVIEW
 70
     0
  9
$UCSORGTOP
 10
0.0
 20
0.0
 30
0.0
  9
$UCSORGBOTTOM
 10
0.0
 20
0.0
 30
0.0
  9
$UCSORGLEFT
 10
0.0
 20
0.0
 30
0.0
  9
$UCSORGRIGHT
 10
0.0
 20
0.0
 30
0.0
  9
$UCSORGFRONT
 10
0.0
 20
0.0
 30
0.0
  9
$UCSORGBACK
 10
0.0
 20
0.0
 30
0.0
  9
$PUCSBASE
  2

  9
$PUCSNAME
  2

  9
$PUCSORG
 10
0.0
 20
0.0
 30
0.0
  9
$PUCSXDIR
 10
1.0
 20
0.0
 30
0.0
  9
$PUCSYDIR
 10
0.0
 20
1.0
 30
0.0
  9
$PUCSORTHOREF
  2

  9
$PUCSORTHOVIEW
 70
     0
  9
$PUCSORGTOP
 10
0.0
 20
0.0
 30
0.0
  9
$PUCSORGBOTTOM
 10
0.0
 20
0.0
 30
0.0
  9
$PUCSORGLEFT
 10
0.0
 20
0.0
 30
0.0
  9
$PUCSORGRIGHT
 10
0.0
 20
0.0
 30
0.0
  9
$PUCSORGFRONT
 10
0.0
 20
0.0
 30
0.0
  9
$PUCSORGBACK
 10
0.0
 20
0.0
 30
0.0
  9
$USERI1
 70
     0
  9
$USERI2
 70
     0
  9
$USERI3
 70
     0
  9
$USERI4
 70
     0
  9
$USERI5
 70
     0
  9
$USERR1
 40
0.0
  9
$USERR2
 40
0.0
  9
$USERR3
 40
0.0
  9
$USERR4
 40
0.0
  9
$USERR5
 40
2.5
  9
$WORLDVIEW
 70
     1
  9
$SHADEDGE
 70
     3
  9
$SHADEDIF
 70
    70
  9
$TILEMODE
 70
     1
  9
$MAXACTVP
 70
    64
  9
$PINSBASE
 10
0.0
 20
0.0
 30
0.0
  9
$PLIMCHECK
 70
     0
  9
$PEXTMIN
 10
0.0
 20
0.0
 30
0.0
  9
$PEXTMAX
 10
0.0
 20
0.0
 30
0.0
  9
$PLIMMIN
 10
0.0
 20
0.0
  9
$PLIMMAX
 10
12.0
 20
9.0
  9
$UNITMODE
 70
     0
  9
$VISRETAIN
 70
     1
  9
$PLINEGEN
 70
     0
  9
$PSLTSCALE
 70
     1
  9
$TREEDEPTH
 70
  3020
  9
$CMLSTYLE
  2
Standard
  9
$CMLJUST
 70
     0
  9
$CMLSCALE
 40
20.0
  9
$PROXYGRAPHICS
 70
     1
  9
$MEASUREMENT
 70
     1
  9
$CELWEIGHT
370
    -1
  9
$ENDCAPS
280
     0
  9
$JOINSTYLE
280
     0
  9
$LWDISPLAY
290
     0
  9
$INSUNITS
 70
     4
  9
$HYPERLINKBASE
  1

  9
$STYLESHEET
  1

  9
$XEDIT
290
     1
  9
$CEPSNTYPE
380
     0
  9
$PSTYLEMODE
290
     1
  9
$FINGERPRINTGUID
  2
{DBC5B31B-8D20-4A5F-A932-A4018AD104FC}
  9
$VERSIONGUID
  2
{71AF27A3-7CB9-4F49-BBC0-4E463322E4E7}
  9
$EXTNAMES
290
     1
  9
$PSVPSCALE
 40
0.0
  9
$OLESTARTUP
290
     0
  9
$SORTENTS
280
   127
  9
$INDEXCTL
280
     0
  9
$HIDETEXT
280
     1
  9
$XCLIPFRAME
290
     0
  9
$HALOGAP
280
     0
  9
$OBSCOLOR
 70
   257
  9
$OBSLTYPE
280
     0
  9
$INTERSECTIONDISPLAY
280
     0
  9
$INTERSECTIONCOLOR
 70
   257
  9
$DIMASSOC
280
     2
  9
$PROJECTNAME
  1

  0
ENDSEC
  0
SECTION
  2
CLASSES
  0
CLASS
  1
ACDBDICTIONARYWDFLT
  2
AcDbDictionaryWithDefault
  3
ObjectDBX Classes
 90
        0
 91
        1
280
     0
281
     0
  0
CLASS
  1
DICTIONARYVAR
  2
AcDbDictionaryVar
  3
ObjectDBX Classes
 90
        0
 91
        3
280
     0
281
     0
  0
CLASS
  1
TABLESTYLE
  2
AcDbTableStyle
  3
ObjectDBX Classes
 90
     4095
 91
        1
280
     0
281
     0
  0
CLASS
  1
MATERIAL
  2
AcDbMaterial
  3
ObjectDBX Classes
 90
        0
 91
        3
280
     0
281
     0
  0
CLASS
  1
VISUALSTYLE
  2
AcDbVisualStyle
  3
ObjectDBX Classes
 90
     4095
 91
       16
280
     0
281
     0
  0
CLASS
  1
VLO-VL
  2
vlo_VL
  3
VL|AutoLISP based application
 90
        0
 91
        0
280
     1
281
     0
  0
CLASS
  1
SORTENTSTABLE
  2
AcDbSortentsTable
  3
ObjectDBX Classes
 90
        0
 91
        1
280
     0
281
     0
  0
CLASS
  1
DIMASSOC
  2
AcDbDimAssoc
  3
"ZcDbDimAssoc|Product Desc:     ZwDim ZRX App For Dimension|Company:          ZwSoft.|WEB Address:      www.zwsoft.com"
 90
        0
 91
        0
280
     0
281
     0
  0
CLASS
  1
EXACXREFPANELOBJECT
  2
ExAcXREFPanelObject
  3
EXAC_ESW
 90
     1025
 91
        0
280
     1
281
     0
  0
CLASS
  1
NPOCOLLECTION
  2
AcDbImpNonPersistentObjectsCollection
  3
ObjectDBX Classes
 90
     1153
 91
        0
280
     0
281
     0
  0
CLASS
  1
SCALE
  2
AcDbScale
  3
ObjectDBX Classes
 90
     1153
 91
       33
280
     0
281
     0
  0
CLASS
  1
MLEADERSTYLE
  2
AcDbMLeaderStyle
  3
ACDB_MLEADERSTYLE_CLASS
 90
     4095
 91
        1
280
     0
281
     0
  0
CLASS
  1
CELLSTYLEMAP
  2
AcDbCellStyleMap
  3
ObjectDBX Classes
 90
     1152
 91
        1
280
     0
281
     0
  0
ENDSEC
  0
SECTION
  2
TABLES
  0
TABLE
  2
VPORT
  5
23
330
0
100
AcDbSymbolTable
 70
     2
  0
VPORT
  5
671
330
23
100
AcDbSymbolTableRecord
100
AcDbViewportTableRecord
  2
*Active
 70
     0
 10
0.0
 20
0.0
 11
1.0
 21
1.0
 12
41799.48210451811
 22
-2676.730369009842
 13
0.0
 23
0.0
 14
10.0
 24
10.0
 15
10.0
 25
10.0
 16
0.0
 26
0.0
 36
1.0
 17
0.0
 27
0.0
 37
0.0
 40
918.3313251488998
 41
1.857503152585119
 42
50.0
 43
0.0
 44
0.0
 50
0.0
 51
0.0
 71
     0
 72
  1000
 73
     1
 74
     3
 75
     0
 76
     0
 77
     0
 78
     0
281
     0
 65
     1
110
0.0
120
0.0
130
0.0
111
1.0
121
0.0
131
0.0
112
0.0
122
1.0
132
0.0
 79
     0
146
0.0
  0
ENDTAB
  0
TABLE
  2
LTYPE
  5
1E
330
0
100
AcDbSymbolTable
 70
     2
  0
LTYPE
  5
1F
330
1E
100
AcDbSymbolTableRecord
100
AcDbLinetypeTableRecord
  2
ByBlock
 70
     0
  3

 72
    65
 73
     0
 40
0.0
  0
LTYPE
  5
20
330
1E
100
AcDbSymbolTableRecord
100
AcDbLinetypeTableRecord
  2
ByLayer
 70
     0
  3

 72
    65
 73
     0
 40
0.0
  0
LTYPE
  5
C
330
1E
100
AcDbSymbolTableRecord
100
AcDbLinetypeTableRecord
  2
Continuous
 70
     0
  3
Solid line
 72
    65
 73
     0
 40
0.0
  0
LTYPE
  5
1AD
330
1E
100
AcDbSymbolTableRecord
100
AcDbLinetypeTableRecord
  2
CENTER2
 70
     0
  3
Center (.5x) ___ _ ___ _ ___ _ ___ _ ___ _ ___
 72
    65
 73
     4
 40
28.575
 49
19.05
 74
     0
 49
-3.174999999999999
 74
     0
 49
3.174999999999999
 74
     0
 49
-3.174999999999999
 74
     0
  0
ENDTAB
  0
TABLE
  2
LAYER
  5
15
102
{ACAD_XDICTIONARY
360
16
102
}
330
0
100
AcDbSymbolTable
 70
     9
  0
LAYER
  5
6
330
15
100
AcDbSymbolTableRecord
100
AcDbLayerTableRecord
  2
0
 70
     0
 62
     7
  6
Continuous
370
    -3
390
7
  0
LAYER
  5
34
330
15
100
AcDbSymbolTableRecord
100
AcDbLayerTableRecord
  2
轮廓线.
 70
     0
 62
   255
  6
Continuous
370
    30
390
7
1001
AcAecLayerStandard
1000

1000

  0
LAYER
  5
BA
330
15
100
AcDbSymbolTableRecord
100
AcDbLayerTableRecord
  2
尺寸标注
 70
     0
 62
    80
  6
Continuous
370
    18
390
7
1001
AcAecLayerStandard
1000

1000

  0
LAYER
  5
3B
330
15
100
AcDbSymbolTableRecord
100
AcDbLayerTableRecord
  2
06___PRT_ALL_SURFS
 70
     0
 62
     7
  6
Continuous
370
    -3
390
7
  0
LAYER
  5
105
330
15
100
AcDbSymbolTableRecord
100
AcDbLayerTableRecord
  2
03___PRT_ALL_CURVES
 70
     0
 62
     7
  6
Continuous
370
    -3
390
7
  0
LAYER
  5
1AE
330
15
100
AcDbSymbolTableRecord
100
AcDbLayerTableRecord
  2
Defpoints
 70
     0
 62
     7
  6
Continuous
290
     0
370
    -3
390
7
  0
LAYER
  5
1AF
330
15
100
AcDbSymbolTableRecord
100
AcDbLayerTableRecord
  2
中心线
 70
     0
 62
    10
  6
CENTER2
370
    18
390
7
1001
AcAecLayerStandard
1000

1000

  0
LAYER
  5
328
330
15
100
AcDbSymbolTableRecord
100
AcDbLayerTableRecord
  2
细实线
 70
     0
 62
   210
  6
Continuous
370
    18
390
7
1001
AcAecLayerStandard
1000

1000

  0
LAYER
  5
50E
330
15
100
AcDbSymbolTableRecord
100
AcDbLayerTableRecord
  2
LAY0001
 70
     0
 62
     7
  6
Continuous
370
    -3
390
7
  0
ENDTAB
  0
TABLE
  2
STYLE
  5
1B
330
0
100
AcDbSymbolTable
 70
     2
  0
STYLE
  5
1C
330
1B
100
AcDbSymbolTableRecord
100
AcDbTextStyleTableRecord
  2
Standard
 70
     0
 40
0.0
 41
1.0
 50
0.0
 71
     0
 42
2.5
  3
SimSun.ttf
  4

1001
ACAD
1000
SimSun
1071
    34306
  0
STYLE
  5
329
330
1B
100
AcDbSymbolTableRecord
100
AcDbTextStyleTableRecord
  2
Arial
 70
     0
 40
0.0
 41
1.0
 50
0.0
 71
     0
 42
2.5
  3
arial.ttf
  4

1001
ACAD
1000
Arial
1071
       34
  0
ENDTAB
  0
TABLE
  2
VIEW
  5
21
330
0
100
AcDbSymbolTable
 70
     0
  0
ENDTAB
  0
TABLE
  2
UCS
  5
22
330
0
100
AcDbSymbolTable
 70
     0
  0
ENDTAB
  0
TABLE
  2
APPID
  5
27
330
0
100
AcDbSymbolTable
 70
     5
  0
APPID
  5
1A
330
27
100
AcDbSymbolTableRecord
100
AcDbRegAppTableRecord
  2
ACAD
 70
     0
  0
APPID
  5
10
330
27
100
AcDbSymbolTableRecord
100
AcDbRegAppTableRecord
  2
ACAD_PSEXT
 70
     0
  0
APPID
  5
35
330
27
100
AcDbSymbolTableRecord
100
AcDbRegAppTableRecord
  2
AcAecLayerStandard
 70
     0
  0
APPID
  5
4E0
330
27
100
AcDbSymbolTableRecord
100
AcDbRegAppTableRecord
  2
ACAD_EXEMPT_FROM_CAD_STANDARDS
 70
     0
  0
APPID
  5
697
330
27
100
AcDbSymbolTableRecord
100
AcDbRegAppTableRecord
  2
ACAD_MLEADERVER
 70
     0
  0
ENDTAB
  0
TABLE
  2
DIMSTYLE
  5
28
330
0
100
AcDbSymbolTable
 70
     4
100
AcDbDimStyleTable
 71
     3
340
29
340
2A
340
2B
  0
DIMSTYLE
105
29
330
28
100
AcDbSymbolTableRecord
100
AcDbDimStyleTableRecord
  2
宋体
 70
     0
 40
0.5
 41
20.0
 42
0.0
 43
3.75
 44
10.0
 73
     0
 78
     8
140
30.0
141
0.0
143
0.03937007874016
147
20.0
171
     3
172
     1
271
     0
272
     0
274
     3
279
     1
284
     8
340
1C
  0
DIMSTYLE
105
2A
330
28
100
AcDbSymbolTableRecord
100
AcDbDimStyleTableRecord
  2
ISO-25
 70
     0
 41
2.5
 42
0.625
 43
3.75
 44
1.25
 73
     0
 74
     0
 77
     1
 78
     8
140
2.5
141
2.5
143
0.03937007874016
147
0.625
171
     3
172
     1
271
     2
272
     2
274
     3
278
    44
283
     0
284
     8
340
1C
  0
DIMSTYLE
105
2B
330
28
100
AcDbSymbolTableRecord
100
AcDbDimStyleTableRecord
  2
副本 ISO-25
 70
     0
 40
7.0
 41
1.5
 42
0.625
 43
3.75
 44
0.5
 73
     0
 77
     1
 78
     8
140
2.5
141
2.5
143
0.03937007874016
147
0.3
171
     3
172
     1
271
     0
272
     0
274
     3
283
     0
284
     8
340
1C
  0
DIMSTYLE
105
106
330
28
100
AcDbSymbolTableRecord
100
AcDbDimStyleTableRecord
  2
STANDARD
 70
     0
 41
3.5
 47
0.01
 48
0.01
 71
     1
 73
     0
 74
     0
 77
     1
 78
     8
140
3.5
271
     2
272
     2
284
     8
340
1C
  0
ENDTAB
  0
TABLE
  2
BLOCK_RECORD
  5
1
330
0
100
AcDbSymbolTable
 70
    11
  0
BLOCK_RECORD
  5
2
102
{ACAD_XDICTIONARY
360
3
102
}
330
1
100
AcDbSymbolTableRecord
100
AcDbBlockTableRecord
  2
*Model_Space
340
E
  0
BLOCK_RECORD
  5
11
330
1
100
AcDbSymbolTableRecord
100
AcDbBlockTableRecord
  2
*Paper_Space
340
14
  0
BLOCK_RECORD
  5
D8
330
1
100
AcDbSymbolTableRecord
100
AcDbBlockTableRecord
  2
dfhgsh
340
0
310
2800000020000000200000000100080000000000000400000000000000000000000000000000000000000000000080000080000000808000800000008000800080800000C0C0C000C0DCC000F0CAA6000020400000206000002080000020A0000020C0000020E00000400000004020000040400000406000004080000040A0
310
000040C0000040E00000600000006020000060400000606000006080000060A0000060C0000060E00000800000008020000080400000806000008080000080A0000080C0000080E00000A0000000A0200000A0400000A0600000A0800000A0A00000A0C00000A0E00000C0000000C0200000C0400000C0600000C0800000C0
310
A00000C0C00000C0E00000E0000000E0200000E0400000E0600000E0800000E0A00000E0C00000E0E00040000000400020004000400040006000400080004000A0004000C0004000E00040200000402020004020400040206000402080004020A0004020C0004020E000404000004040200040404000404060004040800040
310
40A0004040C0004040E00040600000406020004060400040606000406080004060A0004060C0004060E00040800000408020004080400040806000408080004080A0004080C0004080E00040A0000040A0200040A0400040A0600040A0800040A0A00040A0C00040A0E00040C0000040C0200040C0400040C0600040C08000
310
40C0A00040C0C00040C0E00040E0000040E0200040E0400040E0600040E0800040E0A00040E0C00040E0E00080000000800020008000400080006000800080008000A0008000C0008000E00080200000802020008020400080206000802080008020A0008020C0008020E00080400000804020008040400080406000804080
310
008040A0008040C0008040E00080600000806020008060400080606000806080008060A0008060C0008060E00080800000808020008080400080806000808080008080A0008080C0008080E00080A0000080A0200080A0400080A0600080A0800080A0A00080A0C00080A0E00080C0000080C0200080C0400080C0600080C0
310
800080C0A00080C0C00080C0E00080E0000080E0200080E0400080E0600080E0800080E0A00080E0C00080E0E000C0000000C0002000C0004000C0006000C0008000C000A000C000C000C000E000C0200000C0202000C0204000C0206000C0208000C020A000C020C000C020E000C0400000C0402000C0404000C0406000C0
310
408000C040A000C040C000C040E000C0600000C0602000C0604000C0606000C0608000C060A000C060C000C060E000C0800000C0802000C0804000C0806000C0808000C080A000C080C000C080E000C0A00000C0A02000C0A04000C0A06000C0A08000C0A0A000C0A0C000C0A0E000C0C00000C0C02000C0C04000C0C06000
310
C0C08000C0C0A000F0FBFF00A4A0A000808080000000FF0000FF000000FFFF00FF000000FF00FF00FFFF0000FFFFFF0000000000000000000000000000000000000000000000000000000000000000000000000000000000000000000000000000000000000000000000000000000000000000000000000000000000000000
310
00000000000000000000000000000000000000000000000000000000000000000000000000000000000000000000000000000000000000000000000000000000000000000000000000000000000000000000000000000000000000000000000000000000000000000000000000000000000000000000000000000000000000
310
00000000000000000000000000000000000000000000000000000000000000000000000000000000000000000000000000000000000000000000000000000000000000000000000000000000000000000000000000000000000000000000000000000000000000000000000000000000000000000000000000000000000000
310
FFFFFFFFFFFF0000000000000000000000000000000000000000FFFFFFFFFFFFFFFFFFFFFFFFFFFFFFFFFFFF00000000000000000000000000FFFFFFFFFFFFFFFFFFFFFFFFFFFFFFFFFFFFFFFF0000000000000000000000FF0000000000000000000000000000000000000000FF000000000000000037FF00000000000000
310
000000000000000000000000000000FF370000000000373700000000000000000000000000000000000000000000000037370000000037000000000000000000000000000000000000000000000000000037000000003700000000000000000000000000000000000000000000000000003700000000370000000000000000
310
000000000000000000000000000000000000370000000037000000000000000000000000000000000000000000000000000037000000FFFFFFFFFFFFFFFFFFFFFFFFFFFFFFFFFFFFFFFFFFFFFFFFFFFFFFFFFFFF0000FEFEFEFEFEFEFEFEFEFEFEFEFEFEFEFEFEFEFEFEFEFEFEFEFEFEFEFEFEFE0000000000000000000000
310
00000000000000000000000000000000000000000000000000000000000000000000000000000000000000000000000000000000000000000000000000000000000000000000000000000000000000000000000000000000000000000000000000000000000000000000000000000000000000000000000000000000000000
310
00000000000000000000000000000000000000000000000000000000000000000000000000000000000000000000000000000000000000000000000000000000000000000000000000000000000000000000000000000000000000000000000000000000000000000000000000000000000000000000000000000000000000
310
0000000000000000000000000000000000000000000000000000000000000000000000000000000000000000000000000000000000000000
102
{BLKREFS
331
108
331
170
102
}
1001
ACAD
1000
DesignCenter Data
1002
{
1070
     1
1070
     4
1002
}
  0
BLOCK_RECORD
  5
107
330
1
100
AcDbSymbolTableRecord
100
AcDbBlockTableRecord
  2
A$C404528B7
340
0
1001
ACAD
1000
DesignCenter Data
1002
{
1070
     1
1070
     4
1002
}
  0
BLOCK_RECORD
  5
10B
330
1
100
AcDbSymbolTableRecord
100
AcDbBlockTableRecord
  2
fdsgdfgsd
340
0
310
2800000020000000200000000100080000000000000400000000000000000000000000000000000000000000000080000080000000808000800000008000800080800000C0C0C000C0DCC000F0CAA6000020400000206000002080000020A0000020C0000020E00000400000004020000040400000406000004080000040A0
310
000040C0000040E00000600000006020000060400000606000006080000060A0000060C0000060E00000800000008020000080400000806000008080000080A0000080C0000080E00000A0000000A0200000A0400000A0600000A0800000A0A00000A0C00000A0E00000C0000000C0200000C0400000C0600000C0800000C0
310
A00000C0C00000C0E00000E0000000E0200000E0400000E0600000E0800000E0A00000E0C00000E0E00040000000400020004000400040006000400080004000A0004000C0004000E00040200000402020004020400040206000402080004020A0004020C0004020E000404000004040200040404000404060004040800040
310
40A0004040C0004040E00040600000406020004060400040606000406080004060A0004060C0004060E00040800000408020004080400040806000408080004080A0004080C0004080E00040A0000040A0200040A0400040A0600040A0800040A0A00040A0C00040A0E00040C0000040C0200040C0400040C0600040C08000
310
40C0A00040C0C00040C0E00040E0000040E0200040E0400040E0600040E0800040E0A00040E0C00040E0E00080000000800020008000400080006000800080008000A0008000C0008000E00080200000802020008020400080206000802080008020A0008020C0008020E00080400000804020008040400080406000804080
310
008040A0008040C0008040E00080600000806020008060400080606000806080008060A0008060C0008060E00080800000808020008080400080806000808080008080A0008080C0008080E00080A0000080A0200080A0400080A0600080A0800080A0A00080A0C00080A0E00080C0000080C0200080C0400080C0600080C0
310
800080C0A00080C0C00080C0E00080E0000080E0200080E0400080E0600080E0800080E0A00080E0C00080E0E000C0000000C0002000C0004000C0006000C0008000C000A000C000C000C000E000C0200000C0202000C0204000C0206000C0208000C020A000C020C000C020E000C0400000C0402000C0404000C0406000C0
310
408000C040A000C040C000C040E000C0600000C0602000C0604000C0606000C0608000C060A000C060C000C060E000C0800000C0802000C0804000C0806000C0808000C080A000C080C000C080E000C0A00000C0A02000C0A04000C0A06000C0A08000C0A0A000C0A0C000C0A0E000C0C00000C0C02000C0C04000C0C06000
310
C0C08000C0C0A000F0FBFF00A4A0A000808080000000FF0000FF000000FFFF00FF000000FF00FF00FFFF0000FFFFFF0000000000000000000000000000000000000000000000000000000000000000000000000000000000000000000000000000000000000000000000000000000000000000000000000000000000000000
310
00000000000000000000000000000000000000000000000000000000000000000000000000000000000000000000000000000000000000000000000000000000000000000000000000000000000000000000000000000000000000000000000000000000000000000000000000000000000000000000000000000000000000
310
00000000000000000000000000000000000000000000000000000000000000000000000000000000000000000000000000000000000000000000000000000000000000000000000000000000000000000000000000000000000000000000000000000000000000000000000000000000000000000000000000000000000000
310
FFFFFFFFFFFF000000000000000000000000000000000000000000FFFFFFFFFFFFFFFFFFFFFFFFFFFFFFFF000000000000000000000000000037FFFFFFFFFFFFFFFFFFFFFFFFFFFFFFFFFFFF3700000000000000000000FF37000000000000000000000000000000000000000037FF0000000000000037FF00000000000000
310
00000000000000000000000000000037370000000000FF3700000000000000000000000000000000000000000000000037FF0000000037000000000000000000000000000000000000000000000000000037000000003700000000000000000000000000000000000000000000000000003700000000370000000000000000
310
0000000000000000000000000000000000003700000000FF0000000000000000000000000000000000000000000000000000FF000000FFFFFFFFFFFFFFFFFFFFFFFFFFFFFFFFFFFFFFFFFFFFFFFFFFFFFFFFFFFF000000FFFFFFFFFFFFFFFFFFFFFFFFFFFFFFFFFFFFFFFFFFFFFFFFFFFFFFFF000000000000000000000000
310
00000000000000000000000000000000000000000000000000000000000000000000000000000000000000000000000000000000000000000000000000000000000000000000000000000000000000000000000000000000000000000000000000000000000000000000000000000000000000000000000000000000000000
310
00000000000000000000000000000000000000000000000000000000000000000000000000000000000000000000000000000000000000000000000000000000000000000000000000000000000000000000000000000000000000000000000000000000000000000000000000000000000000000000000000000000000000
310
0000000000000000000000000000000000000000000000000000000000000000000000000000000000000000000000000000000000000000
102
{BLKREFS
331
13B
102
}
1001
ACAD
1000
DesignCenter Data
1002
{
1070
     1
1070
     4
1002
}
  0
BLOCK_RECORD
  5
13A
330
1
100
AcDbSymbolTableRecord
100
AcDbBlockTableRecord
  2
A$C00294823
340
0
1001
ACAD
1000
DesignCenter Data
1002
{
1070
     1
1070
     4
1002
}
  0
BLOCK_RECORD
  5
13E
330
1
100
AcDbSymbolTableRecord
100
AcDbBlockTableRecord
  2
fdgdfgsd
340
0
310
2800000020000000200000000100080000000000000400000000000000000000000000000000000000000000000080000080000000808000800000008000800080800000C0C0C000C0DCC000F0CAA6000020400000206000002080000020A0000020C0000020E00000400000004020000040400000406000004080000040A0
310
000040C0000040E00000600000006020000060400000606000006080000060A0000060C0000060E00000800000008020000080400000806000008080000080A0000080C0000080E00000A0000000A0200000A0400000A0600000A0800000A0A00000A0C00000A0E00000C0000000C0200000C0400000C0600000C0800000C0
310
A00000C0C00000C0E00000E0000000E0200000E0400000E0600000E0800000E0A00000E0C00000E0E00040000000400020004000400040006000400080004000A0004000C0004000E00040200000402020004020400040206000402080004020A0004020C0004020E000404000004040200040404000404060004040800040
310
40A0004040C0004040E00040600000406020004060400040606000406080004060A0004060C0004060E00040800000408020004080400040806000408080004080A0004080C0004080E00040A0000040A0200040A0400040A0600040A0800040A0A00040A0C00040A0E00040C0000040C0200040C0400040C0600040C08000
310
40C0A00040C0C00040C0E00040E0000040E0200040E0400040E0600040E0800040E0A00040E0C00040E0E00080000000800020008000400080006000800080008000A0008000C0008000E00080200000802020008020400080206000802080008020A0008020C0008020E00080400000804020008040400080406000804080
310
008040A0008040C0008040E00080600000806020008060400080606000806080008060A0008060C0008060E00080800000808020008080400080806000808080008080A0008080C0008080E00080A0000080A0200080A0400080A0600080A0800080A0A00080A0C00080A0E00080C0000080C0200080C0400080C0600080C0
310
800080C0A00080C0C00080C0E00080E0000080E0200080E0400080E0600080E0800080E0A00080E0C00080E0E000C0000000C0002000C0004000C0006000C0008000C000A000C000C000C000E000C0200000C0202000C0204000C0206000C0208000C020A000C020C000C020E000C0400000C0402000C0404000C0406000C0
310
408000C040A000C040C000C040E000C0600000C0602000C0604000C0606000C0608000C060A000C060C000C060E000C0800000C0802000C0804000C0806000C0808000C080A000C080C000C080E000C0A00000C0A02000C0A04000C0A06000C0A08000C0A0A000C0A0C000C0A0E000C0C00000C0C02000C0C04000C0C06000
310
C0C08000C0C0A000F0FBFF00A4A0A000808080000000FF0000FF000000FFFF00FF000000FF00FF00FFFF0000FFFFFF0000000000000000000000000000000000000000000000000000000000000000000000000000000000000000000000000000000000000000000000000000000000000000000000000000000000000000
310
00000000000000000000000000000000000000000000000000000000000000000000000000000000000000000000000000000000000000000000000000000000000000000000000000000000000000000000000000000000000000000000000000000000000000000000000000000000000000000000000000000000000000
310
00000000000000000000000000000000000000000000000000000000000000000000000000000000000000000000000000000000000000000000000000000000000000000000000000000000000000000000000000000000000000000000000000000000000000000000000000000000000000000000000000000000000000
310
FFFFFFFFFFFF0000000000000000000000000000000000000000FFFFFFFFFFFFFFFFFFFFFFFFFFFFFFFFFFFF00000000000000000000000000FFFFFFFFFFFFFFFFFFFFFFFFFFFFFFFFFFFFFFFF0000000000000000000000FF0000000000000000000000000000000000000000FF000000000000000037FF00000000000000
310
000000000000000000000000000000FF370000000000373700000000000000000000000000000000000000000000000037370000000037000000000000000000000000000000000000000000000000000037000000003700000000000000000000000000000000000000000000000000003700000000370000000000000000
310
000000000000000000000000000000000000370000000037000000000000000000000000000000000000000000000000000037000000FFFFFFFFFFFFFFFFFFFFFFFFFFFFFFFFFFFFFFFFFFFFFFFFFFFFFFFFFFFF0000FEFEFEFEFEFEFEFEFEFEFEFEFEFEFEFEFEFEFEFEFEFEFEFEFEFEFEFEFEFE0000000000000000000000
310
00000000000000000000000000000000000000000000000000000000000000000000000000000000000000000000000000000000000000000000000000000000000000000000000000000000000000000000000000000000000000000000000000000000000000000000000000000000000000000000000000000000000000
310
00000000000000000000000000000000000000000000000000000000000000000000000000000000000000000000000000000000000000000000000000000000000000000000000000000000000000000000000000000000000000000000000000000000000000000000000000000000000000000000000000000000000000
310
0000000000000000000000000000000000000000000000000000000000000000000000000000000000000000000000000000000000000000
102
{BLKREFS
331
16C
331
17A
331
17E
102
}
1001
ACAD
1000
DesignCenter Data
1002
{
1070
     1
1070
     4
1002
}
  0
BLOCK_RECORD
  5
16B
330
1
100
AcDbSymbolTableRecord
100
AcDbBlockTableRecord
  2
A$C18BE6784
340
0
1001
ACAD
1000
DesignCenter Data
1002
{
1070
     1
1070
     4
1002
}
  0
BLOCK_RECORD
  5
16F
330
1
100
AcDbSymbolTableRecord
100
AcDbBlockTableRecord
  2
A$C703361F7
340
0
1001
ACAD
1000
DesignCenter Data
1002
{
1070
     1
1070
     4
1002
}
  0
BLOCK_RECORD
  5
179
330
1
100
AcDbSymbolTableRecord
100
AcDbBlockTableRecord
  2
A$C2CD672AE
340
0
1001
ACAD
1000
DesignCenter Data
1002
{
1070
     1
1070
     4
1002
}
  0
BLOCK_RECORD
  5
17D
330
1
100
AcDbSymbolTableRecord
100
AcDbBlockTableRecord
  2
A$C69525F90
340
0
1001
ACAD
1000
DesignCenter Data
1002
{
1070
     1
1070
     4
1002
}
  0
BLOCK_RECORD
  5
50F
330
1
100
AcDbSymbolTableRecord
100
AcDbBlockTableRecord
  2
A$C7AAE3A75
340
0
1001
ACAD
1000
DesignCenter Data
1002
{
1070
     1
1070
     4
1002
}
  0
ENDTAB
  0
ENDSEC
  0
SECTION
  2
BLOCKS
  0
BLOCK
  5
5
330
2
100
AcDbEntity
  8
0
100
AcDbBlockBegin
  2
*Model_Space
 70
     0
 10
0.0
 20
0.0
 30
0.0
  3
*Model_Space
  1

  0
ENDBLK
  5
D
330
2
100
AcDbEntity
  8
0
100
AcDbBlockEnd
  0
BLOCK
  5
12
330
11
100
AcDbEntity
 67
     1
  8
0
100
AcDbBlockBegin
  2
*Paper_Space
 70
     0
 10
0.0
 20
0.0
 30
0.0
  3
*Paper_Space
  1

  0
ENDBLK
  5
13
330
11
100
AcDbEntity
 67
     1
  8
0
100
AcDbBlockEnd
  0
BLOCK
  5
D9
330
D8
100
AcDbEntity
  8
0
100
AcDbBlockBegin
  2
dfhgsh
 70
     0
 10
0.0
 20
0.0
 30
0.0
  3
dfhgsh
  1

  0
SPLINE
  5
DA
330
D8
100
AcDbEntity
  8
0
  6
Continuous
 62
    40
100
AcDbSpline
210
0.0
220
0.0
230
1.0
 70
     8
 71
     3
 72
     8
 73
     4
 74
     0
 42
0.0000000001
 43
0.0000000001
 40
0.0770279668
 40
0.0770279668
 40
0.0770279668
 40
0.0770279668
 40
0.0835673718
 40
0.0835673718
 40
0.0835673718
 40
0.0835673718
 10
433.987899059
 20
312.4764604194
 30
0.0
 10
433.9501959831999
 20
312.0834906792
 30
0.0
 10
433.9123103319999
 20
311.6918790321
 30
0.0
 10
433.874220824
 20
311.3016426821
 30
0.0
  0
SPLINE
  5
DB
330
D8
100
AcDbEntity
  8
0
  6
Continuous
 62
    40
100
AcDbSpline
210
0.0
220
0.0
230
1.0
 70
     8
 71
     3
 72
     8
 73
     4
 74
     0
 42
0.0000000001
 43
0.0000000001
 40
0.1743725121
 40
0.1743725121
 40
0.1743725121
 40
0.1743725121
 40
0.2624793038
 40
0.2624793038
 40
0.2624793038
 40
0.2624793038
 10
432.1126058726999
 20
295.8869658522
 30
0.0
 10
431.4678537383
 20
291.1885229435
 30
0.0
 10
430.7324526444
 20
286.7831002183
 30
0.0
 10
429.8543533016
 20
282.7127750105
 30
0.0
  0
SPLINE
  5
DC
330
D8
100
AcDbEntity
  8
0
  6
Continuous
 62
    40
100
AcDbSpline
210
0.0
220
0.0
230
1.0
 70
     8
 71
     3
 72
     8
 73
     4
 74
     0
 42
0.0000000001
 43
0.0000000001
 40
0.3684293885
 40
0.3684293885
 40
0.3684293885
 40
0.3684293885
 40
0.4812783136000001
 40
0.4812783136000001
 40
0.4812783136000001
 40
0.4812783136000001
 10
425.9806249998
 20
269.4825749083
 30
0.0
 10
424.3257820876
 20
265.2618907468
 30
0.0
 10
422.3435081303
 20
261.4851719636
 30
0.0
 10
419.9394499363999
 20
257.937576933
 30
0.0
  0
LINE
  5
DD
330
D8
100
AcDbEntity
  8
0
  6
Continuous
 62
    40
100
AcDbLine
 10
419.9394499363999
 20
257.937576933
 30
0.0
 11
419.8872758244
 21
257.8607185185
 31
0.0
  0
SPLINE
  5
DE
330
D8
100
AcDbEntity
  8
0
  6
Continuous
 62
    40
100
AcDbSpline
210
0.0
220
0.0
230
1.0
 70
     8
 71
     3
 72
     8
 73
     4
 74
     0
 42
0.0000000001
 43
0.0000000001
 40
0.4820936480000001
 40
0.4820936480000001
 40
0.4820936480000001
 40
0.4820936480000001
 40
0.5947560328
 40
0.5947560328
 40
0.5947560328
 40
0.5947560328
 10
419.8872758244
 20
257.8607185185
 30
0.0
 10
417.4811019294
 20
254.3222818689
 30
0.0
 10
414.6538576212
 20
251.0106650055
 30
0.0
 10
411.3116568352999
 20
247.7120899483
 30
0.0
  0
SPLINE
  5
DF
330
D8
100
AcDbEntity
  8
0
  6
Continuous
 62
    40
100
AcDbSpline
210
0.0
220
0.0
230
1.0
 70
     8
 71
     3
 72
     8
 73
     4
 74
     0
 42
0.0000000001
 43
0.0000000001
 40
0.0770279668
 40
0.0770279668
 40
0.0770279668
 40
0.0770279668
 40
0.0835673718
 40
0.0835673718
 40
0.0835673718
 40
0.0835673718
 10
66.5958695978
 20
312.4764604194
 30
0.0
 10
66.6335726735
 20
312.0834906792
 30
0.0
 10
66.6714583247
 20
311.6918790321
 30
0.0
 10
66.70954783270001
 20
311.3016426821
 30
0.0
  0
SPLINE
  5
E0
330
D8
100
AcDbEntity
  8
0
  6
Continuous
 62
    40
100
AcDbSpline
210
0.0
220
0.0
230
1.0
 70
     8
 71
     3
 72
     8
 73
     4
 74
     0
 42
0.0000000001
 43
0.0000000001
 40
0.1743725121
 40
0.1743725121
 40
0.1743725121
 40
0.1743725121
 40
0.2624793038
 40
0.2624793038
 40
0.2624793038
 40
0.2624793038
 10
68.471162784
 20
295.8869658522
 30
0.0
 10
69.11591491840001
 20
291.1885229435
 30
0.0
 10
69.85131601229999
 20
286.7831002183
 30
0.0
 10
70.7294153551
 20
282.7127750105
 30
0.0
  0
SPLINE
  5
E1
330
D8
100
AcDbEntity
  8
0
  6
Continuous
 62
    40
100
AcDbSpline
210
0.0
220
0.0
230
1.0
 70
     8
 71
     3
 72
     8
 73
     4
 74
     0
 42
0.0000000001
 43
0.0000000001
 40
0.3680842808
 40
0.3680842808
 40
0.3680842808
 40
0.3680842808
 40
0.4812783136000001
 40
0.4812783136000001
 40
0.4812783136000001
 40
0.4812783136000001
 10
74.58797061999999
 20
269.521309692
 30
0.0
 10
76.2458663736
 20
265.2849923545
 30
0.0
 10
78.2329085814
 20
261.4960210037
 30
0.0
 10
80.64431872029999
 20
257.937576933
 30
0.0
  0
LINE
  5
E2
330
D8
100
AcDbEntity
  8
0
  6
Continuous
 62
    40
100
AcDbLine
 10
80.64431872029999
 20
257.937576933
 30
0.0
 11
80.69649283229999
 21
257.8607185185
 31
0.0
  0
SPLINE
  5
E3
330
D8
100
AcDbEntity
  8
0
  6
Continuous
 62
    40
100
AcDbSpline
210
0.0
220
0.0
230
1.0
 70
     8
 71
     3
 72
     8
 73
     4
 74
     0
 42
0.0000000001
 43
0.0000000001
 40
0.4820936480000001
 40
0.4820936480000001
 40
0.4820936480000001
 40
0.4820936480000001
 40
0.5947560328
 40
0.5947560328
 40
0.5947560328
 40
0.5947560328
 10
80.69649283229999
 20
257.8607185185
 30
0.0
 10
83.1026667273
 20
254.3222818689
 30
0.0
 10
85.9299110355
 20
251.0106650055
 30
0.0
 10
89.27211182139998
 20
247.7120899483
 30
0.0
  0
LWPOLYLINE
  5
E4
330
D8
100
AcDbEntity
  8
06___PRT_ALL_SURFS
  6
Continuous
 62
     7
100
AcDbPolyline
 90
       11
 70
     0
 43
0.0
 10
65.3047651735
 20
326.9000619965
 10
66.6934705708
 20
311.4670350826
 10
68.40163239849999
 20
296.3709247382
 10
70.7944777675
 20
282.4055715243
 10
74.5950544591
 20
269.5051069381
 10
80.66944682810001
 20
257.9065648342
 10
89.3051501577
 20
247.6794709392
 10
100.1655506129
 20
238.299513384
 10
112.9772056106
 20
229.4156501374
 10
127.5934278395
 20
221.043193063
 10
142.9402390945
 20
213.7144482491
  0
LWPOLYLINE
  5
E5
330
D8
100
AcDbEntity
  8
0
  6
Continuous
 62
     7
100
AcDbPolyline
 90
        4
 70
     0
 43
0.0
 10
144.041052772
 20
212.9945734893
 10
144.7897789619
 20
212.066990824
 10
145.2321701283
 20
210.9591216699
 10
145.2839429805
 20
210.7000619965
  0
LWPOLYLINE
  5
E6
330
D8
100
AcDbEntity
  8
0
  6
Continuous
 62
     7
100
AcDbPolyline
 90
        3
 70
     0
 43
0.0
 10
142.9391265216
 20
213.7119043948
 10
143.0530507202
 20
213.6599839128
 10
144.041052772
 20
212.9945734893
  0
LINE
  5
E7
330
D8
100
AcDbEntity
  8
0
  6
Continuous
 62
     7
100
AcDbLine
 10
281.7031068323
 20
197.7000619965
 30
0.0
 11
218.8806618244
 21
197.7000619965
 31
0.0
  0
LINE
  5
E8
330
D8
100
AcDbEntity
  8
0
  6
Continuous
 62
     7
100
AcDbLine
 10
214.9040839722
 20
201.2678252735
 30
0.0
 11
285.6796846845
 21
201.2678252735
 31
0.0
  0
LINE
  5
E9
330
D8
100
AcDbEntity
  8
0
  6
Continuous
 62
     7
100
AcDbLine
 10
355.3002777317
 20
210.7000619965
 30
0.0
 11
145.283490925
 21
210.7000619965
 31
0.0
  0
LWPOLYLINE
  5
EA
330
D8
100
AcDbEntity
  8
0
  6
Continuous
 62
     7
100
AcDbPolyline
 90
        7
 70
     0
 43
0.0
 10
207.2653047061
 20
210.7000619965
 10
207.555956883
 20
210.648672133
 10
209.9001807612
 20
209.6597099615
 10
211.9313125535
 20
208.0988525682
 10
213.5033480717
 20
206.0662273552
 10
214.505550366
 20
203.6999492072
 10
214.8140614276
 20
202.0960324438
  0
LINE
  5
EB
330
D8
100
AcDbEntity
  8
0
  6
Continuous
 62
     7
100
AcDbLine
 10
214.8140632092
 20
202.0960162924
 30
0.0
 11
214.9040839722
 21
201.2678252735
 31
0.0
  0
LINE
  5
EC
330
D8
100
AcDbEntity
  8
0
  6
Continuous
 62
     7
100
AcDbLine
 10
285.7697039339
 20
202.0960023676
 30
0.0
 11
285.6796846845
 21
201.2678252735
 31
0.0
  0
LWPOLYLINE
  5
ED
330
D8
100
AcDbEntity
  8
0
  6
Continuous
 62
     7
100
AcDbPolyline
 90
        7
 70
     0
 43
0.0
 10
285.7697071755
 20
202.0960328025
 10
286.078228762
 20
203.6999872874
 10
287.0804960893
 20
206.0663567496
 10
288.6526387302
 20
208.099034857
 10
290.6838388433
 20
209.659856131
 10
293.0279648354
 20
210.6487148098
 10
293.3183891511
 20
210.7000619965
  0
LINE
  5
EE
330
D8
100
AcDbEntity
  8
03___PRT_ALL_CURVES
  6
Continuous
 62
     4
100
AcDbLine
 10
65.2918843284
 20
330.7000619965001
 30
0.0
 11
435.2918843283999
 21
330.7000619965001
 31
0.0
  0
LINE
  5
EF
330
D8
100
AcDbEntity
  8
06___PRT_ALL_SURFS
  6
Continuous
 62
     7
100
AcDbLine
 10
101.1688748483
 20
330.6995580837
 30
0.0
 11
92.66459898129999
 21
330.7001019941
 31
0.0
  0
LINE
  5
F0
330
D8
100
AcDbEntity
  8
06___PRT_ALL_SURFS
  6
Continuous
 62
     7
100
AcDbLine
 10
431.7915175178
 20
330.7000619767
 30
0.0
 11
68.79225115779999
 21
330.7000619796
 31
0.0
  0
LWPOLYLINE
  5
F1
330
D8
100
AcDbEntity
  8
06___PRT_ALL_SURFS
  6
Continuous
 62
     7
100
AcDbPolyline
 90
       11
 70
     0
 43
0.0
 10
357.6435295622
 20
213.7144482491
 10
372.9903408172
 20
221.043193063
 10
387.6065630461
 20
229.4156501374
 10
400.4182180437999
 20
238.299513384
 10
411.278618499
 20
247.6794709392
 10
419.9143218286
 20
257.9065648342
 10
425.9887141976999
 20
269.5051069381
 10
429.7892908891999
 20
282.4055715243
 10
432.1821362583
 20
296.3709247382
 10
433.8902980859
 20
311.4670350826
 10
435.2790034832
 20
326.9000619965
  0
LWPOLYLINE
  5
F2
330
D8
100
AcDbEntity
  8
0
  6
Continuous
 62
     7
100
AcDbPolyline
 90
        3
 70
     0
 43
0.0
 10
356.5427158847
 20
212.9945734893
 10
357.5307179365
 20
213.6599839128
 10
357.6446421351999
 20
213.7119043948
  0
LWPOLYLINE
  5
F3
330
D8
100
AcDbEntity
  8
06___PRT_ALL_SURFS
  6
Continuous
 62
     7
100
AcDbPolyline
 90
        7
 70
     0
 43
0.0
 10
68.79225115779999
 20
330.7000619796
 10
67.6953408964
 20
330.5238538832
 10
66.7038883786
 20
330.0090249574
 10
65.9231567681
 20
329.2051560555
 10
65.43629243579999
 20
328.1950509666
 10
65.2937808927
 20
327.0848562963
 10
65.3047651767
 20
326.9000619601
  0
LWPOLYLINE
  5
F4
330
D8
100
AcDbEntity
  8
0
  6
Continuous
 62
     7
100
AcDbPolyline
 90
        4
 70
     0
 43
0.0
 10
355.2998256763
 20
210.7000619965
 10
355.3515985285
 20
210.9591216699
 10
355.7939896948
 20
212.066990824
 10
356.5427158847
 20
212.9945734893
  0
LWPOLYLINE
  5
F5
330
D8
100
AcDbEntity
  8
06___PRT_ALL_SURFS
  6
Continuous
 62
     7
100
AcDbPolyline
 90
        7
 70
     0
 43
0.0
 10
435.2790034801
 20
326.9000619601
 10
435.2900785708999
 20
327.0876474015
 10
435.1472528636
 20
328.1958039273
 10
434.6624783112999
 20
329.2024830775
 10
433.8851607466999
 20
330.0050920922
 10
432.8945213169999
 20
330.5218373766
 10
431.7915175178
 20
330.7000619767
  0
ARC
  5
F6
330
D8
100
AcDbEntity
  8
0
  6
Continuous
 62
    40
100
AcDbCircle
 10
213.5087353196
 20
389.2529890693
 30
0.0
 40
188.8242465458
100
AcDbArc
 50
237.7379102577
 51
237.9301923133
  0
ARC
  5
F7
330
D8
100
AcDbEntity
  8
0
  6
Continuous
 62
    40
100
AcDbCircle
 10
287.075033348
 20
389.252989052
 30
0.0
 40
188.8242465254
100
AcDbArc
 50
302.0698076867
 51
302.2620897423
  0
ARC
  5
F8
330
D8
100
AcDbEntity
  8
0
  6
Continuous
 62
     7
100
AcDbCircle
 10
281.7031068323
 20
201.7000619965
 30
0.0
 40
4.0
100
AcDbArc
 50
270.0
 51
353.7965520983
  0
ARC
  5
F9
330
D8
100
AcDbEntity
  8
0
  6
Continuous
 62
     7
100
AcDbCircle
 10
218.8806618244
 20
201.7000619965
 30
0.0
 40
4.0
100
AcDbArc
 50
186.2034479016999
 51
270.0
  0
LINE
  5
FA
330
D8
100
AcDbEntity
  8
0
  6
Continuous
 62
     7
100
AcDbLine
 10
65.304765174
 20
326.9000619913
 30
0.0
 11
250.2918843284
 21
326.9000619913
 31
0.0
  0
SPLINE
  5
FB
330
D8
100
AcDbEntity
  8
0
  6
Continuous
 62
     7
100
AcDbSpline
210
0.0
220
0.0
230
1.0
 70
     8
 71
     3
 72
    11
 73
     7
 74
     0
 42
0.0000000001
 43
0.0000000001
 40
0.0
 40
0.0
 40
0.0
 40
0.0
 40
0.2683792105
 40
0.5341463992000001
 40
0.7892628730000001
 40
1.0
 40
1.0
 40
1.0
 40
1.0
 10
250.2918843284
 20
213.7113680606
 30
0.0
 10
242.3360956893
 20
213.7114823534
 30
0.0
 10
226.5019508758
 20
213.71118142
 30
0.0
 10
203.1051651814
 20
213.6959935327
 30
0.0
 10
181.4171836543
 20
213.6561625742
 30
0.0
 10
167.6074900559
 20
213.6131516705
 30
0.0
 10
161.3604450324
 20
213.6250277506
 30
0.0
  0
SPLINE
  5
FC
330
D8
100
AcDbEntity
  8
0
  6
Continuous
 62
     7
100
AcDbSpline
210
0.0
220
0.0
230
1.0
 70
     8
 71
     3
 72
     9
 73
     5
 74
     0
 42
0.0000000001
 43
0.0000000001
 40
0.0
 40
0.0
 40
0.0
 40
0.0
 40
0.2596894357
 40
1.0
 40
1.0
 40
1.0
 40
1.0
 10
161.3604450324
 20
213.6250277506
 30
0.0
 10
161.1631887196
 20
213.625402749
 30
0.0
 10
160.403603506
 20
213.6269612158
 30
0.0
 10
159.6440191696
 20
213.6289430603
 30
0.0
 10
159.0816915808
 20
213.6306361882
 30
0.0
  0
LINE
  5
FD
330
D8
100
AcDbEntity
  8
0
  6
Continuous
 62
     7
100
AcDbLine
 10
159.0816915808
 20
213.6306361882
 30
0.0
 11
142.9395129591
 21
213.7112920925
 31
0.0
  0
SPLINE
  5
FE
330
D8
100
AcDbEntity
  8
0
  6
Continuous
 62
     7
100
AcDbSpline
210
0.0
220
0.0
230
1.0
 70
     8
 71
     3
 72
    27
 73
    23
 74
     0
 42
0.0000000001
 43
0.0000000001
 40
0.0
 40
0.0
 40
0.0
 40
0.0
 40
0.1950649387
 40
0.3826209504999999
 40
0.5554508706
 40
0.6342448178
 40
0.7069372701000001
 40
0.7728241637000001
 40
0.8312854373999998
 40
0.881748636
 40
0.923739227
 40
0.9414204467000001
 40
0.9568362801999999
 40
0.9699506979
 40
0.9807276451999999
 40
0.9891358046999998
 40
0.9924463895999998
 40
0.9951591500999999
 40
0.9972724681
 40
0.9987847313999999
 40
0.9996943548999999
 40
1.0
 40
1.0
 40
1.0
 40
1.0
 10
250.2918843284
 20
202.0960366228
 30
0.0
 10
247.9850152969
 20
202.0960144401
 30
0.0
 10
243.4600772743
 20
202.0888474402
 30
0.0
 10
236.8912743607
 20
202.0636168066
 30
0.0
 10
231.6975053204
 20
202.0426605394
 30
0.0
 10
227.8621080515
 20
202.0304134778
 30
0.0
 10
225.2914224063
 20
202.0247601321
 30
0.0
 10
222.9611877929
 20
202.0233124655
 30
0.0
 10
220.8938409974
 20
202.0265765864
 30
0.0
 10
219.1091114746
 20
202.0351180411
 30
0.0
 10
217.8066812999
 20
202.0458994905
 30
0.0
 10
216.9187366235
 20
202.056170473
 30
0.0
 10
216.3722952497
 20
202.0636737484
 30
0.0
 10
215.9074651566
 20
202.0710197569
 30
0.0
 10
215.5256460687
 20
202.0780453198
 30
0.0
 10
215.2594398572
 20
202.0832997638
 30
0.0
 10
215.0891594003
 20
202.0875699063
 30
0.0
 10
214.9922419522
 20
202.0892816391
 30
0.0
 10
214.9191799077
 20
202.0931465446
 30
0.0
 10
214.8613361226
 20
202.0907404069
 30
0.0
 10
214.8365556906
 20
202.0991448519
 30
0.0
 10
214.8144499027
 20
202.0924386534
 30
0.0
 10
214.8140614688
 20
202.0960323294
 30
0.0
  0
SPLINE
  5
FF
330
D8
100
AcDbEntity
  8
0
  6
Continuous
 62
     7
100
AcDbSpline
210
0.0
220
0.0
230
1.0
 70
     8
 71
     3
 72
    27
 73
    23
 74
     0
 42
0.0000000001
 43
0.0000000001
 40
0.0
 40
0.0
 40
0.0
 40
0.0
 40
0.0003056867
 40
0.0012153147
 40
0.0027275584
 40
0.0048408449
 40
0.0075535744
 40
0.0108641405
 40
0.0192723479
 40
0.0300493922
 40
0.043163835
 40
0.058579668
 40
0.0762609086
 40
0.1182514564
 40
0.1687146326
 40
0.2271760603
 40
0.2930631273
 40
0.3657557367
 40
0.4445497382
 40
0.6173794925000001
 40
0.8049352687999999
 40
1.0
 40
1.0
 40
1.0
 40
1.0
 10
285.7697072061
 20
202.0960325634
 30
0.0
 10
285.7693076992
 20
202.092439606
 30
0.0
 10
285.7472278055
 20
202.0991411635
 30
0.0
 10
285.7224211324
 20
202.0907409889
 30
0.0
 10
285.6645927549
 20
202.0931445964
 30
0.0
 10
285.5915251092
 20
202.089281295
 30
0.0
 10
285.4946111414
 20
202.0875696747
 30
0.0
 10
285.3243294877
 20
202.0833005743
 30
0.0
 10
285.0581225562
 20
202.0780465054
 30
0.0
 10
284.6763011299
 20
202.0710202803
 30
0.0
 10
284.211469735
 20
202.0636732944
 30
0.0
 10
283.6650277919
 20
202.0561691395
 30
0.0
 10
282.7770833981
 20
202.0458982369
 30
0.0
 10
281.4746537308
 20
202.0351175815
 30
0.0
 10
279.6899231538
 20
202.0265781966
 30
0.0
 10
277.6225727498
 20
202.0233140258
 30
0.0
 10
275.2923323984
 20
202.0247588102
 30
0.0
 10
272.7216421962
 20
202.0304126909
 30
0.0
 10
268.8862443837
 20
202.0426610442
 30
0.0
 10
263.6924794353
 20
202.063617274
 30
0.0
 10
257.1236837038
 20
202.0888469377
 30
0.0
 10
252.598750911
 20
202.0960148715
 30
0.0
 10
250.2918843284
 20
202.0960366228
 30
0.0
  0
LINE
  5
100
330
D8
100
AcDbEntity
  8
0
  6
Continuous
 62
     7
100
AcDbLine
 10
357.6442556851
 20
213.7112920955
 30
0.0
 11
341.5098960271
 21
213.6306533495
 31
0.0
  0
SPLINE
  5
101
330
D8
100
AcDbEntity
  8
0
  6
Continuous
 62
     7
100
AcDbSpline
210
0.0
220
0.0
230
1.0
 70
     8
 71
     3
 72
     9
 73
     5
 74
     0
 42
0.0000000001
 43
0.0000000001
 40
0.0
 40
0.0
 40
0.0
 40
0.0
 40
0.2402988864
 40
1.0
 40
1.0
 40
1.0
 40
1.0
 10
341.5098960271
 20
213.6306533495
 30
0.0
 10
341.3256841895
 20
213.6300990083
 30
0.0
 10
340.5590892502
 20
213.6278940807
 30
0.0
 10
339.7924930748
 20
213.6261160168
 30
0.0
 10
339.2101086733
 20
213.6250181541
 30
0.0
  0
SPLINE
  5
102
330
D8
100
AcDbEntity
  8
0
  6
Continuous
 62
     7
100
AcDbSpline
210
0.0
220
0.0
230
1.0
 70
     8
 71
     3
 72
    11
 73
     7
 74
     0
 42
0.0000000001
 43
0.0000000001
 40
0.0
 40
0.0
 40
0.0
 40
0.0
 40
0.2107793294
 40
0.4658884885
 40
0.7316381823999999
 40
1.0
 40
1.0
 40
1.0
 40
1.0
 10
339.2101086733
 20
213.6250181541
 30
0.0
 10
332.9627408984
 20
213.6132411346
 30
0.0
 10
319.1540657069
 20
213.6561680769
 30
0.0
 10
297.4687912431999
 20
213.6960348907
 30
0.0
 10
274.0767331262
 20
213.7111985337
 30
0.0
 10
258.2459752509
 20
213.7114804016
 30
0.0
 10
250.2918843284
 20
213.7113680606
 30
0.0
  0
LINE
  5
103
330
D8
100
AcDbEntity
  8
0
  6
Continuous
 62
     7
100
AcDbLine
 10
250.2918843284
 20
326.9000619913
 30
0.0
 11
435.2790034826999
 21
326.9000619913
 31
0.0
  0
ENDBLK
  5
104
330
D8
100
AcDbEntity
  8
0
100
AcDbBlockEnd
  0
BLOCK
  5
109
330
107
100
AcDbEntity
  8
0
100
AcDbBlockBegin
  2
A$C404528B7
 70
     0
 10
0.0
 20
0.0
 30
0.0
  3
A$C404528B7
  1

  0
INSERT
  5
108
330
107
100
AcDbEntity
  8
0
100
AcDbBlockReference
  2
dfhgsh
 10
-65.29188362776404
 20
-197.7000619397964
 30
0.0
  0
ENDBLK
  5
10A
330
107
100
AcDbEntity
  8
0
100
AcDbBlockEnd
  0
BLOCK
  5
10C
330
10B
100
AcDbEntity
  8
0
100
AcDbBlockBegin
  2
fdsgdfgsd
 70
     0
 10
0.0
 20
0.0
 30
0.0
  3
fdsgdfgsd
  1

  0
SPLINE
  5
10D
330
10B
100
AcDbEntity
  8
0
  6
Continuous
 62
    40
100
AcDbSpline
210
0.0
220
0.0
230
1.0
 70
     8
 71
     3
 72
     8
 73
     4
 74
     0
 42
0.0000000001
 43
0.0000000001
 40
0.1797696531
 40
0.1797696531
 40
0.1797696531
 40
0.1797696531
 40
0.2685008979
 40
0.2685008979
 40
0.2685008979
 40
0.2685008979
 10
36.1311799109
 20
298.1201467936
 30
0.0
 10
36.9682253076
 20
293.3500253521
 30
0.0
 10
37.89436590280001
 20
288.9524586502
 30
0.0
 10
38.9219138537
 20
284.9661878315
 30
0.0
  0
SPLINE
  5
10E
330
10B
100
AcDbEntity
  8
0
  6
Continuous
 62
    40
100
AcDbSpline
210
0.0
220
0.0
230
1.0
 70
     8
 71
     3
 72
     8
 73
     4
 74
     0
 42
0.0000000001
 43
0.0000000001
 40
0.7645717214
 40
0.7645717214
 40
0.7645717214
 40
0.7645717214
 40
0.8706742740999999
 40
0.8706742740999999
 40
0.8706742740999999
 40
0.8706742740999999
 10
77.604972052
 20
235.0291154806
 30
0.0
 10
82.0651512404
 20
232.0509084675
 30
0.0
 10
86.82759237559999
 20
229.2186756265
 30
0.0
 10
91.91667045930001
 20
226.5157635604
 30
0.0
  0
SPLINE
  5
10F
330
10B
100
AcDbEntity
  8
0
  6
Continuous
 62
    40
100
AcDbSpline
210
0.0
220
0.0
230
1.0
 70
     8
 71
     3
 72
     8
 73
     4
 74
     0
 42
0.0000000001
 43
0.0000000001
 40
0.1797696531
 40
0.1797696531
 40
0.1797696531
 40
0.1797696531
 40
0.2685008979
 40
0.2685008979
 40
0.2685008979
 40
0.2685008979
 10
397.919752925
 20
298.1201467936
 30
0.0
 10
397.0827075282
 20
293.3500253521
 30
0.0
 10
396.156566933
 20
288.9524586502
 30
0.0
 10
395.1290189822
 20
284.9661878315
 30
0.0
  0
SPLINE
  5
110
330
10B
100
AcDbEntity
  8
0
  6
Continuous
 62
    40
100
AcDbSpline
210
0.0
220
0.0
230
1.0
 70
     8
 71
     3
 72
     8
 73
     4
 74
     0
 42
0.0000000001
 43
0.0000000001
 40
0.5624325912
 40
0.5624325912
 40
0.5624325912
 40
0.5624325912
 40
0.6579434677
 40
0.6579434677
 40
0.6579434677
 40
0.6579434677
 10
378.3434724484
 20
253.4331945405
 30
0.0
 10
375.531106786
 20
250.3649199416
 30
0.0
 10
372.3836298557
 20
247.3533153906
 30
0.0
 10
368.949807915
 20
244.4316987867
 30
0.0
  0
SPLINE
  5
111
330
10B
100
AcDbEntity
  8
0
  6
Continuous
 62
    40
100
AcDbSpline
210
0.0
220
0.0
230
1.0
 70
     8
 71
     3
 72
     8
 73
     4
 74
     0
 42
0.0000000001
 43
0.0000000001
 40
0.7645717214
 40
0.7645717214
 40
0.7645717214
 40
0.7645717214
 40
0.8706742740999999
 40
0.8706742740999999
 40
0.8706742740999999
 40
0.8706742740999999
 10
356.4459607838
 20
235.0291154806
 30
0.0
 10
351.9857815954
 20
232.0509084675
 30
0.0
 10
347.2233404603
 20
229.2186756265
 30
0.0
 10
342.1342623766
 20
226.5157635605
 30
0.0
  0
LINE
  5
112
330
10B
100
AcDbEntity
  8
0
  6
Continuous
 62
     7
100
AcDbLine
 10
248.4366889218
 20
202.1784514925
 30
0.0
 11
185.614243914
 21
202.1784514925
 31
0.0
  0
LINE
  5
113
330
10B
100
AcDbEntity
  8
0
  6
Continuous
 62
     7
100
AcDbLine
 10
181.6376660617
 20
205.7462147695
 30
0.0
 11
252.4132667741
 21
205.7462147695
 31
0.0
  0
LINE
  5
114
330
10B
100
AcDbEntity
  8
0
  6
Continuous
 62
     7
100
AcDbLine
 10
252.5170798444
 20
206.7012950165
 30
0.0
 11
181.533836945
 21
206.7014429703
 31
0.0
  0
LINE
  5
115
330
10B
100
AcDbEntity
  8
0
  6
Continuous
 62
     7
100
AcDbLine
 10
322.0254664179
 20
215.1784514925
 30
0.0
 11
112.0254664179
 21
215.1784514925
 31
0.0
  0
LINE
  5
116
330
10B
100
AcDbEntity
  8
0
  6
Continuous
 62
     7
100
AcDbLine
 10
181.5338242689
 20
206.7015592634
 30
0.0
 11
181.6376660617
 21
205.7462147695
 31
0.0
  0
LINE
  5
117
330
10B
100
AcDbEntity
  8
0
  6
Continuous
 62
     7
100
AcDbLine
 10
252.5170798444
 20
206.7012950165
 30
0.0
 11
252.4132667741
 21
205.7462147695
 31
0.0
  0
LINE
  5
118
330
10B
100
AcDbEntity
  8
0
  6
Continuous
 62
     7
100
AcDbLine
 10
32.0383472631
 20
331.3784514925
 30
0.0
 11
402.0125855726999
 21
331.3784514925
 31
0.0
  0
LINE
  5
119
330
10B
100
AcDbEntity
  8
06___PRT_ALL_SURFS
  6
Continuous
 62
     7
100
AcDbLine
 10
35.5254664179
 20
335.1784514925
 30
0.0
 11
398.5254664179
 21
335.1784514925
 31
0.0
  0
LINE
  5
11A
330
10B
100
AcDbEntity
  8
03___PRT_ALL_CURVES
  6
Continuous
 62
     4
100
AcDbLine
 10
35.30232503460001
 20
335.1784514925
 30
0.0
 11
398.7486078027
 21
335.1784514925
 31
0.0
  0
ARC
  5
11B
330
10B
100
AcDbEntity
  8
0
  6
Continuous
 62
    40
100
AcDbCircle
 10
179.6016556739
 20
391.6108728704
 30
0.0
 40
186.9359562795
100
AcDbArc
 50
242.0264240445
 51
242.1836552381
  0
ARC
  5
11C
330
10B
100
AcDbEntity
  8
0
  6
Continuous
 62
    40
100
AcDbCircle
 10
254.4492771906
 20
391.6108728162999
 30
0.0
 40
186.9359562183
100
AcDbArc
 50
297.8163447619
 51
297.9735759555
  0
ARC
  5
11D
330
10B
100
AcDbEntity
  8
0
  6
Continuous
 62
    40
100
AcDbCircle
 10
160.217386658
 20
358.7502724922
 30
0.0
 40
148.7673880234
100
AcDbArc
 50
236.0968137857
 51
236.2677469783
  0
ARC
  5
11E
330
10B
100
AcDbEntity
  8
0
  6
Continuous
 62
    40
100
AcDbCircle
 10
273.8335461916
 20
358.7502724717
 30
0.0
 40
148.7673879987
100
AcDbArc
 50
303.7322530217
 51
303.9031862143
  0
ARC
  5
11F
330
10B
100
AcDbEntity
  8
0
  6
Continuous
 62
    40
100
AcDbCircle
 10
311.4626031409
 20
314.7361375407
 30
0.0
 40
90.7254181573
100
AcDbArc
 50
317.4916573859
 51
317.683201768
  0
ARC
  5
120
330
10B
100
AcDbEntity
  8
0
  6
Continuous
 62
    40
100
AcDbCircle
 10
122.5883296874
 20
314.7361375337
 30
0.0
 40
90.725418147
100
AcDbArc
 50
222.316798232
 51
222.5083426141
  0
ARC
  5
121
330
10B
100
AcDbEntity
  8
0
  6
Continuous
 62
    40
100
AcDbCircle
 10
331.1423942934
 20
298.2165163962
 30
0.0
 40
65.14175675069999
100
AcDbArc
 50
336.9099562874
 51
337.0764385895
  0
ARC
  5
122
330
10B
100
AcDbEntity
  8
0
  6
Continuous
 62
    40
100
AcDbCircle
 10
102.9085385362
 20
298.2165163935
 30
0.0
 40
65.1417567439
100
AcDbArc
 50
202.9235614106
 51
203.0900437127
  0
ARC
  5
123
330
10B
100
AcDbEntity
  8
0
  6
Continuous
 62
    40
100
AcDbCircle
 10
102.1157844011
 20
298.5424192472
 30
0.0
 40
64.59748786739999
100
AcDbArc
 50
213.5090908514
 51
213.7374070504
  0
ARC
  5
124
330
10B
100
AcDbEntity
  8
0
  6
Continuous
 62
    40
100
AcDbCircle
 10
331.9351484438
 20
298.5424192412
 30
0.0
 40
64.59748785649999
100
AcDbArc
 50
326.2625929496
 51
326.4909091487
  0
ARC
  5
125
330
10B
100
AcDbEntity
  8
0
  6
Continuous
 62
    40
100
AcDbCircle
 10
98.5790671282
 20
296.2807247944
 30
0.0
 40
60.40000403789999
100
AcDbArc
 50
203.0115044753
 51
213.5723781589
  0
ARC
  5
126
330
10B
100
AcDbEntity
  8
0
  6
Continuous
 62
    40
100
AcDbCircle
 10
335.4718657077
 20
296.2807247944
 30
0.0
 40
60.40000403789999
100
AcDbArc
 50
326.4276218411
 51
336.9884955248
  0
ARC
  5
127
330
10B
100
AcDbEntity
  8
0
  6
Continuous
 62
     7
100
AcDbCircle
 10
262.4585031903
 20
205.6207018721
 30
0.0
 40
9.9999953934
100
AcDbArc
 50
105.3439633105
 51
173.7965313063
  0
ARC
  5
128
330
10B
100
AcDbEntity
  8
0
  6
Continuous
 62
     7
100
AcDbCircle
 10
171.592609927
 20
205.620829336
 30
0.0
 40
9.9999531197
100
AcDbArc
 50
6.203447901799999
 51
73.3058109966
  0
ARC
  5
129
330
10B
100
AcDbEntity
  8
0
  6
Continuous
 62
     7
100
AcDbCircle
 10
185.614243914
 20
206.1784514925
 30
0.0
 40
4.0
100
AcDbArc
 50
186.2034479016999
 51
270.0
  0
ARC
  5
12A
330
10B
100
AcDbEntity
  8
0
  6
Continuous
 62
     7
100
AcDbCircle
 10
248.4366889218
 20
206.1784514925
 30
0.0
 40
4.0
100
AcDbArc
 50
270.0
 51
353.7965520983
  0
ARC
  5
12B
330
10B
100
AcDbEntity
  8
0
  6
Continuous
 62
     7
100
AcDbCircle
 10
108.0873136095
 20
214.4777719923
 30
0.0
 40
3.9999999967
100
AcDbArc
 50
10.0885441567
 51
67.258767787
  0
ARC
  5
12C
330
10B
100
AcDbEntity
  8
0
  6
Continuous
 62
     7
100
AcDbCircle
 10
325.9636192263
 20
214.4777719923
 30
0.0
 40
3.9999999967
100
AcDbArc
 50
112.741232213
 51
169.9114558433
  0
ARC
  5
12D
330
10B
100
AcDbEntity
  8
06___PRT_ALL_SURFS
  6
Continuous
 62
     7
100
AcDbCircle
 10
398.5254664179
 20
331.6784514925
 30
0.0
 40
3.5
100
AcDbArc
 50
355.0828996644999
 51
90.0
  0
ARC
  5
12E
330
10B
100
AcDbEntity
  8
06___PRT_ALL_SURFS
  6
Continuous
 62
     7
100
AcDbCircle
 10
35.5254664179
 20
331.6784514925
 30
0.0
 40
3.5
100
AcDbArc
 50
90.0
 51
184.9171003355
  0
SPLINE
  5
12F
330
10B
100
AcDbEntity
  8
0
  6
Continuous
 62
     7
100
AcDbSpline
210
0.0
220
0.0
230
1.0
 70
     8
 71
     3
 72
    20
 73
    16
 74
     0
 42
0.0000000001
 43
0.0000000001
 40
0.0
 40
0.0
 40
0.0
 40
0.0
 40
0.1249954972
 40
0.1875041126
 40
0.2499895486
 40
0.3124726986
 40
0.3750128931
 40
0.4374819534000001
 40
0.4999316421000001
 40
0.5624201643
 40
0.6249178827000001
 40
0.6874448551000001
 40
0.7500068691
 40
0.8750005452999999
 40
1.0
 40
1.0
 40
1.0
 40
1.0
 10
402.0125855726999
 20
331.3784514925
 30
0.0
 10
401.4840857998999
 20
325.2353125549
 30
0.0
 10
400.5642222618
 20
316.0290227276
 30
0.0
 10
398.9076098997
 20
303.8077152442
 30
0.0
 10
397.358081621
 20
294.6882460207
 30
0.0
 10
395.4113357614
 20
285.6418788251
 30
0.0
 10
392.8460940487
 20
276.7433983923
 30
0.0
 10
389.2256639283001
 20
268.1975246027
 30
0.0
 10
384.2829366172
 20
260.3419021601
 30
0.0
 10
378.3560108322
 20
253.2203387583
 30
0.0
 10
371.7549715337
 20
246.7237645105
 30
0.0
 10
364.6449760447
 20
240.7874091454
 30
0.0
 10
354.6286655846
 20
233.5721231865
 30
0.0
 10
341.3088977772
 20
225.7382508068
 30
0.0
 10
330.1040197537
 20
220.5504122212
 30
0.0
 10
324.4173399021
 20
218.1668125001
 30
0.0
  0
SPLINE
  5
130
330
10B
100
AcDbEntity
  8
0
  6
Continuous
 62
     7
100
AcDbSpline
210
0.0
220
0.0
230
1.0
 70
     8
 71
     3
 72
    20
 73
    16
 74
     0
 42
0.0000000001
 43
0.0000000001
 40
0.0
 40
0.0
 40
0.0
 40
0.0
 40
0.1249954972
 40
0.1875041126
 40
0.2499895486
 40
0.3124726986
 40
0.3750128931
 40
0.4374819534000001
 40
0.4999316421000001
 40
0.5624201643
 40
0.6249178827000001
 40
0.6874448551000001
 40
0.7500068691
 40
0.8750005452999999
 40
1.0
 40
1.0
 40
1.0
 40
1.0
 10
32.0383472631
 20
331.3784514925
 30
0.0
 10
32.5668470359
 20
325.2353125549
 30
0.0
 10
33.486710574
 20
316.0290227276
 30
0.0
 10
35.1433229361
 20
303.8077152442
 30
0.0
 10
36.6928512148
 20
294.6882460207
 30
0.0
 10
38.6395970744
 20
285.6418788251
 30
0.0
 10
41.20483878719999
 20
276.7433983923
 30
0.0
 10
44.8252689075
 20
268.1975246027
 30
0.0
 10
49.76799621859999
 20
260.3419021601
 30
0.0
 10
55.6949220036
 20
253.2203387583
 30
0.0
 10
62.2959613021
 20
246.7237645105
 30
0.0
 10
69.4059567912
 20
240.7874091454
 30
0.0
 10
79.4222672512
 20
233.5721231865
 30
0.0
 10
92.7420350586
 20
225.7382508068
 30
0.0
 10
103.9469130821
 20
220.5504122212
 30
0.0
 10
109.6335929338
 20
218.1668125001
 30
0.0
  0
LINE
  5
131
330
10B
100
AcDbEntity
  8
0
  6
Continuous
 62
     7
100
AcDbLine
 10
217.0254664179
 20
218.1688410394
 30
0.0
 11
130.1254054238
 21
218.166235735
 31
0.0
  0
LINE
  5
132
330
10B
100
AcDbEntity
  8
0
  6
Continuous
 62
     7
100
AcDbLine
 10
130.1254054238
 20
218.166235735
 30
0.0
 11
129.0911284983
 21
218.1662920956
 31
0.0
  0
LINE
  5
133
330
10B
100
AcDbEntity
  8
0
  6
Continuous
 62
     7
100
AcDbLine
 10
129.0911284983
 20
218.1662920956
 30
0.0
 11
125.7943975439
 21
218.1665107134
 31
0.0
  0
LINE
  5
134
330
10B
100
AcDbEntity
  8
0
  6
Continuous
 62
     7
100
AcDbLine
 10
125.7943975439
 20
218.1665107134
 30
0.0
 11
109.6287534818
 21
218.1688410394
 31
0.0
  0
LINE
  5
135
330
10B
100
AcDbEntity
  8
0
  6
Continuous
 62
     7
100
AcDbLine
 10
324.4221793599
 20
218.1688410418
 30
0.0
 11
308.256535237
 21
218.1665107158
 31
0.0
  0
LINE
  5
136
330
10B
100
AcDbEntity
  8
0
  6
Continuous
 62
     7
100
AcDbLine
 10
308.256535237
 20
218.1665107158
 30
0.0
 11
304.9598042187
 21
218.1662920981
 31
0.0
  0
LINE
  5
137
330
10B
100
AcDbEntity
  8
0
  6
Continuous
 62
     7
100
AcDbLine
 10
304.9598042187
 20
218.1662920981
 30
0.0
 11
303.9255295525
 21
218.1662357376
 31
0.0
  0
LINE
  5
138
330
10B
100
AcDbEntity
  8
0
  6
Continuous
 62
     7
100
AcDbLine
 10
303.9255295525
 20
218.1662357376
 30
0.0
 11
217.0254664179
 21
218.1688410418
 31
0.0
  0
ENDBLK
  5
139
330
10B
100
AcDbEntity
  8
0
100
AcDbBlockEnd
  0
BLOCK
  5
13C
330
13A
100
AcDbEntity
  8
0
100
AcDbBlockBegin
  2
A$C00294823
 70
     0
 10
0.0
 20
0.0
 30
0.0
  3
A$C00294823
  1

  0
INSERT
  5
13B
330
13A
100
AcDbEntity
  8
0
100
AcDbBlockReference
  2
fdsgdfgsd
 10
-32.03834752402759
 20
-202.1784511824402
 30
0.0
  0
ENDBLK
  5
13D
330
13A
100
AcDbEntity
  8
0
100
AcDbBlockEnd
  0
BLOCK
  5
13F
330
13E
100
AcDbEntity
  8
0
100
AcDbBlockBegin
  2
fdgdfgsd
 70
     0
 10
0.0
 20
0.0
 30
0.0
  3
fdgdfgsd
  1

  0
SPLINE
  5
140
330
13E
100
AcDbEntity
  8
0
  6
Continuous
 62
    40
100
AcDbSpline
210
0.0
220
0.0
230
1.0
 70
     8
 71
     3
 72
     8
 73
     4
 74
     0
 42
0.0000000001
 43
0.0000000001
 40
0.0770279668
 40
0.0770279668
 40
0.0770279668
 40
0.0770279668
 40
0.0835673718
 40
0.0835673718
 40
0.0835673718
 40
0.0835673718
 10
380.8895781634
 20
295.8432514641
 30
0.0
 10
380.8518750876999
 20
295.450281724
 30
0.0
 10
380.8139894365
 20
295.0586700768
 30
0.0
 10
380.7758999285
 20
294.6684337269
 30
0.0
  0
SPLINE
  5
141
330
13E
100
AcDbEntity
  8
0
  6
Continuous
 62
    40
100
AcDbSpline
210
0.0
220
0.0
230
1.0
 70
     8
 71
     3
 72
     8
 73
     4
 74
     0
 42
0.0000000001
 43
0.0000000001
 40
0.1743725121
 40
0.1743725121
 40
0.1743725121
 40
0.1743725121
 40
0.2624793038
 40
0.2624793038
 40
0.2624793038
 40
0.2624793038
 10
379.0142849772
 20
279.253756897
 30
0.0
 10
378.3695328428
 20
274.5553139883
 30
0.0
 10
377.6341317489
 20
270.1498912631
 30
0.0
 10
376.7560324061
 20
266.0795660552
 30
0.0
  0
SPLINE
  5
142
330
13E
100
AcDbEntity
  8
0
  6
Continuous
 62
    40
100
AcDbSpline
210
0.0
220
0.0
230
1.0
 70
     8
 71
     3
 72
     8
 73
     4
 74
     0
 42
0.0000000001
 43
0.0000000001
 40
0.3684293885
 40
0.3684293885
 40
0.3684293885
 40
0.3684293885
 40
0.4812783136000001
 40
0.4812783136000001
 40
0.4812783136000001
 40
0.4812783136000001
 10
372.8823041043
 20
252.8493659531
 30
0.0
 10
371.2274611921
 20
248.6286817916
 30
0.0
 10
369.2451872348
 20
244.8519630084
 30
0.0
 10
366.8411290408999
 20
241.3043679778
 30
0.0
  0
LINE
  5
143
330
13E
100
AcDbEntity
  8
0
  6
Continuous
 62
    40
100
AcDbLine
 10
366.8411290408999
 20
241.3043679778
 30
0.0
 11
366.7889549289
 21
241.2275095632
 31
0.0
  0
SPLINE
  5
144
330
13E
100
AcDbEntity
  8
0
  6
Continuous
 62
    40
100
AcDbSpline
210
0.0
220
0.0
230
1.0
 70
     8
 71
     3
 72
     8
 73
     4
 74
     0
 42
0.0000000001
 43
0.0000000001
 40
0.4820936480000001
 40
0.4820936480000001
 40
0.4820936480000001
 40
0.4820936480000001
 40
0.5947560328
 40
0.5947560328
 40
0.5947560328
 40
0.5947560328
 10
366.7889549289
 20
241.2275095632
 30
0.0
 10
364.3827810339
 20
237.6890729137
 30
0.0
 10
361.5555367255999
 20
234.3774560503
 30
0.0
 10
358.2133359398
 20
231.0788809931
 30
0.0
  0
SPLINE
  5
145
330
13E
100
AcDbEntity
  8
0
  6
Continuous
 62
    40
100
AcDbSpline
210
0.0
220
0.0
230
1.0
 70
     8
 71
     3
 72
     8
 73
     4
 74
     0
 42
0.0000000001
 43
0.0000000001
 40
0.0770279668
 40
0.0770279668
 40
0.0770279668
 40
0.0770279668
 40
0.0835673718
 40
0.0835673718
 40
0.0835673718
 40
0.0835673718
 10
13.4975487022
 20
295.8432514642
 30
0.0
 10
13.535251778
 20
295.450281724
 30
0.0
 10
13.5731374292
 20
295.0586700768
 30
0.0
 10
13.6112269372
 20
294.6684337269
 30
0.0
  0
SPLINE
  5
146
330
13E
100
AcDbEntity
  8
0
  6
Continuous
 62
    40
100
AcDbSpline
210
0.0
220
0.0
230
1.0
 70
     8
 71
     3
 72
     8
 73
     4
 74
     0
 42
0.0000000001
 43
0.0000000001
 40
0.1743725121
 40
0.1743725121
 40
0.1743725121
 40
0.1743725121
 40
0.2624793038
 40
0.2624793038
 40
0.2624793038
 40
0.2624793038
 10
15.3728418885
 20
279.253756897
 30
0.0
 10
16.0175940229
 20
274.5553139883
 30
0.0
 10
16.7529951168
 20
270.1498912631
 30
0.0
 10
17.6310944596
 20
266.0795660552
 30
0.0
  0
SPLINE
  5
147
330
13E
100
AcDbEntity
  8
0
  6
Continuous
 62
    40
100
AcDbSpline
210
0.0
220
0.0
230
1.0
 70
     8
 71
     3
 72
     8
 73
     4
 74
     0
 42
0.0000000001
 43
0.0000000001
 40
0.3680842808
 40
0.3680842808
 40
0.3680842808
 40
0.3680842808
 40
0.4812783136000001
 40
0.4812783136000001
 40
0.4812783136000001
 40
0.4812783136000001
 10
21.4896497245
 20
252.8881007367
 30
0.0
 10
23.1475454781
 20
248.6517833993
 30
0.0
 10
25.1345876858
 20
244.8628120484
 30
0.0
 10
27.5459978247
 20
241.3043679778
 30
0.0
  0
LINE
  5
148
330
13E
100
AcDbEntity
  8
0
  6
Continuous
 62
    40
100
AcDbLine
 10
27.5459978247
 20
241.3043679778
 30
0.0
 11
27.5981719368
 21
241.2275095632
 31
0.0
  0
SPLINE
  5
149
330
13E
100
AcDbEntity
  8
0
  6
Continuous
 62
    40
100
AcDbSpline
210
0.0
220
0.0
230
1.0
 70
     8
 71
     3
 72
     8
 73
     4
 74
     0
 42
0.0000000001
 43
0.0000000001
 40
0.4820936480000001
 40
0.4820936480000001
 40
0.4820936480000001
 40
0.4820936480000001
 40
0.5947560328
 40
0.5947560328
 40
0.5947560328
 40
0.5947560328
 10
27.5981719368
 20
241.2275095632
 30
0.0
 10
30.0043458318
 20
237.6890729137
 30
0.0
 10
32.83159014000001
 20
234.3774560503
 30
0.0
 10
36.1737909259
 20
231.0788809931
 30
0.0
  0
LWPOLYLINE
  5
14A
330
13E
100
AcDbEntity
  8
06___PRT_ALL_SURFS
  6
Continuous
 62
     7
100
AcDbPolyline
 90
       11
 70
     0
 43
0.0
 10
12.206444278
 20
310.2668530413
 10
13.5951496752
 20
294.8338261274
 10
15.3033115029
 20
279.737715783
 10
17.696156872
 20
265.7723625691
 10
21.4967335635
 20
252.8718979828
 10
27.5711259326
 20
241.273355879
 10
36.2068292622
 20
231.046261984
 10
47.06722971739999
 20
221.6663044288
 10
59.87888471499999
 20
212.7824411822
 10
74.495106944
 20
204.4099841078
 10
89.84191819899999
 20
197.0812392939
  0
LWPOLYLINE
  5
14B
330
13E
100
AcDbEntity
  8
0
  6
Continuous
 62
     7
100
AcDbPolyline
 90
        4
 70
     0
 43
0.0
 10
90.94273187649999
 20
196.3613645341
 10
91.69145806639999
 20
195.4337818688
 10
92.1338492327
 20
194.3259127147
 10
92.1856220849
 20
194.0668530413
  0
LWPOLYLINE
  5
14C
330
13E
100
AcDbEntity
  8
0
  6
Continuous
 62
     7
100
AcDbPolyline
 90
        3
 70
     0
 43
0.0
 10
89.840805626
 20
197.0786954395
 10
89.95472982469999
 20
197.0267749575
 10
90.94273187649999
 20
196.3613645341
  0
LINE
  5
14D
330
13E
100
AcDbEntity
  8
0
  6
Continuous
 62
     7
100
AcDbLine
 10
228.6047859367
 20
181.0668530413
 30
0.0
 11
165.7823409289
 21
181.0668530413
 31
0.0
  0
LINE
  5
14E
330
13E
100
AcDbEntity
  8
0
  6
Continuous
 62
     7
100
AcDbLine
 10
161.8057630766
 20
184.6346163182
 30
0.0
 11
232.581363789
 21
184.6346163182
 31
0.0
  0
LINE
  5
14F
330
13E
100
AcDbEntity
  8
0
  6
Continuous
 62
     7
100
AcDbLine
 10
302.2019568362
 20
194.0668530413
 30
0.0
 11
92.18517002950001
 21
194.0668530413
 31
0.0
  0
LWPOLYLINE
  5
150
330
13E
100
AcDbEntity
  8
0
  6
Continuous
 62
     7
100
AcDbPolyline
 90
        7
 70
     0
 43
0.0
 10
154.1669838106
 20
194.0668530413
 10
154.4576359875
 20
194.0154631778
 10
156.8018598657
 20
193.0265010063
 10
158.8329916579
 20
191.465643613
 10
160.4050271762
 20
189.4330184
 10
161.4072294705
 20
187.0667402519
 10
161.7157405321
 20
185.4628234886
  0
LINE
  5
151
330
13E
100
AcDbEntity
  8
0
  6
Continuous
 62
     7
100
AcDbLine
 10
161.7157423137
 20
185.4628073372
 30
0.0
 11
161.8057630766
 21
184.6346163182
 31
0.0
  0
LINE
  5
152
330
13E
100
AcDbEntity
  8
0
  6
Continuous
 62
     7
100
AcDbLine
 10
232.6713830384
 20
185.4627934124
 30
0.0
 11
232.581363789
 21
184.6346163182
 31
0.0
  0
LWPOLYLINE
  5
153
330
13E
100
AcDbEntity
  8
0
  6
Continuous
 62
     7
100
AcDbPolyline
 90
        7
 70
     0
 43
0.0
 10
232.67138628
 20
185.4628238473
 10
232.9799078665
 20
187.0667783321
 10
233.9821751937
 20
189.4331477944
 10
235.5543178347
 20
191.4658259018
 10
237.5855179477
 20
193.0266471757
 10
239.9296439399
 20
194.0155058545
 10
240.2200682556
 20
194.0668530413
  0
LINE
  5
154
330
13E
100
AcDbEntity
  8
03___PRT_ALL_CURVES
  6
Continuous
 62
     4
100
AcDbLine
 10
12.1935634328
 20
314.0668530413
 30
0.0
 11
382.1935634328
 21
314.0668530413
 31
0.0
  0
LINE
  5
155
330
13E
100
AcDbEntity
  8
06___PRT_ALL_SURFS
  6
Continuous
 62
     7
100
AcDbLine
 10
48.0705539527
 20
314.0663491285
 30
0.0
 11
39.5662780858
 21
314.0668930388
 31
0.0
  0
LINE
  5
156
330
13E
100
AcDbEntity
  8
06___PRT_ALL_SURFS
  6
Continuous
 62
     7
100
AcDbLine
 10
378.6931966223
 20
314.0668530215001
 30
0.0
 11
15.6939302623
 21
314.0668530244
 31
0.0
  0
LWPOLYLINE
  5
157
330
13E
100
AcDbEntity
  8
06___PRT_ALL_SURFS
  6
Continuous
 62
     7
100
AcDbPolyline
 90
       11
 70
     0
 43
0.0
 10
304.5452086667
 20
197.0812392939
 10
319.8920199216999
 20
204.4099841078
 10
334.5082421506
 20
212.7824411822
 10
347.3198971483
 20
221.6663044288
 10
358.1802976035
 20
231.046261984
 10
366.8160009331
 20
241.273355879
 10
372.8903933021
 20
252.8718979828
 10
376.6909699937
 20
265.7723625691
 10
379.0838153627
 20
279.737715783
 10
380.7919771904
 20
294.8338261274
 10
382.1806825877
 20
310.2668530413
  0
LWPOLYLINE
  5
158
330
13E
100
AcDbEntity
  8
0
  6
Continuous
 62
     7
100
AcDbPolyline
 90
        3
 70
     0
 43
0.0
 10
303.4443949891
 20
196.3613645341
 10
304.432397041
 20
197.0267749575
 10
304.5463212396
 20
197.0786954395
  0
LWPOLYLINE
  5
159
330
13E
100
AcDbEntity
  8
06___PRT_ALL_SURFS
  6
Continuous
 62
     7
100
AcDbPolyline
 90
        7
 70
     0
 43
0.0
 10
15.6939302623
 20
314.0668530244
 10
14.5970200009
 20
313.890644928
 10
13.6055674831
 20
313.3758160021
 10
12.8248358726
 20
312.5719471003
 10
12.3379715403
 20
311.5618420114
 10
12.1954599972
 20
310.4516473411
 10
12.2064442811
 20
310.2668530049001
  0
LWPOLYLINE
  5
15A
330
13E
100
AcDbEntity
  8
0
  6
Continuous
 62
     7
100
AcDbPolyline
 90
        4
 70
     0
 43
0.0
 10
302.2015047807
 20
194.0668530413
 10
302.2532776329
 20
194.3259127147
 10
302.6956687993
 20
195.4337818688
 10
303.4443949891
 20
196.3613645341
  0
LWPOLYLINE
  5
15B
330
13E
100
AcDbEntity
  8
06___PRT_ALL_SURFS
  6
Continuous
 62
     7
100
AcDbPolyline
 90
        7
 70
     0
 43
0.0
 10
382.1806825844999
 20
310.2668530049001
 10
382.1917576754
 20
310.4544384463
 10
382.0489319681
 20
311.562594972
 10
381.5641574158
 20
312.5692741222
 10
380.7868398511
 20
313.371883137
 10
379.7962004214
 20
313.8886284214
 10
378.6931966223
 20
314.0668530215001
  0
ARC
  5
15C
330
13E
100
AcDbEntity
  8
0
  6
Continuous
 62
    40
100
AcDbCircle
 10
160.4104144241
 20
372.619780114
 30
0.0
 40
188.8242465458
100
AcDbArc
 50
237.7379102577
 51
237.9301923133
  0
ARC
  5
15D
330
13E
100
AcDbEntity
  8
0
  6
Continuous
 62
    40
100
AcDbCircle
 10
233.9767124524
 20
372.6197800968
 30
0.0
 40
188.8242465254
100
AcDbArc
 50
302.0698076867
 51
302.2620897423
  0
ARC
  5
15E
330
13E
100
AcDbEntity
  8
0
  6
Continuous
 62
     7
100
AcDbCircle
 10
228.6047859367
 20
185.0668530413
 30
0.0
 40
4.0
100
AcDbArc
 50
270.0
 51
353.7965520983
  0
ARC
  5
15F
330
13E
100
AcDbEntity
  8
0
  6
Continuous
 62
     7
100
AcDbCircle
 10
165.7823409289
 20
185.0668530413
 30
0.0
 40
4.0
100
AcDbArc
 50
186.2034479016999
 51
270.0
  0
LINE
  5
160
330
13E
100
AcDbEntity
  8
0
  6
Continuous
 62
     7
100
AcDbLine
 10
12.2064442785
 20
310.2668530361
 30
0.0
 11
197.1935634328
 21
310.2668530361
 31
0.0
  0
SPLINE
  5
161
330
13E
100
AcDbEntity
  8
0
  6
Continuous
 62
     7
100
AcDbSpline
210
0.0
220
0.0
230
1.0
 70
     8
 71
     3
 72
    11
 73
     7
 74
     0
 42
0.0000000001
 43
0.0000000001
 40
0.0
 40
0.0
 40
0.0
 40
0.0
 40
0.2683792105
 40
0.5341463992000001
 40
0.7892628730000001
 40
1.0
 40
1.0
 40
1.0
 40
1.0
 10
197.1935634328
 20
197.0781591054
 30
0.0
 10
189.2377747938
 20
197.0782733982
 30
0.0
 10
173.4036299803
 20
197.0779724648
 30
0.0
 10
150.0068442859
 20
197.0627845775
 30
0.0
 10
128.3188627588
 20
197.022953619
 30
0.0
 10
114.5091691603
 20
196.9799427153
 30
0.0
 10
108.2621241369
 20
196.9918187954
 30
0.0
  0
SPLINE
  5
162
330
13E
100
AcDbEntity
  8
0
  6
Continuous
 62
     7
100
AcDbSpline
210
0.0
220
0.0
230
1.0
 70
     8
 71
     3
 72
     9
 73
     5
 74
     0
 42
0.0000000001
 43
0.0000000001
 40
0.0
 40
0.0
 40
0.0
 40
0.0
 40
0.2596894357
 40
1.0
 40
1.0
 40
1.0
 40
1.0
 10
108.2621241369
 20
196.9918187954
 30
0.0
 10
108.0648678241
 20
196.9921937938
 30
0.0
 10
107.3052826104
 20
196.9937522605
 30
0.0
 10
106.545698274
 20
196.9957341051
 30
0.0
 10
105.9833706853
 20
196.997427233
 30
0.0
  0
LINE
  5
163
330
13E
100
AcDbEntity
  8
0
  6
Continuous
 62
     7
100
AcDbLine
 10
105.9833706853
 20
196.997427233
 30
0.0
 11
89.8411920636
 21
197.0780831373
 31
0.0
  0
SPLINE
  5
164
330
13E
100
AcDbEntity
  8
0
  6
Continuous
 62
     7
100
AcDbSpline
210
0.0
220
0.0
230
1.0
 70
     8
 71
     3
 72
    27
 73
    23
 74
     0
 42
0.0000000001
 43
0.0000000001
 40
0.0
 40
0.0
 40
0.0
 40
0.0
 40
0.1950649387
 40
0.3826209504999999
 40
0.5554508706
 40
0.6342448178
 40
0.7069372701000001
 40
0.7728241637000001
 40
0.8312854373999998
 40
0.881748636
 40
0.923739227
 40
0.9414204467000001
 40
0.9568362801999999
 40
0.9699506979
 40
0.9807276451999999
 40
0.9891358046999998
 40
0.9924463895999998
 40
0.9951591500999999
 40
0.9972724681
 40
0.9987847313999999
 40
0.9996943548999999
 40
1.0
 40
1.0
 40
1.0
 40
1.0
 10
197.1935634328
 20
185.4628276675
 30
0.0
 10
194.8866944014
 20
185.4628054848
 30
0.0
 10
190.3617563788
 20
185.455638485
 30
0.0
 10
183.7929534652
 20
185.4304078513
 30
0.0
 10
178.5991844249
 20
185.4094515842
 30
0.0
 10
174.763787156
 20
185.3972045225
 30
0.0
 10
172.1931015108
 20
185.3915511768
 30
0.0
 10
169.8628668974
 20
185.3901035103
 30
0.0
 10
167.7955201019
 20
185.3933676312
 30
0.0
 10
166.0107905791
 20
185.4019090859
 30
0.0
 10
164.7083604044
 20
185.4126905352
 30
0.0
 10
163.820415728
 20
185.4229615178
 30
0.0
 10
163.2739743541
 20
185.4304647932
 30
0.0
 10
162.8091442611
 20
185.4378108017
 30
0.0
 10
162.4273251732
 20
185.4448363646
 30
0.0
 10
162.1611189617
 20
185.4500908085
 30
0.0
 10
161.9908385048
 20
185.454360951
 30
0.0
 10
161.8939210567
 20
185.4560726839
 30
0.0
 10
161.8208590121
 20
185.4599375894
 30
0.0
 10
161.7630152271
 20
185.4575314516999
 30
0.0
 10
161.7382347951
 20
185.4659358967
 30
0.0
 10
161.7161290071
 20
185.4592296981
 30
0.0
 10
161.7157405733
 20
185.4628233741
 30
0.0
  0
SPLINE
  5
165
330
13E
100
AcDbEntity
  8
0
  6
Continuous
 62
     7
100
AcDbSpline
210
0.0
220
0.0
230
1.0
 70
     8
 71
     3
 72
    27
 73
    23
 74
     0
 42
0.0000000001
 43
0.0000000001
 40
0.0
 40
0.0
 40
0.0
 40
0.0
 40
0.0003056867
 40
0.0012153147
 40
0.0027275584
 40
0.0048408449
 40
0.0075535744
 40
0.0108641405
 40
0.0192723479
 40
0.0300493922
 40
0.043163835
 40
0.058579668
 40
0.0762609086
 40
0.1182514564
 40
0.1687146326
 40
0.2271760603
 40
0.2930631273
 40
0.3657557367
 40
0.4445497382
 40
0.6173794925000001
 40
0.8049352687999999
 40
1.0
 40
1.0
 40
1.0
 40
1.0
 10
232.6713863106
 20
185.4628236082
 30
0.0
 10
232.6709868037
 20
185.4592306507
 30
0.0
 10
232.64890691
 20
185.4659322083
 30
0.0
 10
232.6241002369
 20
185.4575320336
 30
0.0
 10
232.5662718594
 20
185.4599356412
 30
0.0
 10
232.4932042137
 20
185.4560723398
 30
0.0
 10
232.3962902459
 20
185.4543607195
 30
0.0
 10
232.2260085922
 20
185.4500916191
 30
0.0
 10
231.9598016607
 20
185.4448375502
 30
0.0
 10
231.5779802344
 20
185.4378113251
 30
0.0
 10
231.1131488395
 20
185.4304643392
 30
0.0
 10
230.5667068964
 20
185.4229601843
 30
0.0
 10
229.6787625025
 20
185.4126892816
 30
0.0
 10
228.3763328353
 20
185.4019086263
 30
0.0
 10
226.5916022583
 20
185.3933692413
 30
0.0
 10
224.5242518543
 20
185.3901050706
 30
0.0
 10
222.1940115029
 20
185.391549855
 30
0.0
 10
219.6233213007
 20
185.3972037357
 30
0.0
 10
215.7879234882
 20
185.409452089
 30
0.0
 10
210.5941585398
 20
185.4304083188
 30
0.0
 10
204.0253628083
 20
185.4556379824
 30
0.0
 10
199.5004300154
 20
185.4628059163
 30
0.0
 10
197.1935634328
 20
185.4628276675
 30
0.0
  0
LINE
  5
166
330
13E
100
AcDbEntity
  8
0
  6
Continuous
 62
     7
100
AcDbLine
 10
304.5459347896
 20
197.0780831403
 30
0.0
 11
288.4115751316
 21
196.9974443943
 31
0.0
  0
SPLINE
  5
167
330
13E
100
AcDbEntity
  8
0
  6
Continuous
 62
     7
100
AcDbSpline
210
0.0
220
0.0
230
1.0
 70
     8
 71
     3
 72
     9
 73
     5
 74
     0
 42
0.0000000001
 43
0.0000000001
 40
0.0
 40
0.0
 40
0.0
 40
0.0
 40
0.2402988864
 40
1.0
 40
1.0
 40
1.0
 40
1.0
 10
288.4115751316
 20
196.9974443943
 30
0.0
 10
288.227363294
 20
196.9968900531
 30
0.0
 10
287.4607683547
 20
196.9946851255
 30
0.0
 10
286.6941721793
 20
196.9929070616
 30
0.0
 10
286.1117877778
 20
196.9918091988
 30
0.0
  0
SPLINE
  5
168
330
13E
100
AcDbEntity
  8
0
  6
Continuous
 62
     7
100
AcDbSpline
210
0.0
220
0.0
230
1.0
 70
     8
 71
     3
 72
    11
 73
     7
 74
     0
 42
0.0000000001
 43
0.0000000001
 40
0.0
 40
0.0
 40
0.0
 40
0.0
 40
0.2107793294
 40
0.4658884885
 40
0.7316381823999999
 40
1.0
 40
1.0
 40
1.0
 40
1.0
 10
286.1117877778
 20
196.9918091988
 30
0.0
 10
279.8644200028
 20
196.9800321793
 30
0.0
 10
266.0557448114
 20
197.0229591217
 30
0.0
 10
244.3704703477
 20
197.0628259355
 30
0.0
 10
220.9784122306
 20
197.0779895785
 30
0.0
 10
205.1476543554
 20
197.0782714463
 30
0.0
 10
197.1935634328
 20
197.0781591054
 30
0.0
  0
LINE
  5
169
330
13E
100
AcDbEntity
  8
0
  6
Continuous
 62
     7
100
AcDbLine
 10
197.1935634328
 20
310.2668530361
 30
0.0
 11
382.1806825872
 21
310.2668530361
 31
0.0
  0
ENDBLK
  5
16A
330
13E
100
AcDbEntity
  8
0
100
AcDbBlockEnd
  0
BLOCK
  5
16D
330
16B
100
AcDbEntity
  8
0
100
AcDbBlockBegin
  2
A$C18BE6784
 70
     0
 10
0.0
 20
0.0
 30
0.0
  3
A$C18BE6784
  1

  0
INSERT
  5
16C
330
16B
100
AcDbEntity
  8
0
100
AcDbBlockReference
  2
fdgdfgsd
 10
-12.1935641381101
 20
-181.0668534953303
 30
0.0
  0
ENDBLK
  5
16E
330
16B
100
AcDbEntity
  8
0
100
AcDbBlockEnd
  0
BLOCK
  5
171
330
16F
100
AcDbEntity
  8
0
100
AcDbBlockBegin
  2
A$C703361F7
 70
     0
 10
0.0
 20
0.0
 30
0.0
  3
A$C703361F7
  1

  0
INSERT
  5
170
330
16F
100
AcDbEntity
  8
0
100
AcDbBlockReference
  2
dfhgsh
 10
-65.29188362776404
 20
-197.7000619397964
 30
0.0
  0
ENDBLK
  5
172
330
16F
100
AcDbEntity
  8
0
100
AcDbBlockEnd
  0
BLOCK
  5
17B
330
179
100
AcDbEntity
  8
0
100
AcDbBlockBegin
  2
A$C2CD672AE
 70
     0
 10
0.0
 20
0.0
 30
0.0
  3
A$C2CD672AE
  1

  0
INSERT
  5
17A
330
179
100
AcDbEntity
  8
0
100
AcDbBlockReference
  2
fdgdfgsd
 10
-12.1935641381101
 20
-181.0668534953303
 30
0.0
  0
ENDBLK
  5
17C
330
179
100
AcDbEntity
  8
0
100
AcDbBlockEnd
  0
BLOCK
  5
17F
330
17D
100
AcDbEntity
  8
0
100
AcDbBlockBegin
  2
A$C69525F90
 70
     0
 10
0.0
 20
0.0
 30
0.0
  3
A$C69525F90
  1

  0
INSERT
  5
17E
330
17D
100
AcDbEntity
  8
0
100
AcDbBlockReference
  2
fdgdfgsd
 10
-12.1935641381101
 20
-181.0668534953303
 30
0.0
  0
ENDBLK
  5
180
330
17D
100
AcDbEntity
  8
0
100
AcDbBlockEnd
  0
BLOCK
  5
582
330
50F
100
AcDbEntity
  8
0
100
AcDbBlockBegin
  2
A$C7AAE3A75
 70
     0
 10
0.0
 20
0.0
 30
0.0
  3
A$C7AAE3A75
  1

  0
LINE
  5
510
330
50F
100
AcDbEntity
  8
0
  6
Continuous
 62
    40
100
AcDbLine
 10
92.17400320461166
 20
144.1062294849593
 30
0.0
 11
92.1455836458117
 21
143.8125250506592
 31
0.0
  0
SPLINE
  5
511
330
50F
100
AcDbEntity
  8
0
  6
Continuous
 62
    40
100
AcDbSpline
210
0.0
220
0.0
230
1.0
 70
     8
 71
     3
 72
     8
 73
     4
 74
     0
 42
0.0000000001
 43
0.0000000001
 40
0.1743725121
 40
0.1743725121
 40
0.1743725121
 40
0.1743725121
 40
0.2624793038
 40
0.2624793038
 40
0.2624793038
 40
0.2624793038
 10
91.70517990801171
 20
139.9588558431592
 30
0.0
 10
91.54399187441169
 20
138.7842451160592
 30
0.0
 10
91.36014160091168
 20
137.6828894346592
 30
0.0
 10
91.14061676521169
 20
136.6653081327593
 30
0.0
  0
SPLINE
  5
512
330
50F
100
AcDbEntity
  8
0
  6
Continuous
 62
    40
100
AcDbSpline
210
0.0
220
0.0
230
1.0
 70
     8
 71
     3
 72
     8
 73
     4
 74
     0
 42
0.0000000001
 43
0.0000000001
 40
0.3684293885
 40
0.3684293885
 40
0.3684293885
 40
0.3684293885
 40
0.4812783136000001
 40
0.4812783136000001
 40
0.4812783136000001
 40
0.4812783136000001
 10
90.17218468981168
 20
133.3577581072592
 30
0.0
 10
89.75847396171173
 20
132.3025870668593
 30
0.0
 10
89.26290547241171
 20
131.3584073710593
 30
0.0
 10
88.6618909239117
 20
130.4715086133592
 30
0.0
  0
LINE
  5
513
330
50F
100
AcDbEntity
  8
0
  6
Continuous
 62
    40
100
AcDbLine
 10
88.6618909239117
 20
130.4715086133592
 30
0.0
 11
88.64884739591166
 21
130.4522940097593
 31
0.0
  0
SPLINE
  5
514
330
50F
100
AcDbEntity
  8
0
  6
Continuous
 62
    40
100
AcDbSpline
210
0.0
220
0.0
230
1.0
 70
     8
 71
     3
 72
     8
 73
     4
 74
     0
 42
0.0000000001
 43
0.0000000001
 40
0.4820936480000001
 40
0.4820936480000001
 40
0.4820936480000001
 40
0.4820936480000001
 40
0.5947560328
 40
0.5947560328
 40
0.5947560328
 40
0.5947560328
 10
88.64884739591166
 20
130.4522940097593
 30
0.0
 10
88.04730392221172
 20
129.5676848473592
 30
0.0
 10
87.34049284511172
 20
128.7397806315592
 30
0.0
 10
86.50494264871168
 20
127.9151368672592
 30
0.0
  0
LINE
  5
515
330
50F
100
AcDbEntity
  8
0
  6
Continuous
 62
    40
100
AcDbLine
 10
0.3259958393117017
 20
144.1062294849593
 30
0.0
 11
0.3544153980116675
 21
143.8125250506592
 31
0.0
  0
SPLINE
  5
516
330
50F
100
AcDbEntity
  8
0
  6
Continuous
 62
    40
100
AcDbSpline
210
0.0
220
0.0
230
1.0
 70
     8
 71
     3
 72
     8
 73
     4
 74
     0
 42
0.0000000001
 43
0.0000000001
 40
0.1743725121
 40
0.1743725121
 40
0.1743725121
 40
0.1743725121
 40
0.2624793038
 40
0.2624793038
 40
0.2624793038
 40
0.2624793038
 10
0.7948191358117072
 20
139.9588558431592
 30
0.0
 10
0.9560071694116629
 20
138.7842451160592
 30
0.0
 10
1.139857442911704
 20
137.6828894346592
 30
0.0
 10
1.35938227861169
 20
136.6653081327593
 30
0.0
  0
SPLINE
  5
517
330
50F
100
AcDbEntity
  8
0
  6
Continuous
 62
    40
100
AcDbSpline
210
0.0
220
0.0
230
1.0
 70
     8
 71
     3
 72
     8
 73
     4
 74
     0
 42
0.0000000001
 43
0.0000000001
 40
0.3680842808
 40
0.3680842808
 40
0.3680842808
 40
0.3680842808
 40
0.4812783136000001
 40
0.4812783136000001
 40
0.4812783136000001
 40
0.4812783136000001
 10
2.324021094811683
 20
133.3674418031592
 30
0.0
 10
2.738495033211677
 20
132.3083624687592
 30
0.0
 10
3.235255585211689
 20
131.3611196310592
 30
0.0
 10
3.838108119911709
 20
130.4715086133592
 30
0.0
  0
LINE
  5
518
330
50F
100
AcDbEntity
  8
0
  6
Continuous
 62
    40
100
AcDbLine
 10
3.838108119911709
 20
130.4715086133592
 30
0.0
 11
3.851151647911706
 21
130.4522940097593
 31
0.0
  0
SPLINE
  5
519
330
50F
100
AcDbEntity
  8
0
  6
Continuous
 62
    40
100
AcDbSpline
210
0.0
220
0.0
230
1.0
 70
     8
 71
     3
 72
     8
 73
     4
 74
     0
 42
0.0000000001
 43
0.0000000001
 40
0.4820936480000001
 40
0.4820936480000001
 40
0.4820936480000001
 40
0.4820936480000001
 40
0.5947560328
 40
0.5947560328
 40
0.5947560328
 40
0.5947560328
 10
3.851151647911706
 20
130.4522940097593
 30
0.0
 10
4.452695121611697
 20
129.5676848473592
 30
0.0
 10
5.159506198711682
 20
128.7397806315592
 30
0.0
 10
5.99505639521169
 20
127.9151368672592
 30
0.0
  0
LINE
  5
51A
330
50F
100
AcDbEntity
  8
0
  6
Continuous
 62
    40
100
AcDbLine
 10
100.5051091382117
 20
143.8417540606592
 30
0.0
 11
100.5157842658117
 21
143.7325544613592
 31
0.0
  0
SPLINE
  5
51B
330
50F
100
AcDbEntity
  8
0
  6
Continuous
 62
    40
100
AcDbSpline
210
0.0
220
0.0
230
1.0
 70
     8
 71
     3
 72
     8
 73
     4
 74
     0
 42
0.0000000001
 43
0.0000000001
 40
0.1739779514
 40
0.1739779514
 40
0.1739779514
 40
0.1739779514
 40
0.2561938379
 40
0.2561938379
 40
0.2561938379
 40
0.2561938379
 10
100.9461991494116
 20
139.9746407092592
 30
0.0
 10
101.0964208373117
 20
138.8779535515592
 30
0.0
 10
101.2663248954117
 20
137.8450120929592
 30
0.0
 10
101.4664842179116
 20
136.8843636008592
 30
0.0
  0
SPLINE
  5
51C
330
50F
100
AcDbEntity
  8
0
  6
Continuous
 62
    40
100
AcDbSpline
210
0.0
220
0.0
230
1.0
 70
     8
 71
     3
 72
     8
 73
     4
 74
     0
 42
0.0000000001
 43
0.0000000001
 40
0.3497064383
 40
0.3497064383
 40
0.3497064383
 40
0.3497064383
 40
0.4378690017000001
 40
0.4378690017000001
 40
0.4378690017000001
 40
0.4378690017000001
 10
102.2820923182117
 20
133.8923645434592
 30
0.0
 10
102.5845882785116
 20
133.0380904461593
 30
0.0
 10
102.9346568843116
 20
132.2569979486592
 30
0.0
 10
103.3435456603117
 20
131.5234765078592
 30
0.0
  0
SPLINE
  5
51D
330
50F
100
AcDbEntity
  8
0
  6
Continuous
 62
    40
100
AcDbSpline
210
0.0
220
0.0
230
1.0
 70
     8
 71
     3
 72
     8
 73
     4
 74
     0
 42
0.0000000001
 43
0.0000000001
 40
0.4395914033
 40
0.4395914033
 40
0.4395914033
 40
0.4395914033
 40
0.5277705343
 40
0.5277705343
 40
0.5277705343
 40
0.5277705343
 10
103.3675780521117
 20
131.4805391225592
 30
0.0
 10
103.7788466909117
 20
130.7487291692592
 30
0.0
 10
104.2491774305116
 20
130.0640076210592
 30
0.0
 10
104.7898241375117
 20
129.4007494940592
 30
0.0
  0
SPLINE
  5
51E
330
50F
100
AcDbEntity
  8
0
  6
Continuous
 62
    40
100
AcDbSpline
210
0.0
220
0.0
230
1.0
 70
     8
 71
     3
 72
     8
 73
     4
 74
     0
 42
0.0000000001
 43
0.0000000001
 40
0.5299414572
 40
0.5299414572
 40
0.5299414572
 40
0.5299414572
 40
0.6207048523
 40
0.6207048523
 40
0.6207048523
 40
0.6207048523
 10
104.8298834614116
 20
129.3518009608592
 30
0.0
 10
105.3899456640117
 20
128.6701765623592
 30
0.0
 10
106.0247992677116
 20
128.0106236829592
 30
0.0
 10
106.7467168710117
 20
127.3451976929592
 30
0.0
  0
LINE
  5
51F
330
50F
100
AcDbEntity
  8
0
  6
Continuous
 62
    40
100
AcDbLine
 10
192.3019782113117
 20
143.8417540606592
 30
0.0
 11
192.2913030837117
 21
143.7325544613592
 31
0.0
  0
SPLINE
  5
520
330
50F
100
AcDbEntity
  8
0
  6
Continuous
 62
    40
100
AcDbSpline
210
0.0
220
0.0
230
1.0
 70
     8
 71
     3
 72
     8
 73
     4
 74
     0
 42
0.0000000001
 43
0.0000000001
 40
0.1739779514
 40
0.1739779514
 40
0.1739779514
 40
0.1739779514
 40
0.2561938379
 40
0.2561938379
 40
0.2561938379
 40
0.2561938379
 10
191.8608882001117
 20
139.9746407092592
 30
0.0
 10
191.7106665122116
 20
138.8779535515592
 30
0.0
 10
191.5407624541117
 20
137.8450120929592
 30
0.0
 10
191.3406031316117
 20
136.8843636008592
 30
0.0
  0
SPLINE
  5
521
330
50F
100
AcDbEntity
  8
0
  6
Continuous
 62
    40
100
AcDbSpline
210
0.0
220
0.0
230
1.0
 70
     8
 71
     3
 72
     8
 73
     4
 74
     0
 42
0.0000000001
 43
0.0000000001
 40
0.3497064383
 40
0.3497064383
 40
0.3497064383
 40
0.3497064383
 40
0.4378690017000001
 40
0.4378690017000001
 40
0.4378690017000001
 40
0.4378690017000001
 10
190.5249950313116
 20
133.8923645434592
 30
0.0
 10
190.2224990710116
 20
133.0380904462592
 30
0.0
 10
189.8724304652116
 20
132.2569979486592
 30
0.0
 10
189.4635416892117
 20
131.5234765078592
 30
0.0
  0
SPLINE
  5
522
330
50F
100
AcDbEntity
  8
0
  6
Continuous
 62
    40
100
AcDbSpline
210
0.0
220
0.0
230
1.0
 70
     8
 71
     3
 72
     8
 73
     4
 74
     0
 42
0.0000000001
 43
0.0000000001
 40
0.4395914033
 40
0.4395914033
 40
0.4395914033
 40
0.4395914033
 40
0.5277705343
 40
0.5277705343
 40
0.5277705343
 40
0.5277705343
 10
189.4395092974117
 20
131.4805391226592
 30
0.0
 10
189.0282406586117
 20
130.7487291692592
 30
0.0
 10
188.5579099190117
 20
130.0640076210592
 30
0.0
 10
188.0172632119117
 20
129.4007494940592
 30
0.0
  0
SPLINE
  5
523
330
50F
100
AcDbEntity
  8
0
  6
Continuous
 62
    40
100
AcDbSpline
210
0.0
220
0.0
230
1.0
 70
     8
 71
     3
 72
     8
 73
     4
 74
     0
 42
0.0000000001
 43
0.0000000001
 40
0.5299414572
 40
0.5299414572
 40
0.5299414572
 40
0.5299414572
 40
0.6207048523
 40
0.6207048523
 40
0.6207048523
 40
0.6207048523
 10
187.9772038881116
 20
129.3518009608592
 30
0.0
 10
187.4171416855117
 20
128.6701765623592
 30
0.0
 10
186.7822880818117
 20
128.0106236829592
 30
0.0
 10
186.0603704785117
 20
127.3451976929592
 30
0.0
  0
SPLINE
  5
524
330
50F
100
AcDbEntity
  8
LAY0001
  6
Continuous
 62
    40
100
AcDbSpline
210
0.0
220
0.0
230
1.0
 70
     8
 71
     3
 72
    11
 73
     7
 74
     0
 42
0.0000000001
 43
0.0000000001
 40
0.0
 40
0.0
 40
0.0
 40
0.0
 40
0.1064579286
 40
0.2376386191
 40
0.3688193095
 40
0.5
 40
0.5
 40
0.5
 40
0.5
 10
46.24999952191166
 20
21.82936895345926
 30
0.0
 10
54.71551318791171
 20
21.82936895345926
 30
0.0
 10
69.61456732851167
 20
25.72746773975925
 30
0.0
 10
71.49888592421172
 20
46.16115340295926
 30
0.0
 10
68.5399804686117
 20
68.49763121925926
 30
0.0
 10
53.67999317081171
 20
70.67063041395925
 30
0.0
 10
46.24999952191166
 20
70.67063041395925
 30
0.0
  0
SPLINE
  5
525
330
50F
100
AcDbEntity
  8
LAY0001
  6
Continuous
 62
    40
100
AcDbSpline
210
0.0
220
0.0
230
1.0
 70
     8
 71
     3
 72
    11
 73
     7
 74
     0
 42
0.0000000001
 43
0.0000000001
 40
0.5
 40
0.5
 40
0.5
 40
0.5
 40
0.6311806905
 40
0.7623613809
 40
0.8935420713999999
 40
1.0
 40
1.0
 40
1.0
 40
1.0
 10
46.24999952191166
 20
70.67063041395925
 30
0.0
 10
38.8200058730117
 20
70.67063041395925
 30
0.0
 10
23.96001857521171
 20
68.49763121925926
 30
0.0
 10
21.00111311961169
 20
46.16115340295926
 30
0.0
 10
22.8854317154117
 20
25.72746773975925
 30
0.0
 10
37.7844858559117
 20
21.82936895345926
 30
0.0
 10
46.24999952191166
 20
21.82936895345926
 30
0.0
  0
LWPOLYLINE
  5
526
330
50F
100
AcDbEntity
  8
06___PRT_ALL_SURFS
  6
Continuous
 62
     7
100
AcDbPolyline
 90
       11
 70
     0
 43
0.0
 10
0.0032197332116937
 20
147.7121298792592
 10
0.3503960825116792
 20
143.8538731507593
 10
0.7774365394116672
 20
140.0798455646592
 10
1.375647881711699
 20
136.5885072612593
 10
2.325792054611667
 20
133.3633911146593
 10
3.84439014681169
 20
130.4637555886593
 10
6.003315979311679
 20
127.9069821149592
 10
8.718416093011683
 20
125.5619927261593
 10
11.92132984251168
 20
123.3410269144592
 10
15.5753853997117
 20
121.2479126458592
 10
19.41208821341169
 20
119.4157264424592
  0
LWPOLYLINE
  5
527
330
50F
100
AcDbEntity
  8
0
  6
Continuous
 62
     7
100
AcDbPolyline
 90
        4
 70
     0
 43
0.0
 10
19.68729163281168
 20
119.2357577524592
 10
19.87447318031167
 20
119.0038620861593
 10
19.98507097191168
 20
118.7268947976592
 10
19.99801418491171
 20
118.6621298792593
  0
LWPOLYLINE
  5
528
330
50F
100
AcDbEntity
  8
0
  6
Continuous
 62
     7
100
AcDbPolyline
 90
        3
 70
     0
 43
0.0
 10
19.41181007021168
 20
119.4150904788592
 10
19.4402911199117
 20
119.4021103583592
 10
19.68729163281168
 20
119.2357577524592
  0
LINE
  5
529
330
50F
100
AcDbEntity
  8
0
  6
Continuous
 62
     7
100
AcDbLine
 10
54.10280514791171
 20
115.4121298792593
 30
0.0
 11
38.3971938959117
 21
115.4121298792593
 31
0.0
  0
LINE
  5
52A
330
50F
100
AcDbEntity
  8
0
  6
Continuous
 62
     7
100
AcDbLine
 10
37.4030494329117
 20
116.3040706984592
 30
0.0
 11
55.09694961101167
 21
116.3040706984592
 31
0.0
  0
LINE
  5
52B
330
50F
100
AcDbEntity
  8
0
  6
Continuous
 62
     7
100
AcDbLine
 10
72.50209787271169
 20
118.6621298792593
 30
0.0
 11
19.99790117111169
 21
118.6621298792593
 31
0.0
  0
LWPOLYLINE
  5
52C
330
50F
100
AcDbEntity
  8
0
  6
Continuous
 62
     7
100
AcDbPolyline
 90
        7
 70
     0
 43
0.0
 10
35.49335461641169
 20
118.6621298792593
 10
35.56601766061169
 20
118.6492824133592
 10
36.15207363011172
 20
118.4020418705593
 10
36.65985657821167
 20
118.0118275221592
 10
37.05286545781167
 20
117.5036712189592
 10
37.30341603131171
 20
116.9121016819592
 10
37.38054379671172
 20
116.5111224910592
  0
LINE
  5
52D
330
50F
100
AcDbEntity
  8
0
  6
Continuous
 62
     7
100
AcDbLine
 10
37.38054424211168
 20
116.5111184532592
 30
0.0
 11
37.4030494329117
 21
116.3040706984592
 31
0.0
  0
LINE
  5
52E
330
50F
100
AcDbEntity
  8
0
  6
Continuous
 62
     7
100
AcDbLine
 10
46.24999952191166
 20
148.6621298792593
 30
0.0
 11
46.24999952241171
 21
116.5111240917592
 31
0.0
  0
LINE
  5
52F
330
50F
100
AcDbEntity
  8
0
  6
Continuous
 62
     7
100
AcDbLine
 10
55.11945442331171
 20
116.5111149720592
 30
0.0
 11
55.09694961101167
 21
116.3040706984592
 31
0.0
  0
LWPOLYLINE
  5
530
330
50F
100
AcDbEntity
  8
0
  6
Continuous
 62
     7
100
AcDbPolyline
 90
        7
 70
     0
 43
0.0
 10
55.11945523371167
 20
116.5111225807592
 10
55.19658563031168
 20
116.9121112019592
 10
55.44715246211168
 20
117.5037035675593
 10
55.84018812241172
 20
118.0118730943592
 10
56.34798815061171
 20
118.4020784128593
 10
56.93401964871168
 20
118.6492930825592
 10
57.00662572761172
 20
118.6621298792593
  0
LINE
  5
531
330
50F
100
AcDbEntity
  8
03___PRT_ALL_CURVES
  6
Continuous
 62
     4
100
AcDbLine
 10
-0.0000004780883387
 20
148.6621298792593
 30
0.0
 11
92.49999952191165
 21
148.6621298792593
 31
0.0
  0
LINE
  5
532
330
50F
100
AcDbEntity
  8
06___PRT_ALL_SURFS
  6
Continuous
 62
     7
100
AcDbLine
 10
91.62490781931172
 20
148.6621298742593
 30
0.0
 11
0.8750912293116925
 21
148.6621298750593
 31
0.0
  0
LWPOLYLINE
  5
533
330
50F
100
AcDbEntity
  8
06___PRT_ALL_SURFS
  6
Continuous
 62
     7
100
AcDbPolyline
 90
       11
 70
     0
 43
0.0
 10
73.08791083041168
 20
119.4157264424592
 10
76.92461364411167
 20
121.2479126458592
 10
80.57866920141169
 20
123.3410269144592
 10
83.78158295081169
 20
125.5619927261593
 10
86.49668306461165
 20
127.9069821149592
 10
88.65560889701169
 20
130.4637555886593
 10
90.17420698921171
 20
133.3633911146593
 10
91.12435116211168
 20
136.5885072612593
 10
91.72256250441165
 20
140.0798455646592
 10
92.1496029613117
 20
143.8538731507593
 10
92.49677931061171
 20
147.7121298792592
  0
LWPOLYLINE
  5
534
330
50F
100
AcDbEntity
  8
0
  6
Continuous
 62
     7
100
AcDbPolyline
 90
        3
 70
     0
 43
0.0
 10
72.81270741101167
 20
119.2357577524592
 10
73.05970792391168
 20
119.4021103583592
 10
73.08818897361169
 20
119.4150904788592
  0
LWPOLYLINE
  5
535
330
50F
100
AcDbEntity
  8
06___PRT_ALL_SURFS
  6
Continuous
 62
     7
100
AcDbPolyline
 90
        7
 70
     0
 43
0.0
 10
0.8750912293116925
 20
148.6621298750593
 10
0.6008636639116958
 20
148.6180778509592
 10
0.3530005345116933
 20
148.4893706194592
 10
0.1578176318116959
 20
148.2884033940592
 10
0.0361015488117005
 20
148.0358771217592
 10
0.0004736630116895
 20
147.7583284541592
 10
0.0032197340117079
 20
147.7121298701592
  0
LWPOLYLINE
  5
536
330
50F
100
AcDbEntity
  8
0
  6
Continuous
 62
     7
100
AcDbPolyline
 90
        4
 70
     0
 43
0.0
 10
72.50198485891167
 20
118.6621298792593
 10
72.51492807191167
 20
118.7268947976592
 10
72.62552586351168
 20
119.0038620861593
 10
72.81270741101167
 20
119.2357577524592
  0
LWPOLYLINE
  5
537
330
50F
100
AcDbEntity
  8
06___PRT_ALL_SURFS
  6
Continuous
 62
     7
100
AcDbPolyline
 90
        7
 70
     0
 43
0.0
 10
92.49677930981169
 20
147.7121298701592
 10
92.49954808261168
 20
147.7590262304592
 10
92.4638416557117
 20
148.0360653619593
 10
92.34264801771166
 20
148.2877351494592
 10
92.1483186265117
 20
148.4883874031592
 10
91.90065876911171
 20
148.6175737242592
 10
91.62490781931172
 20
148.6621298742593
  0
LINE
  5
538
330
50F
100
AcDbEntity
  8
0
  6
Continuous
 62
     7
100
AcDbLine
 10
154.2563493007117
 20
115.4121298792593
 30
0.0
 11
138.5507380488117
 21
115.4121298792593
 31
0.0
  0
LINE
  5
539
330
50F
100
AcDbEntity
  8
0
  6
Continuous
 62
     7
100
AcDbLine
 10
137.5565935857117
 20
116.3040706984592
 30
0.0
 11
155.2504937638117
 21
116.3040706984592
 31
0.0
  0
LINE
  5
53A
330
50F
100
AcDbEntity
  8
0
  6
Continuous
 62
     7
100
AcDbLine
 10
172.6535436747117
 20
118.6621298792593
 30
0.0
 11
120.1535436747117
 21
118.6621298792593
 31
0.0
  0
LINE
  5
53B
330
50F
100
AcDbEntity
  8
0
  6
Continuous
 62
     7
100
AcDbLine
 10
137.5340878489117
 20
116.5111234769592
 30
0.0
 11
137.5565935857117
 21
116.3040706984592
 31
0.0
  0
LINE
  5
53C
330
50F
100
AcDbEntity
  8
0
  6
Continuous
 62
    40
100
AcDbLine
 10
146.4035436747117
 20
147.7121298792592
 30
0.0
 11
146.4035436747117
 21
119.1621298792593
 31
0.0
  0
LINE
  5
53D
330
50F
100
AcDbEntity
  8
0
  6
Continuous
 62
     7
100
AcDbLine
 10
155.2729995070117
 20
116.5111235358592
 30
0.0
 11
155.2504937638117
 21
116.3040706984592
 31
0.0
  0
LINE
  5
53E
330
50F
100
AcDbEntity
  8
03___PRT_ALL_CURVES
  6
Continuous
 62
     4
100
AcDbLine
 10
100.1535436747117
 20
148.6621298792593
 30
0.0
 11
192.6535436747117
 21
148.6621298792593
 31
0.0
  0
LINE
  5
53F
330
50F
100
AcDbEntity
  8
0
  6
Continuous
 62
     7
100
AcDbLine
 10
101.0285112137117
 20
148.6621298786593
 30
0.0
 11
101.0284113061117
 21
148.6621298692593
 31
0.0
  0
LINE
  5
540
330
50F
100
AcDbEntity
  8
0
  6
Continuous
 62
     7
100
AcDbLine
 10
191.7785761358117
 20
148.6621298786593
 30
0.0
 11
191.7786760434117
 21
148.6621298692593
 31
0.0
  0
LINE
  5
541
330
50F
100
AcDbEntity
  8
06___PRT_ALL_SURFS
  6
Continuous
 62
     7
100
AcDbLine
 10
191.7785761358117
 20
148.6621298786593
 30
0.0
 11
101.0284113061117
 21
148.6621298692593
 31
0.0
  0
LWPOLYLINE
  5
542
330
50F
100
AcDbEntity
  8
06___PRT_ALL_SURFS
  6
Continuous
 62
     7
100
AcDbPolyline
 90
       19
 70
     0
 43
0.0
 10
0.0000015617117128
 20
46.22826733265926
 10
0.1170840020116941
 20
41.11130464155926
 10
0.4636222867117113
 20
36.12230669965928
 10
1.011052578011685
 20
31.38756128485926
 10
1.720931772011709
 20
26.95457878275929
 10
2.621046434711701
 20
22.79747959595929
 10
3.771976464311705
 20
18.92752637415927
 10
5.247178588611689
 20
15.34365821455924
 10
7.116955673211691
 20
12.10567211815927
 10
9.463687108811711
 20
9.286935101559265
 10
12.31030327221171
 20
6.977849948259262
 10
15.56389209091168
 20
5.141491358059255
 10
19.16117587071167
 20
3.691365054659257
 10
23.05323449251168
 20
2.557024201859263
 10
27.23151569321169
 20
1.670201060059241
 10
31.6579190890117
 20
0.9740461980592556
 10
36.34093450251169
 20
0.4435062557592744
 10
41.28519952221171
 20
0.1092082394592637
 10
46.24999952191166
 20
-0.0000003162407438
  0
LINE
  5
543
330
50F
100
AcDbEntity
  8
06___PRT_ALL_SURFS
  6
Continuous
 62
     7
100
AcDbLine
 10
0.1152149591116824
 20
51.34798079155925
 30
0.0
 11
0.0000015617117128
 21
46.22826733265926
 31
0.0
  0
LWPOLYLINE
  5
544
330
50F
100
AcDbEntity
  8
06___PRT_ALL_SURFS
  6
Continuous
 62
     7
100
AcDbPolyline
 90
       18
 70
     0
 43
0.0
 10
46.24999952191166
 20
-0.0000003162407438
 10
51.19716565161169
 20
0.1084251755592618
 10
56.1446645372117
 20
0.4421972554592628
 10
60.8305328720117
 20
0.9724810843592592
 10
65.25947379151171
 20
1.668567153859271
 10
69.44014173841168
 20
2.555383419559262
 10
73.3342961986117
 20
3.689819213159267
 10
76.93349575431168
 20
5.140252098459257
 10
80.18897208101169
 20
6.977364117859252
 10
83.03753015441168
 20
9.28813640075927
 10
85.38556990601165
 20
12.10934441905928
 10
87.25629679911168
 20
15.35082653205924
 10
88.73192755721168
 20
18.93873635745925
 10
89.88288085771172
 20
22.81302411205925
 10
90.78285653691166
 20
26.97507854065924
 10
91.49260832481166
 20
31.41408939035926
 10
92.03955541581171
 20
36.15652681345927
 10
92.38478408481165
 20
41.15201857585924
  0
LINE
  5
545
330
50F
100
AcDbEntity
  8
0
  6
Continuous
 62
     7
100
AcDbLine
 10
46.24999952191166
 20
-0.0000003162407438
 30
0.0
 11
46.24999952191166
 21
36.87499968375926
 31
0.0
  0
LINE
  5
546
330
50F
100
AcDbEntity
  8
0
  6
Continuous
 62
     7
100
AcDbLine
 10
46.24999952191166
 20
55.62499968375925
 30
0.0
 11
46.24999952191166
 21
92.49999968375925
 31
0.0
  0
LINE
  5
547
330
50F
100
AcDbEntity
  8
0
  6
Continuous
 62
    40
100
AcDbLine
 10
90.7794227956117
 20
46.24999968375925
 30
0.0
 11
55.62499952191166
 21
46.24999968375925
 31
0.0
  0
LINE
  5
548
330
50F
100
AcDbEntity
  8
0
  6
Continuous
 62
    40
100
AcDbLine
 10
1.720576248211699
 20
46.24999968375925
 30
0.0
 11
36.87499952191166
 21
46.24999968375925
 31
0.0
  0
LWPOLYLINE
  5
549
330
50F
100
AcDbEntity
  8
06___PRT_ALL_SURFS
  6
Continuous
 62
     7
100
AcDbPolyline
 90
       19
 70
     0
 43
0.0
 10
92.49999748211166
 20
46.27173203485926
 10
92.38291504181171
 20
51.38869472585927
 10
92.03637675711167
 20
56.37769266775928
 10
91.48894646581169
 20
61.11243808255927
 10
90.7790672718117
 20
65.54542058465926
 10
89.87895260921169
 20
69.70251977145927
 10
88.72802257961167
 20
73.57247299325928
 10
87.25282045521169
 20
77.15634115285926
 10
85.38304337061168
 20
80.39432724935926
 10
83.03631193501166
 20
83.21306426595928
 10
80.1896957716117
 20
85.52214941925925
 10
76.9361069529117
 20
87.35850800935926
 10
73.33882317311171
 20
88.80863431275926
 10
69.44676455141169
 20
89.94297516555926
 10
65.26848335061169
 20
90.82979830735927
 10
60.84207995481168
 20
91.52595316935927
 10
56.15906454141168
 20
92.05649311165927
 10
51.2147995216117
 20
92.39079112805928
 10
46.24999952191166
 20
92.49999968375925
  0
LINE
  5
54A
330
50F
100
AcDbEntity
  8
06___PRT_ALL_SURFS
  6
Continuous
 62
     7
100
AcDbLine
 10
92.38478408481165
 20
41.15201857585924
 30
0.0
 11
92.49999748211166
 21
46.27173203485926
 31
0.0
  0
LWPOLYLINE
  5
54B
330
50F
100
AcDbEntity
  8
06___PRT_ALL_SURFS
  6
Continuous
 62
     7
100
AcDbPolyline
 90
       18
 70
     0
 43
0.0
 10
46.24999952191166
 20
92.49999968375925
 10
41.30283339231169
 20
92.39157419185929
 10
36.35533450661168
 20
92.05780211205924
 10
31.66946617191167
 20
91.52751828305927
 10
27.24052525231167
 20
90.83143221365927
 10
23.05985730551169
 20
89.94461594785926
 10
19.16570284521168
 20
88.81018015425926
 10
15.5665032895117
 20
87.35974726895927
 10
12.31102696281167
 20
85.52263524955924
 10
9.462468889411667
 20
83.21186296665928
 10
7.114429137811669
 20
80.39065494835924
 10
5.243702244711698
 20
77.14917283545924
 10
3.768071486611688
 20
73.56126300995924
 10
2.617118186211683
 20
69.68697525535927
 10
1.71714250691167
 20
65.52492082675925
 10
1.007390719011709
 20
61.08590997705923
 10
0.4604436280116886
 20
56.34347255395926
 10
0.1152149591116824
 20
51.34798079155925
  0
ARC
  5
54C
330
50F
100
AcDbEntity
  8
0
  6
Continuous
 62
    40
100
AcDbCircle
 10
37.0542122613117
 20
163.3003616340592
 30
0.0
 40
47.2060616207
100
AcDbArc
 50
237.7379102577
 51
237.9301923132997
  0
ARC
  5
54D
330
50F
100
AcDbEntity
  8
0
  6
Continuous
 62
    40
100
AcDbCircle
 10
55.44578678311172
 20
163.3003616331592
 30
0.0
 40
47.2060616196
100
AcDbArc
 50
302.0698076867002
 51
302.2620897423
  0
ARC
  5
54E
330
50F
100
AcDbEntity
  8
0
  6
Continuous
 62
     7
100
AcDbCircle
 10
54.10280514791171
 20
116.4121298792593
 30
0.0
 40
1.0
100
AcDbArc
 50
270.0
 51
353.7965520983006
  0
ARC
  5
54F
330
50F
100
AcDbEntity
  8
0
  6
Continuous
 62
     7
100
AcDbCircle
 10
38.3971938959117
 20
116.4121298792593
 30
0.0
 40
1.0
100
AcDbArc
 50
186.2034479016994
 51
270.0
  0
ARC
  5
550
330
50F
100
AcDbEntity
  8
0
  6
Continuous
 62
     7
100
AcDbCircle
 10
151.4114102451117
 20
-5102.228190591341
 30
0.0
 40
5221.6424821269
100
AcDbArc
 50
89.86091443900038
 51
89.98867679950036
  0
ARC
  5
551
330
50F
100
AcDbEntity
  8
0
  6
Continuous
 62
    40
100
AcDbCircle
 10
117.3447786914117
 20
139.6348178740592
 30
0.0
 40
16.1976245004
100
AcDbArc
 50
219.1849159702006
 51
219.4086541118999
  0
ARC
  5
552
330
50F
100
AcDbEntity
  8
0
  6
Continuous
 62
    40
100
AcDbCircle
 10
175.4623086707117
 20
139.6348178637593
 30
0.0
 40
16.1976244841
100
AcDbArc
 50
320.5913458879994
 51
320.8150840300008
  0
ARC
  5
553
330
50F
100
AcDbEntity
  8
0
  6
Continuous
 62
    40
100
AcDbCircle
 10
177.0739550777117
 20
138.4298312230592
 30
0.0
 40
14.1844841942
100
AcDbArc
 50
330.6645392866002
 51
330.8632962644003
  0
ARC
  5
554
330
50F
100
AcDbEntity
  8
0
  6
Continuous
 62
    40
100
AcDbCircle
 10
115.7331322698117
 20
138.4298312219592
 30
0.0
 40
14.1844841919
100
AcDbArc
 50
209.1367037355996
 51
209.3354607133997
  0
ARC
  5
555
330
50F
100
AcDbEntity
  8
0
  6
Continuous
 62
     7
100
AcDbCircle
 10
157.7583540427117
 20
116.2409756249592
 30
0.0
 40
2.4999985571
100
AcDbArc
 50
102.0976832106001
 51
173.7965366334002
  0
ARC
  5
556
330
50F
100
AcDbEntity
  8
0
  6
Continuous
 62
     7
100
AcDbCircle
 10
135.0487336020117
 20
116.2409757249592
 30
0.0
 40
2.4999984902
100
AcDbArc
 50
6.203460462200557
 51
77.90231340330031
  0
ARC
  5
557
330
50F
100
AcDbEntity
  8
0
  6
Continuous
 62
     7
100
AcDbCircle
 10
154.2563493007117
 20
116.4121298792593
 30
0.0
 40
1.0
100
AcDbArc
 50
270.0
 51
353.7965520944006
  0
ARC
  5
558
330
50F
100
AcDbEntity
  8
0
  6
Continuous
 62
     7
100
AcDbCircle
 10
138.5507380488117
 20
116.4121298792593
 30
0.0
 40
1.0
100
AcDbArc
 50
186.2034479048
 51
270.0
  0
ARC
  5
559
330
50F
100
AcDbEntity
  8
0
  6
Continuous
 62
     7
100
AcDbCircle
 10
173.6400842318117
 20
118.4986122764592
 30
0.0
 40
0.9999999856999998
100
AcDbArc
 50
113.6026579631999
 51
170.5888714948999
  0
ARC
  5
55A
330
50F
100
AcDbEntity
  8
0
  6
Continuous
 62
     7
100
AcDbCircle
 10
119.1670031177117
 20
118.4986122764592
 30
0.0
 40
0.9999999856999998
100
AcDbArc
 50
9.411128505100053
 51
66.39734203680003
  0
ARC
  5
55B
330
50F
100
AcDbEntity
  8
0
  6
Continuous
 62
     7
100
AcDbCircle
 10
191.7785436747117
 20
147.7871298792593
 30
0.0
 40
0.875
100
AcDbArc
 50
355.0828996645003
 51
89.99133238160075
  0
ARC
  5
55C
330
50F
100
AcDbEntity
  8
0
  6
Continuous
 62
     7
100
AcDbCircle
 10
101.0285436747117
 20
147.7871298792593
 30
0.0
 40
0.875
100
AcDbArc
 50
90.00866761839924
 51
184.9171003354996
  0
CIRCLE
  5
55D
330
50F
100
AcDbEntity
  8
0
  6
Continuous
 62
     7
100
AcDbCircle
 10
46.24999953001167
 20
46.24999968375925
 30
0.0
 40
9.375
  0
CIRCLE
  5
55E
330
50F
100
AcDbEntity
  8
0
  6
Continuous
 62
     7
100
AcDbCircle
 10
46.24999952191166
 20
46.24999968375925
 30
0.0
 40
8.973582635899999
  0
CIRCLE
  5
55F
330
50F
100
AcDbEntity
  8
0
  6
Continuous
 62
     7
100
AcDbCircle
 10
46.24999952191166
 20
46.24999968375925
 30
0.0
 40
8.145307575599998
  0
CIRCLE
  5
560
330
50F
100
AcDbEntity
  8
0
  6
Continuous
 62
     7
100
AcDbCircle
 10
46.24999952191166
 20
46.24999968375925
 30
0.0
 40
6.039165657599999
  0
CIRCLE
  5
561
330
50F
100
AcDbEntity
  8
0
  6
Continuous
 62
     7
100
AcDbCircle
 10
46.24999952191166
 20
46.24999968375925
 30
0.0
 40
5.617631098899999
  0
CIRCLE
  5
562
330
50F
100
AcDbEntity
  8
0
  6
Continuous
 62
     7
100
AcDbCircle
 10
46.24999952191166
 20
46.24999968375925
 30
0.0
 40
5.5625
  0
LINE
  5
563
330
50F
100
AcDbEntity
  8
0
  6
Continuous
 62
     7
100
AcDbLine
 10
0.0032197333117097
 20
147.7121298779592
 30
0.0
 11
46.24999952191166
 21
147.7121298779592
 31
0.0
  0
LINE
  5
564
330
50F
100
AcDbEntity
  8
0
  6
Continuous
 62
     7
100
AcDbLine
 10
46.24999952191166
 20
147.7121298779592
 30
0.0
 11
92.49677931051166
 21
147.7121298779592
 31
0.0
  0
SPLINE
  5
565
330
50F
100
AcDbEntity
  8
0
  6
Continuous
 62
     7
100
AcDbSpline
210
0.0
220
0.0
230
1.0
 70
     8
 71
     3
 72
    10
 73
     6
 74
     0
 42
0.0000000001
 43
0.0000000001
 40
0.0
 40
0.0
 40
0.0
 40
0.0
 40
0.5341463867
 40
0.7892628674
 40
1.0
 40
1.0
 40
1.0
 40
1.0
 10
46.24999952191166
 20
119.4149563952592
 30
0.0
 10
42.2914629856117
 20
119.4150132635592
 30
0.0
 10
36.44226176651171
 20
119.4147591405593
 30
0.0
 10
29.0313242145117
 20
119.4011560330593
 30
0.0
 10
25.57890095381171
 20
119.3904022977593
 30
0.0
 10
24.01713969791169
 20
119.3933713177592
 30
0.0
  0
LINE
  5
566
330
50F
100
AcDbEntity
  8
0
  6
Continuous
 62
     7
100
AcDbLine
 10
24.01713969791169
 20
119.3933713177592
 30
0.0
 11
23.44745133501169
 21
119.3947734271593
 31
0.0
  0
LINE
  5
567
330
50F
100
AcDbEntity
  8
0
  6
Continuous
 62
     7
100
AcDbLine
 10
23.44745133501169
 20
119.3947734271593
 30
0.0
 11
19.41190667961169
 21
119.4149374032593
 31
0.0
  0
SPLINE
  5
568
330
50F
100
AcDbEntity
  8
0
  6
Continuous
 62
     7
100
AcDbSpline
210
0.0
220
0.0
230
1.0
 70
     8
 71
     3
 72
    22
 73
    18
 74
     0
 42
0.0000000001
 43
0.0000000001
 40
0.0
 40
0.0
 40
0.0
 40
0.0
 40
0.0012151269
 40
0.0048406501
 40
0.0108639441
 40
0.0192721535
 40
0.0300492004
 40
0.0431636463
 40
0.0762607089
 40
0.1182512667
 40
0.1687144549
 40
0.2271758965
 40
0.2930629792
 40
0.4445496061
 40
0.6173794015000001
 40
0.8049352223999999
 40
1.0
 40
1.0
 40
1.0
 40
1.0
 10
55.11945524141168
 20
116.5111225209592
 30
0.0
 10
55.11905822431168
 20
116.5075519554592
 30
0.0
 10
55.09702352991169
 20
116.5149774438592
 30
0.0
 10
55.07235688841169
 20
116.5064257686592
 30
0.0
 10
55.01475912801168
 20
116.5095122619593
 30
0.0
 10
54.94210570141169
 20
116.5060645882592
 30
0.0
 10
54.84590831701169
 20
116.5050700506592
 30
0.0
 10
54.67777984661168
 20
116.5020464258592
 30
0.0
 10
54.41680616841168
 20
116.4990390314593
 30
0.0
 10
54.04571664171172
 20
116.4958675889592
 30
0.0
 10
53.59950086811171
 20
116.4937680410592
 30
0.0
 10
53.0826742750117
 20
116.4929387424592
 30
0.0
 10
52.26715204581172
 20
116.4934593977593
 30
0.0
 10
51.11350692491171
 20
116.4969324515592
 30
0.0
 10
49.60014811291171
 20
116.5030124959593
 30
0.0
 10
47.95794942301168
 20
116.5093280269593
 30
0.0
 10
46.82671616761171
 20
116.5111180979592
 30
0.0
 10
46.24999952191166
 20
116.5111235358592
 30
0.0
  0
SPLINE
  5
569
330
50F
100
AcDbEntity
  8
0
  6
Continuous
 62
     7
100
AcDbSpline
210
0.0
220
0.0
230
1.0
 70
     8
 71
     3
 72
    22
 73
    18
 74
     0
 42
0.0000000001
 43
0.0000000001
 40
0.0
 40
0.0
 40
0.0
 40
0.0
 40
0.1950649849
 40
0.3826210412
 40
0.5554510022
 40
0.7069374177
 40
0.7728243269
 40
0.8312856145000001
 40
0.8817488251
 40
0.9237394261
 40
0.9568364681999998
 40
0.969950889
 40
0.9807278387999998
 40
0.9891360004
 40
0.9951593442
 40
0.9987849184999999
 40
1.0
 40
1.0
 40
1.0
 40
1.0
 10
46.24999952191166
 20
116.5111235358592
 30
0.0
 10
45.6732822640117
 20
116.5111179901592
 30
0.0
 10
44.54204770091169
 20
116.5093281445592
 30
0.0
 10
42.89984721661167
 20
116.5030124051593
 30
0.0
 10
41.38648784301167
 20
116.4969322423592
 30
0.0
 10
40.23284338031166
 20
116.4934599828592
 30
0.0
 10
39.41732273121167
 20
116.4929383549593
 30
0.0
 10
38.9004970781117
 20
116.4937676465592
 30
0.0
 10
38.45428145401169
 20
116.4958676765593
 30
0.0
 10
38.08319212281168
 20
116.4990394493592
 30
0.0
 10
37.82221769271169
 20
116.5020465882592
 30
0.0
 10
37.65409080751169
 20
116.5050700111592
 30
0.0
 10
37.5578914549117
 20
116.5060640344592
 30
0.0
 10
37.48524471921172
 20
116.5095127346592
 30
0.0
 10
37.42763219961168
 20
116.5064244786592
 30
0.0
 10
37.40299114391169
 20
116.5149799935593
 30
0.0
 10
37.3809298583117
 20
116.5075508297592
 30
0.0
 10
37.38054380701169
 20
116.5111224624592
 30
0.0
  0
LINE
  5
56A
330
50F
100
AcDbEntity
  8
0
  6
Continuous
 62
     7
100
AcDbLine
 10
73.0880923611117
 20
119.4149374040592
 30
0.0
 11
69.05450244661167
 21
119.3947777175593
 31
0.0
  0
LINE
  5
56B
330
50F
100
AcDbEntity
  8
0
  6
Continuous
 62
     7
100
AcDbLine
 10
69.05450244661167
 20
119.3947777175593
 30
0.0
 11
68.47955560821168
 21
119.3933689186593
 31
0.0
  0
SPLINE
  5
56C
330
50F
100
AcDbEntity
  8
0
  6
Continuous
 62
     7
100
AcDbSpline
210
0.0
220
0.0
230
1.0
 70
     8
 71
     3
 72
    10
 73
     6
 74
     0
 42
0.0000000001
 43
0.0000000001
 40
0.0
 40
0.0
 40
0.0
 40
0.0
 40
0.210779335
 40
0.4658885010000001
 40
1.0
 40
1.0
 40
1.0
 40
1.0
 10
68.47955560821168
 20
119.3933689186593
 30
0.0
 10
66.91771366441168
 20
119.3904246637593
 30
0.0
 10
63.46554500481167
 20
119.4011573883592
 30
0.0
 10
56.05570863451169
 20
119.4147725752593
 30
0.0
 10
50.20768932051169
 20
119.4150122923593
 30
0.0
 10
46.24999952191166
 20
119.4149563952592
 30
0.0
  0
SPLINE
  5
56D
330
50F
100
AcDbEntity
  8
0
  6
Continuous
 62
     7
100
AcDbSpline
210
0.0
220
0.0
230
1.0
 70
     8
 71
     3
 72
    18
 73
    14
 74
     0
 42
0.0000000001
 43
0.0000000001
 40
0.0
 40
0.0
 40
0.0
 40
0.0
 40
0.1249828901
 40
0.2499556594
 40
0.3124506418
 40
0.3749559154
 40
0.4374535994000001
 40
0.4999376809000001
 40
0.5624242048000001
 40
0.6249351606
 40
0.7498766638
 40
0.8749146490000001
 40
1.0
 40
1.0
 40
1.0
 40
1.0
 10
100.1567638860116
 20
147.7121298792592
 30
0.0
 10
100.2894366950117
 20
146.1699769009593
 30
0.0
 10
100.5566983189117
 20
143.0863103652593
 30
0.0
 10
101.0086038012117
 20
139.2403987224592
 30
0.0
 10
101.5843281842117
 20
136.1966453234592
 30
0.0
 10
102.2064179394116
 20
133.9550402012592
 30
0.0
 10
103.1163251088117
 20
131.8090363406592
 30
0.0
 10
104.3683910915117
 20
129.8407245177592
 30
0.0
 10
105.9097727222117
 20
128.0949321517593
 30
0.0
 10
108.1998685200117
 20
126.0072386115592
 30
0.0
 10
111.3366268923117
 20
123.7221329434592
 30
0.0
 10
115.3507616128116
 20
121.3745700821592
 30
0.0
 10
118.1478689647116
 20
120.0352100139592
 30
0.0
 10
119.5673946437117
 20
119.4149563952592
 30
0.0
  0
SPLINE
  5
56E
330
50F
100
AcDbEntity
  8
0
  6
Continuous
 62
     7
100
AcDbSpline
210
0.0
220
0.0
230
1.0
 70
     8
 71
     3
 72
    18
 73
    14
 74
     0
 42
0.0000000001
 43
0.0000000001
 40
0.0
 40
0.0
 40
0.0
 40
0.0
 40
0.1249828901
 40
0.2499556594
 40
0.3124506418
 40
0.3749559154
 40
0.4374535994000001
 40
0.4999376809000001
 40
0.5624242048000001
 40
0.6249351606
 40
0.7498766638
 40
0.8749146490000001
 40
1.0
 40
1.0
 40
1.0
 40
1.0
 10
192.6503234635116
 20
147.7121298792592
 30
0.0
 10
192.5176506545117
 20
146.1699769009593
 30
0.0
 10
192.2503890306116
 20
143.0863103652593
 30
0.0
 10
191.7984835483117
 20
139.2403987224592
 30
0.0
 10
191.2227591653117
 20
136.1966453234592
 30
0.0
 10
190.6006694101117
 20
133.9550402012592
 30
0.0
 10
189.6907622407117
 20
131.8090363406592
 30
0.0
 10
188.4386962579117
 20
129.8407245177592
 30
0.0
 10
186.8973146272117
 20
128.0949321517593
 30
0.0
 10
184.6072188295116
 20
126.0072386115592
 30
0.0
 10
181.4704604572117
 20
123.7221329434592
 30
0.0
 10
177.4563257367117
 20
121.3745700821592
 30
0.0
 10
174.6592183848117
 20
120.0352100139592
 30
0.0
 10
173.2396927058117
 20
119.4149563952592
 30
0.0
  0
LINE
  5
56F
330
50F
100
AcDbEntity
  8
0
  6
Continuous
 62
     7
100
AcDbLine
 10
173.2396927058117
 20
119.4149563952592
 30
0.0
 11
169.2083685858117
 21
119.3947758263592
 31
0.0
  0
LINE
  5
570
330
50F
100
AcDbEntity
  8
0
  6
Continuous
 62
     7
100
AcDbLine
 10
169.2083685858117
 20
119.3947758263592
 30
0.0
 11
168.6425818419117
 21
119.3933870350593
 31
0.0
  0
LINE
  5
571
330
50F
100
AcDbEntity
  8
0
  6
Continuous
 62
     7
100
AcDbLine
 10
168.6425818419117
 20
119.3933870350593
 30
0.0
 11
168.6233786555117
 21
119.3933512353592
 31
0.0
  0
SPLINE
  5
572
330
50F
100
AcDbEntity
  8
0
  6
Continuous
 62
     7
100
AcDbSpline
210
0.0
220
0.0
230
1.0
 70
     8
 71
     3
 72
     9
 73
     5
 74
     0
 42
0.0000000001
 43
0.0000000001
 40
0.0
 40
0.0
 40
0.0
 40
0.0
 40
0.2132632144
 40
1.0
 40
1.0
 40
1.0
 40
1.0
 10
168.6233786555117
 20
119.3933512353592
 30
0.0
 10
168.3008936120116
 20
119.3927563315593
 30
0.0
 10
166.7887445177117
 20
119.3915818620592
 30
0.0
 10
165.2765994097117
 20
119.3961138211593
 30
0.0
 10
164.0869400499117
 20
119.3989065974592
 30
0.0
  0
LINE
  5
573
330
50F
100
AcDbEntity
  8
0
  6
Continuous
 62
     7
100
AcDbLine
 10
152.4433484617117
 20
119.4141895660592
 30
0.0
 11
152.1695397445117
 21
119.4142993921592
 31
0.0
  0
SPLINE
  5
574
330
50F
100
AcDbEntity
  8
0
  6
Continuous
 62
     7
100
AcDbSpline
210
0.0
220
0.0
230
1.0
 70
     8
 71
     3
 72
     8
 73
     4
 74
     0
 42
0.0000000001
 43
0.0000000001
 40
0.0
 40
0.0
 40
0.0
 40
0.0
 40
1.0
 40
1.0
 40
1.0
 40
1.0
 10
152.1695397445117
 20
119.4142993921592
 30
0.0
 10
148.2857983770117
 20
119.4157711760592
 30
0.0
 10
144.4020561465117
 20
119.4158059021592
 30
0.0
 10
140.5183148055117
 20
119.4142658829592
 30
0.0
  0
LINE
  5
575
330
50F
100
AcDbEntity
  8
0
  6
Continuous
 62
     7
100
AcDbLine
 10
140.5183148055117
 20
119.4142658829592
 30
0.0
 11
140.3640229557117
 21
119.4142026514593
 31
0.0
  0
SPLINE
  5
576
330
50F
100
AcDbEntity
  8
0
  6
Continuous
 62
     7
100
AcDbSpline
210
0.0
220
0.0
230
1.0
 70
     8
 71
     3
 72
     9
 73
     5
 74
     0
 42
0.0000000001
 43
0.0000000001
 40
0.0
 40
0.0
 40
0.0
 40
0.0
 40
0.5409217432000001
 40
1.0
 40
1.0
 40
1.0
 40
1.0
 10
140.3640229557117
 20
119.4142026514593
 30
0.0
 10
137.4456714546116
 20
119.4129684311593
 30
0.0
 10
132.0505288718117
 20
119.4114534847592
 30
0.0
 10
126.6553889606117
 20
119.3887343843593
 30
0.0
 10
124.1785990714116
 20
119.3933589595592
 30
0.0
  0
LINE
  5
577
330
50F
100
AcDbEntity
  8
0
  6
Continuous
 62
     7
100
AcDbLine
 10
124.1785990714116
 20
119.3933589595592
 30
0.0
 11
124.0906242494117
 21
119.3935310208592
 31
0.0
  0
LINE
  5
578
330
50F
100
AcDbEntity
  8
0
  6
Continuous
 62
     7
100
AcDbLine
 10
124.0906242494117
 20
119.3935310208592
 30
0.0
 11
123.5992087104117
 21
119.3947762132592
 31
0.0
  0
LINE
  5
579
330
50F
100
AcDbEntity
  8
0
  6
Continuous
 62
     7
100
AcDbLine
 10
123.5992087104117
 20
119.3947762132592
 30
0.0
 11
119.5673946140117
 21
119.4149564286592
 31
0.0
  0
LINE
  5
57A
330
50F
100
AcDbEntity
  8
0
  6
Continuous
 62
     7
100
AcDbLine
 10
100.1567638862117
 20
147.7121298779592
 30
0.0
 11
192.6503234633116
 21
147.7121298779592
 31
0.0
  0
SPLINE
  5
57B
330
50F
100
AcDbEntity
  8
0
  6
Continuous
 62
     7
100
AcDbSpline
210
0.0
220
0.0
230
1.0
 70
     8
 71
     3
 72
    26
 73
    22
 74
     0
 42
0.0000000001
 43
0.0000000001
 40
0.0
 40
0.0
 40
0.0
 40
0.0
 40
0.0024141743
 40
0.0096217965
 40
0.0215613227
 40
0.0381063766
 40
0.0591014061
 40
0.0843359822
 40
0.1465236495
 40
0.2222770506
 40
0.3086926329
 40
0.5000024596000001
 40
0.6913176585
 40
0.7777306687000002
 40
0.8534755393999999
 40
0.9156569090999999
 40
0.9618866951000001
 40
0.9784337234
 40
0.9903755701999999
 40
0.9975850398
 40
1.0
 40
1.0
 40
1.0
 40
1.0
 10
155.2729995070117
 20
116.5111235358592
 30
0.0
 10
155.2590536077117
 20
116.5080754152592
 30
0.0
 10
155.2013714536117
 20
116.5140343814593
 30
0.0
 10
155.0746552510116
 20
116.5056579105592
 30
0.0
 10
154.8631906909117
 20
116.5066728388592
 30
0.0
 10
154.5708200310117
 20
116.5019559844592
 30
0.0
 10
154.1995709216116
 20
116.4995456926592
 30
0.0
 10
153.5585390844117
 20
116.4953715657593
 30
0.0
 10
152.5936551489117
 20
116.4926470364593
 30
0.0
 10
151.2670294336117
 20
116.4934182402593
 30
0.0
 10
149.1769063402117
 20
116.5017438041592
 30
0.0
 10
146.4034705785117
 20
116.5162527563592
 30
0.0
 10
143.6300182306117
 20
116.5056061913592
 30
0.0
 10
141.5399490680117
 20
116.4961535675592
 30
0.0
 10
140.2134019987117
 20
116.4924043514592
 30
0.0
 10
139.1245335232117
 20
116.4950103899592
 30
0.0
 10
138.3855395564117
 20
116.4987805928592
 30
0.0
 10
137.9439243931117
 20
116.5056448429592
 30
0.0
 10
137.7325734298117
 20
116.5057519641593
 30
0.0
 10
137.6055780852116
 20
116.5130254785592
 30
0.0
 10
137.5481462700117
 20
116.5086189524592
 30
0.0
 10
137.5340878489117
 20
116.5111234769592
 30
0.0
  0
SPLINE
  5
57C
330
50F
100
AcDbEntity
  8
0
  6
Continuous
 62
     7
100
AcDbSpline
210
0.0
220
0.0
230
1.0
 70
     8
 71
     3
 72
    33
 73
    29
 74
     0
 42
0.0000000001
 43
0.0000000001
 40
0.0
 40
0.0
 40
0.0
 40
0.0
 40
0.0625789579
 40
0.093877211
 40
0.125176202
 40
0.1564742472
 40
0.1877674717
 40
0.2190499571
 40
0.2502766558
 40
0.3124420507
 40
0.3437318989
 40
0.37502536
 40
0.4063183751
 40
0.4376093107
 40
0.5001697666
 40
0.5627202482
 40
0.5939995449000001
 40
0.6252771064
 40
0.656551726
 40
0.6878200806999999
 40
0.7499341498000001
 40
0.7811343234
 40
0.8123893084999998
 40
0.8436542987000001
 40
0.8749243501999998
 40
0.9061959566999998
 40
0.9374679855
 40
1.0
 40
1.0
 40
1.0
 40
1.0
 10
46.24999952191166
 20
90.77942570975924
 30
0.0
 10
49.37542951301168
 20
90.77942570975924
 30
0.0
 10
54.06797220891167
 20
90.58461723015927
 30
0.0
 10
60.28331148731169
 20
89.89786828355926
 30
0.0
 10
64.92032609381169
 20
89.18751202935927
 30
0.0
 10
69.51320366691167
 20
88.22434971345927
 30
0.0
 10
74.00605992371168
 20
86.85076167605926
 30
0.0
 10
78.27907602751167
 20
84.88639769985926
 30
0.0
 10
83.34194387321167
 20
81.12546652515925
 30
0.0
 10
86.4231223517117
 20
75.43426761335926
 30
0.0
 10
88.22949350291168
 20
69.48723423335926
 30
0.0
 10
89.19339970231169
 20
64.88961801145928
 30
0.0
 10
89.90147146111167
 20
60.25468944605925
 30
0.0
 10
90.58669840801167
 20
54.03993474985927
 30
0.0
 10
90.90910281391165
 20
46.22507856965927
 30
0.0
 10
90.58307653291171
 20
38.41095858285925
 30
0.0
 10
89.89527964201171
 20
32.19835534335925
 30
0.0
 10
89.1854888396117
 20
27.56599986885925
 30
0.0
 10
88.21906499351166
 20
22.97174819825926
 30
0.0
 10
86.4086536384117
 20
17.03061096735928
 30
0.0
 10
83.31958088541171
 20
11.34888486265924
 30
0.0
 10
78.25466669271168
 20
7.60019545165926
 30
0.0
 10
73.9839313597117
 20
5.641241263559265
 30
0.0
 10
69.49443903421169
 20
4.271063960559274
 30
0.0
 10
64.90543998961169
 20
3.309890963559269
 30
0.0
 10
60.27236355781167
 20
2.60077137765927
 30
0.0
 10
54.06196736001169
 20
1.91505016325928
 30
0.0
 10
49.37308497981169
 20
1.720573657759246
 30
0.0
 10
46.24999952191166
 20
1.720573657759246
 30
0.0
  0
SPLINE
  5
57D
330
50F
100
AcDbEntity
  8
0
  6
Continuous
 62
     7
100
AcDbSpline
210
0.0
220
0.0
230
1.0
 70
     8
 71
     3
 72
    33
 73
    29
 74
     0
 42
0.0000000001
 43
0.0000000001
 40
0.0
 40
0.0
 40
0.0
 40
0.0
 40
0.0625320127
 40
0.0938040431
 40
0.1250756523
 40
0.1563456882
 40
0.1876107126
 40
0.218865676
 40
0.2500658934
 40
0.3121799442
 40
0.3434482647999999
 40
0.3747229002
 40
0.4060004591000001
 40
0.4372797553
 40
0.4998302382000001
 40
0.5623906931000001
 40
0.5936816296
 40
0.6249746474000001
 40
0.6562680929
 40
0.6875579752
 40
0.7497233865
 40
0.7809500404000001
 40
0.8122325483
 40
0.8435257387
 40
0.8748237995999998
 40
0.9061227881999998
 40
0.93742104
 40
1.0
 40
1.0
 40
1.0
 40
1.0
 10
46.24999952191166
 20
1.72057365855926
 30
0.0
 10
43.12691416121168
 20
1.72057365855926
 30
0.0
 10
38.4380341368117
 20
1.915071991759248
 30
0.0
 10
32.22763207661169
 20
2.600745514459248
 30
0.0
 10
27.59456483651169
 20
3.309927647959256
 30
0.0
 10
23.00556756211168
 20
4.271098361759243
 30
0.0
 10
18.51605134881168
 20
5.641203218359265
 30
0.0
 10
14.24532394721168
 20
7.600186113359256
 30
0.0
 10
9.180415379311682
 20
11.34888743865926
 30
0.0
 10
6.091400677111693
 20
17.03063524615927
 30
0.0
 10
4.280901212511679
 20
22.97174115075927
 30
0.0
 10
3.314473030611708
 20
27.56599398415926
 30
0.0
 10
2.604746201611675
 20
32.19835903935928
 30
0.0
 10
1.916899858011674
 20
38.41095590825927
 30
0.0
 10
1.59089592801169
 20
46.22508015375925
 30
0.0
 10
1.913323833211677
 20
54.03993204225923
 30
0.0
 10
2.598500548711683
 20
60.25469315235927
 30
0.0
 10
3.30663622941168
 20
64.88961220175927
 30
0.0
 10
4.270538583711669
 20
69.48722711025928
 30
0.0
 10
6.076821741711711
 20
75.43429173285926
 30
0.0
 10
9.158059765111715
 20
81.12546707005927
 30
0.0
 10
14.22093072801169
 20
84.88638951875927
 30
0.0
 10
18.49395579601167
 20
86.85072291655925
 30
0.0
 10
22.98678777021169
 20
88.22438417265926
 30
0.0
 10
27.57966716511172
 20
89.18754878625927
 30
0.0
 10
32.21669096091168
 20
89.89784246055927
 30
0.0
 10
38.43202438861169
 20
90.58463898845928
 30
0.0
 10
43.12456943441168
 20
90.77942570895928
 30
0.0
 10
46.24999952191166
 20
90.77942570895928
 30
0.0
  0
SPLINE
  5
57E
330
50F
100
AcDbEntity
  8
03___PRT_ALL_CURVES
  6
Continuous
 62
     4
100
AcDbSpline
210
0.0
220
0.0
230
1.0
 70
     8
 71
     3
 72
    11
 73
     7
 74
     0
 42
0.0000000001
 43
0.0000000001
 40
0.0
 40
0.0
 40
0.0
 40
0.0
 40
0.25
 40
0.5
 40
0.75
 40
1.0
 40
1.0
 40
1.0
 40
1.0
 10
46.24999952191166
 20
58.74999968375925
 30
0.0
 10
50.17857095051167
 20
58.74999968375925
 30
0.0
 10
58.03571380761169
 20
58.03571396945926
 30
0.0
 10
59.10714237911168
 20
46.24999968375925
 30
0.0
 10
58.03571380761169
 20
34.46428539795926
 30
0.0
 10
50.17857095051167
 20
33.74999968375926
 30
0.0
 10
46.24999952191166
 20
33.74999968375926
 30
0.0
  0
SPLINE
  5
57F
330
50F
100
AcDbEntity
  8
03___PRT_ALL_CURVES
  6
Continuous
 62
     4
100
AcDbSpline
210
0.0
220
0.0
230
1.0
 70
     8
 71
     3
 72
    11
 73
     7
 74
     0
 42
0.0000000001
 43
0.0000000001
 40
0.0
 40
0.0
 40
0.0
 40
0.0
 40
0.25
 40
0.5
 40
0.75
 40
1.0
 40
1.0
 40
1.0
 40
1.0
 10
46.24999952191166
 20
33.74999968375926
 30
0.0
 10
42.32142809331171
 20
33.74999968375926
 30
0.0
 10
34.46428523621168
 20
34.46428539795926
 30
0.0
 10
33.39285666481169
 20
46.24999968375925
 30
0.0
 10
34.46428523621168
 20
58.03571396945926
 30
0.0
 10
42.32142809331171
 20
58.74999968375925
 30
0.0
 10
46.24999952191166
 20
58.74999968375925
 30
0.0
  0
SPLINE
  5
580
330
50F
100
AcDbEntity
  8
03___PRT_ALL_CURVES
  6
Continuous
 62
     4
100
AcDbSpline
210
0.0
220
0.0
230
1.0
 70
     8
 71
     3
 72
    15
 73
    11
 74
     0
 42
0.0000000001
 43
0.0000000001
 40
0.0
 40
0.0
 40
0.0
 40
0.0
 40
0.1074985848
 40
0.25
 40
0.3925014152
 40
0.5
 40
0.6074985848
 40
0.75
 40
0.8925014151999999
 40
1.0
 40
1.0
 40
1.0
 40
1.0
 10
46.24999952191166
 20
92.49999968375925
 30
0.0
 10
40.82860110621166
 20
92.49999968375925
 30
0.0
 10
28.2205318340117
 20
91.61448083215928
 30
0.0
 10
6.423495628711691
 20
86.07650357695925
 30
0.0
 10
0.8855183734116849
 20
64.27946737165928
 30
0.0
 10
-0.3807685714883178
 20
46.24999968375925
 30
0.0
 10
0.8855183734116849
 20
28.22053199585926
 30
0.0
 10
6.423495628711691
 20
6.42349579045927
 30
0.0
 10
28.2205318340117
 20
0.8855185352592513
 30
0.0
 10
40.82860110621166
 20
-0.0000003162407438
 30
0.0
 10
46.24999952191166
 20
-0.0000003162407438
 30
0.0
  0
SPLINE
  5
581
330
50F
100
AcDbEntity
  8
03___PRT_ALL_CURVES
  6
Continuous
 62
     4
100
AcDbSpline
210
0.0
220
0.0
230
1.0
 70
     8
 71
     3
 72
    15
 73
    11
 74
     0
 42
0.0000000001
 43
0.0000000001
 40
0.0
 40
0.0
 40
0.0
 40
0.0
 40
0.1074985848
 40
0.25
 40
0.3925014152
 40
0.5
 40
0.6074985848
 40
0.75
 40
0.8925014151999999
 40
1.0
 40
1.0
 40
1.0
 40
1.0
 10
46.24999952191166
 20
-0.0000003162407438
 30
0.0
 10
51.67139793761172
 20
-0.0000003162407438
 30
0.0
 10
64.27946720981168
 20
0.8855185352592513
 30
0.0
 10
86.07650341511169
 20
6.42349579045927
 30
0.0
 10
91.61448067041169
 20
28.22053199585926
 30
0.0
 10
92.8807676153117
 20
46.24999968375925
 30
0.0
 10
91.61448067041169
 20
64.27946737165928
 30
0.0
 10
86.07650341511169
 20
86.07650357695925
 30
0.0
 10
64.27946720981168
 20
91.61448083215928
 30
0.0
 10
51.67139793761172
 20
92.49999968375925
 30
0.0
 10
46.24999952191166
 20
92.49999968375925
 30
0.0
  0
ENDBLK
  5
583
330
50F
100
AcDbEntity
  8
0
100
AcDbBlockEnd
  0
ENDSEC
  0
SECTION
  2
ENTITIES
  0
MTEXT
  5
B9
330
2
100
AcDbEntity
  8
尺寸标注
100
AcDbMText
 10
41266.00513242018
 20
-2168.311655986676
 30
0.0
 40
75.0
 41
801.6353349369019
 71
     2
 72
     5
  1
SCALE\P1:1
 73
     1
 44
1.0
  0
LINE
  5
5D1
330
2
100
AcDbEntity
  8
0
  6
Continuous
 62
     7
100
AcDbLine
 10
41551.4343271395
 20
-2641.543575400756
 30
0.0
 11
41551.47702765
 21
-2641.980373797555
 31
0.0
  0
LWPOLYLINE
  5
5D2
330
2
100
AcDbEntity
  8
0
  6
Continuous
 62
     7
100
AcDbPolyline
 90
       11
 70
     0
 43
0.0
 10
41092.72097070941
 20
-2626.062072126056
 10
41094.1096761066
 20
-2641.495099039956
 10
41095.81783793431
 20
-2656.591209384356
 10
41098.2106833033
 20
-2670.556562598355
 10
41102.0112599949
 20
-2683.457027184556
 10
41108.08565236391
 20
-2695.055569288355
 10
41116.72135569361
 20
-2705.282663183356
 10
41127.5817561487
 20
-2714.662620738656
 10
41140.39341114641
 20
-2723.546483985256
 10
41155.0096333754
 20
-2731.918941059655
 10
41170.3564446304
 20
-2739.247685873456
  0
LWPOLYLINE
  5
5D3
330
2
100
AcDbEntity
  8
0
  6
Continuous
 62
     7
100
AcDbPolyline
 90
        4
 70
     0
 43
0.0
 10
41171.4572583079
 20
-2739.967560633356
 10
41172.2059844978
 20
-2740.895143298656
 10
41172.64837566411
 20
-2742.003012452756
 10
41172.7001485163
 20
-2742.262072126056
  0
LWPOLYLINE
  5
5D4
330
2
100
AcDbEntity
  8
0
  6
Continuous
 62
     7
100
AcDbPolyline
 90
        3
 70
     0
 43
0.0
 10
41170.3553320574
 20
-2739.250229727856
 10
41170.46925625611
 20
-2739.302150209856
 10
41171.4572583079
 20
-2739.967560633356
  0
LINE
  5
5D5
330
2
100
AcDbEntity
  8
0
  6
Continuous
 62
     7
100
AcDbLine
 10
41309.1193123681
 20
-2755.262072126056
 30
0.0
 11
41246.29686736031
 21
-2755.262072126056
 31
0.0
  0
LINE
  5
5D7
330
2
100
AcDbEntity
  8
0
  6
Continuous
 62
     7
100
AcDbLine
 10
41382.7164832675
 20
-2742.262072126056
 30
0.0
 11
41172.6996964609
 21
-2742.262072126056
 31
0.0
  0
LWPOLYLINE
  5
5D8
330
2
100
AcDbEntity
  8
0
  6
Continuous
 62
     7
100
AcDbPolyline
 90
        7
 70
     0
 43
0.0
 10
41234.68151024201
 20
-2742.262072126056
 10
41234.97216241891
 20
-2742.313461989656
 10
41237.31638629701
 20
-2743.302424161156
 10
41239.3475180893
 20
-2744.863281554456
 10
41240.91955360761
 20
-2746.895906767356
 10
41241.92175590191
 20
-2749.262184915456
 10
41242.2302669634
 20
-2750.866101678756
  0
LINE
  5
5D9
330
2
100
AcDbEntity
  8
0
  6
Continuous
 62
     7
100
AcDbLine
 10
41242.23026874511
 20
-2750.866117830256
 30
0.0
 11
41242.320289508
 21
-2751.694308849156
 31
0.0
  0
LINE
  5
5DA
330
2
100
AcDbEntity
  8
0
  6
Continuous
 62
     7
100
AcDbLine
 10
41313.18590946981
 20
-2750.866131755056
 30
0.0
 11
41313.0958902204
 21
-2751.694308849156
 31
0.0
  0
LWPOLYLINE
  5
5DB
330
2
100
AcDbEntity
  8
0
  6
Continuous
 62
     7
100
AcDbPolyline
 90
        7
 70
     0
 43
0.0
 10
41313.1859127114
 20
-2750.866101320156
 10
41313.4944342979
 20
-2749.262146835255
 10
41314.49670162511
 20
-2746.895777372956
 10
41316.0688442661
 20
-2744.863099265656
 10
41318.10004437911
 20
-2743.302277991656
 10
41320.44417037131
 20
-2742.313419312856
 10
41320.734594687
 20
-2742.262072126056
  0
LINE
  5
5DC
330
2
100
AcDbEntity
  8
0
  6
Continuous
 62
     7
100
AcDbLine
 10
41096.20845679943
 20
-2622.262072126055
 30
0.0
 11
41459.20772293055
 21
-2622.262072126055
 31
0.0
  0
LINE
  5
5DD
330
2
100
AcDbEntity
  8
0
  6
Continuous
 62
     7
100
AcDbLine
 10
41128.58508038411
 20
-2622.262576038956
 30
0.0
 11
41120.0808045171
 21
-2622.262032128556
 31
0.0
  0
LINE
  5
5DE
330
2
100
AcDbEntity
  8
0
  6
Continuous
 62
     7
100
AcDbLine
 10
41459.20772305371
 20
-2622.262072145956
 30
0.0
 11
41096.2084566936
 21
-2622.262072143056
 31
0.0
  0
LWPOLYLINE
  5
5DF
330
2
100
AcDbEntity
  8
0
  6
Continuous
 62
     7
100
AcDbPolyline
 90
       11
 70
     0
 43
0.0
 10
41385.0597350981
 20
-2739.247685873456
 10
41400.40654635311
 20
-2731.918941059655
 10
41415.02276858201
 20
-2723.546483985256
 10
41427.8344235797
 20
-2714.662620738656
 10
41438.69482403481
 20
-2705.282663183356
 10
41447.33052736451
 20
-2695.055569288355
 10
41453.4049197335
 20
-2683.457027184556
 10
41457.2054964251
 20
-2670.556562598355
 10
41459.59834179411
 20
-2656.591209384356
 10
41461.30650362181
 20
-2641.495099039956
 10
41462.69520901901
 20
-2626.062072126056
  0
LWPOLYLINE
  5
5E0
330
2
100
AcDbEntity
  8
0
  6
Continuous
 62
     7
100
AcDbPolyline
 90
        3
 70
     0
 43
0.0
 10
41383.9589214205
 20
-2739.967560633356
 10
41384.94692347241
 20
-2739.302150209856
 10
41385.06084767101
 20
-2739.250229727856
  0
LWPOLYLINE
  5
5E1
330
2
100
AcDbEntity
  8
0
  6
Continuous
 62
     7
100
AcDbPolyline
 90
        7
 70
     0
 43
0.0
 10
41096.2084566936
 20
-2622.262072143056
 10
41095.11154643231
 20
-2622.438280239356
 10
41094.12009391451
 20
-2622.953109165256
 10
41093.33936230401
 20
-2623.756978067156
 10
41092.85249797161
 20
-2624.767083156056
 10
41092.7099864285
 20
-2625.877277826356
 10
41092.72097071251
 20
-2626.062072162556
  0
LWPOLYLINE
  5
5E2
330
2
100
AcDbEntity
  8
0
  6
Continuous
 62
     7
100
AcDbPolyline
 90
        4
 70
     0
 43
0.0
 10
41382.7160312121
 20
-2742.262072126056
 10
41382.76780406431
 20
-2742.003012452756
 10
41383.21019523061
 20
-2740.895143298656
 10
41383.9589214205
 20
-2739.967560633356
  0
LWPOLYLINE
  5
5E3
330
2
100
AcDbEntity
  8
0
  6
Continuous
 62
     7
100
AcDbPolyline
 90
        7
 70
     0
 43
0.0
 10
41462.69520901591
 20
-2626.062072162556
 10
41462.70628410681
 20
-2625.874486721155
 10
41462.5634583995
 20
-2624.766330195356
 10
41462.0786838472
 20
-2623.759651045156
 10
41461.30136628251
 20
-2622.957042030356
 10
41460.31072685281
 20
-2622.440296746056
 10
41459.20772305371
 20
-2622.262072145956
  0
LWPOLYLINE
  5
5E4
330
2
100
AcDbEntity
  8
0
  6
Continuous
 62
     7
100
AcDbPolyline
 90
       19
 70
     0
 43
0.0
 10
41092.70809802331
 20
-3016.701809137656
 10
41093.1764277845
 20
-3037.169659902056
 10
41094.56258092341
 20
-3057.125651669356
 10
41096.75230208861
 20
-3076.064633328756
 10
41099.59181886461
 20
-3093.796563336856
 10
41103.1922775152
 20
-3110.424960084156
 10
41107.7959976336
 20
-3125.904772971456
 10
41113.6968061311
 20
-3140.240245609856
 10
41121.1759144696
 20
-3153.192189995656
 10
41130.56284021171
 20
-3164.467138062056
 10
41141.94930486561
 20
-3173.703478675256
 10
41154.9636601403
 20
-3181.048913035656
 10
41169.3527952596
 20
-3186.849418249556
 10
41184.92102974641
 20
-3191.386781660556
 10
41201.6341545493
 20
-3194.934074227756
 10
41219.33976813251
 20
-3197.718693675856
 10
41238.07182978641
 20
-3199.840853444956
 10
41257.8488898653
 20
-3201.178045510456
 10
41277.7080898642
 20
-3201.614879733256
  0
LINE
  5
5E5
330
2
100
AcDbEntity
  8
0
  6
Continuous
 62
     7
100
AcDbLine
 10
41093.1689516128
 20
-2996.222955301656
 30
0.0
 11
41092.70809802331
 21
-3016.701809137656
 31
0.0
  0
LWPOLYLINE
  5
5E6
330
2
100
AcDbEntity
  8
0
  6
Continuous
 62
     7
100
AcDbPolyline
 90
       18
 70
     0
 43
0.0
 10
41277.7080898642
 20
-3201.614879733256
 10
41297.4967543828
 20
-3201.181177765856
 10
41317.2867499255
 20
-3199.846089446456
 10
41336.03022326441
 20
-3197.724954130656
 10
41353.7459869426
 20
-3194.940609852856
 10
41370.46865873001
 20
-3191.393344789856
 10
41386.0452765711
 20
-3186.855601615556
 10
41400.4420747938
 20
-3181.053870074356
 10
41413.46398010051
 20
-3173.705421996756
 10
41424.8582123943
 20
-3164.462332865156
 10
41434.2503714005
 20
-3153.177500791956
 10
41441.7332789729
 20
-3140.211572340056
 10
41447.63580200541
 20
-3125.859933038156
 10
41452.23961520721
 20
-3110.362782019756
 10
41455.8395179241
 20
-3093.714564305456
 10
41458.6785250758
 20
-3075.958520906855
 10
41460.86631343981
 20
-3056.988771214355
 10
41462.2472281156
 20
-3037.006804164855
  0
LWPOLYLINE
  5
5E7
330
2
100
AcDbEntity
  8
0
  6
Continuous
 62
     7
100
AcDbPolyline
 90
       19
 70
     0
 43
0.0
 10
41462.70808170511
 20
-3016.527950328856
 10
41462.23975194391
 20
-2996.060099564456
 10
41460.85359880511
 20
-2976.104107797056
 10
41458.6638776399
 20
-2957.165126137756
 10
41455.82436086381
 20
-2939.433196129556
 10
41452.2239022132
 20
-2922.804799382256
 10
41447.6201820948
 20
-2907.324986494956
 10
41441.7193735973
 20
-2892.989513856655
 10
41434.24026525891
 20
-2880.037569470856
 10
41424.85333951671
 20
-2868.762621404456
 10
41413.4668748629
 20
-2859.526280791256
 10
41400.4525195881
 20
-2852.180846430755
 10
41386.06338446891
 20
-2846.380341216955
 10
41370.495149982
 20
-2841.842977805955
 10
41353.78202517911
 20
-2838.295685238655
 10
41336.0764115959
 20
-2835.511065790555
 10
41317.34434994201
 20
-2833.388906021556
 10
41297.5672898631
 20
-2832.051713956056
 10
41277.7080898642
 20
-2831.614879733256
  0
LINE
  5
5E8
330
2
100
AcDbEntity
  8
0
  6
Continuous
 62
     7
100
AcDbLine
 10
41462.2472281156
 20
-3037.006804164855
 30
0.0
 11
41462.70808170511
 21
-3016.527950328856
 31
0.0
  0
LWPOLYLINE
  5
5E9
330
2
100
AcDbEntity
  8
0
  6
Continuous
 62
     7
100
AcDbPolyline
 90
       18
 70
     0
 43
0.0
 10
41277.7080898642
 20
-2831.614879733256
 10
41257.91942534561
 20
-2832.048581700656
 10
41238.12942980291
 20
-2833.383670020055
 10
41219.385956464
 20
-2835.504805335856
 10
41201.6701927858
 20
-2838.289149613656
 10
41184.94752099841
 20
-2841.836414676556
 10
41169.37090315741
 20
-2846.374157850856
 10
41154.9741049346
 20
-2852.175889392156
 10
41141.9521996279
 20
-2859.524337469656
 10
41130.5579673341
 20
-2868.767426601356
 10
41121.16580832791
 20
-2880.052258674556
 10
41113.6829007555
 20
-2893.018187126456
 10
41107.78037772311
 20
-2907.369826428256
 10
41103.17656452121
 20
-2922.866977446656
 10
41099.5766618043
 20
-2939.515195161056
 10
41096.7376546527
 20
-2957.271238559656
 10
41094.5498662886
 20
-2976.240988252156
 10
41093.1689516128
 20
-2996.222955301656
  0
LINE
  5
5EA
330
2
100
AcDbEntity
  8
0
  6
Continuous
 62
     7
100
AcDbLine
 10
41766.43928778961
 20
-2755.262072126056
 30
0.0
 11
41703.6168427818
 21
-2755.262072126056
 31
0.0
  0
LINE
  5
5EC
330
2
100
AcDbEntity
  8
0
  6
Continuous
 62
     7
100
AcDbLine
 10
41840.02806528571
 20
-2742.262072126056
 30
0.0
 11
41630.02806528571
 21
-2742.262072126056
 31
0.0
  0
LINE
  5
5ED
330
2
100
AcDbEntity
  8
0
  6
Continuous
 62
     7
100
AcDbLine
 10
41699.5502419823
 20
-2750.866097735256
 30
0.0
 11
41699.6402649295
 21
-2751.694308849156
 31
0.0
  0
LINE
  5
5EE
330
2
100
AcDbEntity
  8
0
  6
Continuous
 62
     7
100
AcDbLine
 10
41770.50588861461
 20
-2750.866097499856
 30
0.0
 11
41770.41586564191
 21
-2751.694308849156
 31
0.0
  0
LINE
  5
5EF
330
2
100
AcDbEntity
  8
0
  6
Continuous
 62
     7
100
AcDbLine
 10
41553.52753581101
 20
-2622.262072166156
 30
0.0
 11
41916.5285947604
 21
-2622.262072166156
 31
0.0
  0
LINE
  5
5F0
330
2
100
AcDbEntity
  8
0
  6
Continuous
 62
     7
100
AcDbLine
 10
41553.5279354417
 20
-2622.262072128456
 30
0.0
 11
41553.52753581101
 21
-2622.262072166156
 31
0.0
  0
LINE
  5
5F1
330
2
100
AcDbEntity
  8
0
  6
Continuous
 62
     7
100
AcDbLine
 10
41916.5281951297
 20
-2622.262072128456
 30
0.0
 11
41916.5285947604
 21
-2622.262072166156
 31
0.0
  0
LINE
  5
5F2
330
2
100
AcDbEntity
  8
0
  6
Continuous
 62
     7
100
AcDbLine
 10
41916.5281951297
 20
-2622.262072128456
 30
0.0
 11
41553.5279354417
 21
-2622.262072128456
 31
0.0
  0
ARC
  5
5F3
330
2
100
AcDbEntity
  8
0
  6
Continuous
 62
     7
100
AcDbCircle
 10
41309.1193123681
 20
-2751.262072126056
 30
0.0
 40
4.0
100
AcDbArc
 50
270.0
 51
353.7965520982881
  0
ARC
  5
5F4
330
2
100
AcDbEntity
  8
0
  6
Continuous
 62
     7
100
AcDbCircle
 10
41246.29686736031
 20
-2751.262072126056
 30
0.0
 40
4.0
100
AcDbArc
 50
186.2034479017118
 51
270.0
  0
CIRCLE
  5
5F5
330
2
100
AcDbEntity
  8
0
  6
Continuous
 62
     7
100
AcDbCircle
 10
41277.7080898642
 20
-3016.614879733256
 30
0.0
 40
34.0
  0
CIRCLE
  5
5F6
330
2
100
AcDbEntity
  8
0
  6
Continuous
 62
     7
100
AcDbCircle
 10
41277.7080898642
 20
-3016.614879733256
 30
0.0
 40
22.25
  0
ARC
  5
5F7
330
2
100
AcDbEntity
  8
0
  6
Continuous
 62
     7
100
AcDbCircle
 10
41755.0595315658
 20
-23625.82335508666
 30
0.0
 40
20886.5699295858
100
AcDbArc
 50
89.8609144389043
 51
89.9886767994287
  0
ARC
  5
5F8
330
2
100
AcDbEntity
  8
0
  6
Continuous
 62
     7
100
AcDbCircle
 10
41780.44730675761
 20
-2751.946689143456
 30
0.0
 40
9.9999942282
100
AcDbArc
 50
102.09768321047
 51
173.796536633426
  0
ARC
  5
5F9
330
2
100
AcDbEntity
  8
0
  6
Continuous
 62
     7
100
AcDbCircle
 10
41689.60882499491
 20
-2751.946688743356
 30
0.0
 40
9.999993960899999
100
AcDbArc
 50
6.203460462230736
 51
77.90231340345676
  0
ARC
  5
5FA
330
2
100
AcDbEntity
  8
0
  6
Continuous
 62
     7
100
AcDbCircle
 10
41766.43928778961
 20
-2751.262072126056
 30
0.0
 40
4.0
100
AcDbArc
 50
270.0
 51
353.7965520943834
  0
ARC
  5
5FB
330
2
100
AcDbEntity
  8
0
  6
Continuous
 62
     7
100
AcDbCircle
 10
41703.6168427818
 20
-2751.262072126056
 30
0.0
 40
4.0
100
AcDbArc
 50
186.2034479048137
 51
270.0
  0
ARC
  5
5FC
330
2
100
AcDbEntity
  8
0
  6
Continuous
 62
     7
100
AcDbCircle
 10
41843.9742275139
 20
-2742.916142537256
 30
0.0
 40
3.999999942699999
100
AcDbArc
 50
113.6026579630396
 51
170.5888714949217
  0
ARC
  5
5FD
330
2
100
AcDbEntity
  8
0
  6
Continuous
 62
     7
100
AcDbCircle
 10
41626.08190305761
 20
-2742.916142537256
 30
0.0
 40
3.999999942699999
100
AcDbArc
 50
9.411128505078272
 51
66.39734203696031
  0
ARC
  5
5FE
330
2
100
AcDbEntity
  8
0
  6
Continuous
 62
     7
100
AcDbCircle
 10
41916.52806528571
 20
-2625.762072126056
 30
0.0
 40
3.5
100
AcDbArc
 50
355.0828996644922
 51
89.99133238152095
  0
ARC
  5
5FF
330
2
100
AcDbEntity
  8
0
  6
Continuous
 62
     7
100
AcDbCircle
 10
41553.52806528571
 20
-2625.762072126056
 30
0.0
 40
3.5
100
AcDbArc
 50
90.00866761847902
 51
184.9171003355077
  0
SPLINE
  5
601
330
2
100
AcDbEntity
  8
0
  6
Continuous
 62
     7
100
AcDbSpline
210
0.0
220
0.0
230
1.0
 70
     8
 71
     3
 72
    11
 73
     7
 74
     0
 42
0.0000000001
 43
0.0000000001
 40
0.0
 40
0.0
 40
0.0
 40
0.0
 40
0.2683792105
 40
0.5341463992000001
 40
0.7892628730000001
 40
1.0
 40
1.0
 40
1.0
 40
1.0
 10
41277.7080898642
 20
-2739.250766062056
 30
0.0
 10
41269.7523012252
 20
-2739.250651769256
 30
0.0
 10
41253.91815641171
 20
-2739.250952702656
 30
0.0
 10
41230.52137071731
 20
-2739.266140589956
 30
0.0
 10
41208.8333891902
 20
-2739.305971548356
 30
0.0
 10
41195.0236955917
 20
-2739.348982452156
 30
0.0
 10
41188.77665056831
 20
-2739.337106372056
 30
0.0
  0
SPLINE
  5
602
330
2
100
AcDbEntity
  8
0
  6
Continuous
 62
     7
100
AcDbSpline
210
0.0
220
0.0
230
1.0
 70
     8
 71
     3
 72
     9
 73
     5
 74
     0
 42
0.0000000001
 43
0.0000000001
 40
0.0
 40
0.0
 40
0.0
 40
0.0
 40
0.2596894357
 40
1.0
 40
1.0
 40
1.0
 40
1.0
 10
41188.77665056831
 20
-2739.337106372056
 30
0.0
 10
41188.5793942555
 20
-2739.336731373656
 30
0.0
 10
41187.81980904181
 20
-2739.335172906856
 30
0.0
 10
41187.0602247054
 20
-2739.333191062355
 30
0.0
 10
41186.4978971166
 20
-2739.331497934456
 30
0.0
  0
LINE
  5
603
330
2
100
AcDbEntity
  8
0
  6
Continuous
 62
     7
100
AcDbLine
 10
41186.4978971166
 20
-2739.331497934456
 30
0.0
 11
41170.3557184949
 21
-2739.250842030156
 31
0.0
  0
LINE
  5
604
330
2
100
AcDbEntity
  8
0
  6
Continuous
 62
     7
100
AcDbLine
 10
41385.06046122101
 20
-2739.250842027056
 30
0.0
 11
41368.92610156301
 21
-2739.331480773156
 31
0.0
  0
SPLINE
  5
605
330
2
100
AcDbEntity
  8
0
  6
Continuous
 62
     7
100
AcDbSpline
210
0.0
220
0.0
230
1.0
 70
     8
 71
     3
 72
     9
 73
     5
 74
     0
 42
0.0000000001
 43
0.0000000001
 40
0.0
 40
0.0
 40
0.0
 40
0.0
 40
0.2402988864
 40
1.0
 40
1.0
 40
1.0
 40
1.0
 10
41368.92610156301
 20
-2739.331480773156
 30
0.0
 10
41368.74188972541
 20
-2739.332035114256
 30
0.0
 10
41367.9752947861
 20
-2739.334240041956
 30
0.0
 10
41367.2086986106
 20
-2739.336018105856
 30
0.0
 10
41366.62631420921
 20
-2739.337115968556
 30
0.0
  0
SPLINE
  5
606
330
2
100
AcDbEntity
  8
0
  6
Continuous
 62
     7
100
AcDbSpline
210
0.0
220
0.0
230
1.0
 70
     8
 71
     3
 72
    11
 73
     7
 74
     0
 42
0.0000000001
 43
0.0000000001
 40
0.0
 40
0.0
 40
0.0
 40
0.0
 40
0.2107793294
 40
0.4658884885
 40
0.7316381823999999
 40
1.0
 40
1.0
 40
1.0
 40
1.0
 10
41366.62631420921
 20
-2739.337115968556
 30
0.0
 10
41360.3789464342
 20
-2739.348892988056
 30
0.0
 10
41346.57027124281
 20
-2739.305966045756
 30
0.0
 10
41324.8849967791
 20
-2739.266099231956
 30
0.0
 10
41301.492938662
 20
-2739.250935588956
 30
0.0
 10
41285.6621807868
 20
-2739.250653721056
 30
0.0
 10
41277.7080898642
 20
-2739.250766062056
 30
0.0
  0
SPLINE
  5
608
330
2
100
AcDbEntity
  8
0
  6
Continuous
 62
     7
100
AcDbSpline
210
0.0
220
0.0
230
1.0
 70
     8
 71
     3
 72
    39
 73
    35
 74
     0
 42
0.0000000001
 43
0.0000000001
 40
0.0
 40
0.0
 40
0.0
 40
0.0
 40
0.031273378
 40
0.0625472683
 40
0.0938222448
 40
0.1250979588
 40
0.1563727276
 40
0.1876426793
 40
0.2189018999
 40
0.2501053753
 40
0.2813085362
 40
0.3125661281
 40
0.343832706
 40
0.3751028942
 40
0.4063726366
 40
0.4376403011
 40
0.4689045597
 40
0.5001690641
 40
0.5314309750000001
 40
0.5626878655
 40
0.5939438999000001
 40
0.6251982002
 40
0.6564495608
 40
0.6876946612000001
 40
0.7189280235
 40
0.7501053067
 40
0.7812822767000001
 40
0.8125140174
 40
0.8437557557999999
 40
0.8750025516999999
 40
0.9062509015000001
 40
0.9374996732999999
 40
0.9687490187999999
 40
1.0
 40
1.0
 40
1.0
 40
1.0
 10
41277.7080898642
 20
-2838.497175629256
 30
0.0
 10
41283.9603831051
 20
-2838.497175629256
 30
0.0
 10
41296.4667479371
 20
-2838.756744250355
 30
0.0
 10
41315.19146250591
 20
-2839.962858516156
 30
0.0
 10
41333.84172700511
 20
-2842.023426174455
 30
0.0
 10
41352.38926176231
 20
-2844.864777949455
 30
0.0
 10
41370.76105471161
 20
-2848.717668359555
 30
0.0
 10
41388.73187291521
 20
-2854.211129400656
 30
0.0
 10
41405.8260799843
 20
-2862.071905473156
 30
0.0
 10
41421.0440339824
 20
-2873.370039394656
 30
0.0
 10
41432.31369971281
 20
-2888.607700098156
 30
0.0
 10
41440.15526430591
 20
-2905.708776753756
 30
0.0
 10
41445.63521914371
 20
-2923.681571800156
 30
0.0
 10
41449.47924485681
 20
-2942.052255175556
 30
0.0
 10
41452.3146068093
 20
-2960.597094774256
 30
0.0
 10
41454.36987577721
 20
-2979.243256022556
 30
0.0
 10
41455.5707242059
 20
-2997.963418660655
 30
0.0
 10
41455.95544545161
 20
-3016.715943583756
 30
0.0
 10
41455.5622112176
 20
-3035.466826505556
 30
0.0
 10
41454.35258976231
 20
-3054.182094472555
 30
0.0
 10
41452.28987582231
 20
-3072.820491905055
 30
0.0
 10
41449.44753981491
 20
-3091.354999722756
 30
0.0
 10
41445.59371386381
 20
-3109.712370758956
 30
0.0
 10
41440.1003665345
 20
-3127.667703250456
 30
0.0
 10
41432.2422237544
 20
-3144.746111067856
 30
0.0
 10
41420.9518505962
 20
-3159.949679374356
 30
0.0
 10
41405.7285993236
 20
-3171.211631209256
 30
0.0
 10
41388.6433166713
 20
-3179.050574905556
 30
0.0
 10
41370.6860073507
 20
-3184.530444750356
 30
0.0
 10
41352.3297146634
 20
-3188.375364422256
 30
0.0
 10
41333.79793485651
 20
-3191.211771619956
 30
0.0
 10
41315.1630520513
 20
-3193.269200495556
 30
0.0
 10
41296.45288123811
 20
-3194.473422703155
 30
0.0
 10
41283.955905453
 20
-3194.732583837256
 30
0.0
 10
41277.7080898642
 20
-3194.732583837256
 30
0.0
  0
SPLINE
  5
609
330
2
100
AcDbEntity
  8
0
  6
Continuous
 62
     7
100
AcDbSpline
210
0.0
220
0.0
230
1.0
 70
     8
 71
     3
 72
    43
 73
    39
 74
     0
 42
0.0000000001
 43
0.0000000001
 40
0.0
 40
0.0
 40
0.0
 40
0.0
 40
0.0312432556
 40
0.0624848806
 40
0.0937259327
 40
0.1249665641
 40
0.1562056238
 40
0.1874396768
 40
0.2186636789
 40
0.234280076
 40
0.2498945251
 40
0.2655090282
 40
0.2811259296
 40
0.3123515972
 40
0.3435889431
 40
0.3748325977
 40
0.4060791729
 40
0.4373274837
 40
0.4685766515
 40
0.4998308413000001
 40
0.5310876175
 40
0.5623441507
 40
0.5936040902000001
 40
0.624866109
 40
0.656128555
 40
0.6873874413
 40
0.7186372881000001
 40
0.7342668183
 40
0.7498944561
 40
0.7655221483
 40
0.7811521845
 40
0.8124037037999999
 40
0.8436658949999999
 40
0.8749329518999999
 40
0.9062009354999998
 40
0.937468183
 40
0.9687343453
 40
1.0
 40
1.0
 40
1.0
 40
1.0
 10
41277.7080898642
 20
-3194.732583834056
 30
0.0
 10
41271.4602750646
 20
-3194.732583834056
 30
0.0
 10
41258.9632930576
 20
-3194.473386719756
 30
0.0
 10
41240.2531564462
 20
-3193.269183929956
 30
0.0
 10
41221.61814377631
 20
-3191.211789967056
 30
0.0
 10
41203.086813842
 20
-3188.375535098055
 30
0.0
 10
41184.7289876001
 20
-3184.529122740956
 30
0.0
 10
41166.77733064061
 20
-3179.055145950056
 30
0.0
 10
41152.5123253656
 20
-3172.500851177556
 30
0.0
 10
41142.0791295428
 20
-3165.589260235856
 30
0.0
 10
41134.9569884315
 20
-3159.456042773556
 30
0.0
 10
41128.8098171202
 20
-3152.345628316956
 30
0.0
 10
41121.8823270483
 20
-3141.922233737656
 30
0.0
 10
41115.3113532162
 20
-3127.663241617356
 30
0.0
 10
41109.8235663781
 20
-3109.713578786856
 30
0.0
 10
41105.9681610858
 20
-3091.354707093456
 30
0.0
 10
41103.1264995506
 20
-3072.820561741956
 30
0.0
 10
41101.063525207
 20
-3054.182076765556
 30
0.0
 10
41099.8539196473
 20
-3035.466834396956
 30
0.0
 10
41099.4607305989
 20
-3016.715944638056
 30
0.0
 10
41099.8455173341
 20
-2997.963415042855
 30
0.0
 10
41101.04632345911
 20
-2979.243284320156
 30
0.0
 10
41103.1015503724
 20
-2960.596992513656
 30
0.0
 10
41105.93676308901
 20
-2942.052604551556
 30
0.0
 10
41109.7822844554
 20
-2923.680383228756
 30
0.0
 10
41115.25633472401
 20
-2905.713257768756
 30
0.0
 10
41121.81283418181
 20
-2891.435081755756
 30
0.0
 10
41128.72864588471
 20
-2880.992106800256
 30
0.0
 10
41134.86661913531
 20
-2873.863533002356
 30
0.0
 10
41141.9834501005
 20
-2867.711584343956
 30
0.0
 10
41152.41661491601
 20
-2860.779850543755
 30
0.0
 10
41166.68878109011
 20
-2854.206658163056
 30
0.0
 10
41184.6539132197
 20
-2848.718770521956
 30
0.0
 10
41203.0272113681
 20
-2844.864298633156
 30
0.0
 10
41221.57438166211
 20
-2842.023618498356
 30
0.0
 10
41240.2247348167
 20
-2839.962795274756
 30
0.0
 10
41258.9494239793
 20
-2838.756721598656
 30
0.0
 10
41271.45579583451
 20
-2838.497175632456
 30
0.0
 10
41277.7080898642
 20
-2838.497175632456
 30
0.0
  0
SPLINE
  5
60C
330
2
100
AcDbEntity
  8
0
  6
Continuous
 62
     7
100
AcDbSpline
210
0.0
220
0.0
230
1.0
 70
     8
 71
     3
 72
    20
 73
    16
 74
     0
 42
0.0000000001
 43
0.0000000001
 40
0.0
 40
0.0
 40
0.0
 40
0.0
 40
0.1249736393
 40
0.1874692447
 40
0.2499522147
 40
0.3124425714
 40
0.3749432186
 40
0.4374362767
 40
0.4999157333000001
 40
0.5623976321999999
 40
0.6249039612000001
 40
0.6873932491
 40
0.7498951771
 40
0.8749239073999998
 40
1.0
 40
1.0
 40
1.0
 40
1.0
 10
41550.04094613091
 20
-2626.062072126056
 30
0.0
 10
41550.57163736681
 20
-2632.230684039556
 30
0.0
 10
41551.3741407588
 20
-2641.484029797456
 30
0.0
 10
41552.72433126841
 20
-2653.794343486756
 30
0.0
 10
41554.024172266
 20
-2662.992448222656
 30
0.0
 10
41555.7511451618
 20
-2672.123985197956
 30
0.0
 10
41558.2395783893
 20
-2681.090439709556
 30
0.0
 10
41561.8791850014
 20
-2689.674435946356
 30
0.0
 10
41566.8874629928
 20
-2697.547726032456
 30
0.0
 10
41573.0529553304
 20
-2704.530743501156
 30
0.0
 10
41579.92472722511
 20
-2710.795630900955
 30
0.0
 10
41587.2344657663
 20
-2716.538203668355
 30
0.0
 10
41597.4293529175
 20
-2723.583157957456
 30
0.0
 10
41610.81835133741
 20
-2731.413055145856
 30
0.0
 10
41622.0053664455
 20
-2736.769751587156
 30
0.0
 10
41627.68346916161
 20
-2739.250766062056
 30
0.0
  0
SPLINE
  5
60D
330
2
100
AcDbEntity
  8
0
  6
Continuous
 62
     7
100
AcDbSpline
210
0.0
220
0.0
230
1.0
 70
     8
 71
     3
 72
    20
 73
    16
 74
     0
 42
0.0000000001
 43
0.0000000001
 40
0.0
 40
0.0
 40
0.0
 40
0.0
 40
0.1249736393
 40
0.1874692447
 40
0.2499522147
 40
0.3124425714
 40
0.3749432186
 40
0.4374362767
 40
0.4999157333000001
 40
0.5623976321999999
 40
0.6249039612000001
 40
0.6873932491
 40
0.7498951771
 40
0.8749239073999998
 40
1.0
 40
1.0
 40
1.0
 40
1.0
 10
41920.0151844405
 20
-2626.062072126056
 30
0.0
 10
41919.4844932046
 20
-2632.230684039556
 30
0.0
 10
41918.6819898126
 20
-2641.484029797456
 30
0.0
 10
41917.3317993031
 20
-2653.794343486756
 30
0.0
 10
41916.0319583054
 20
-2662.992448222656
 30
0.0
 10
41914.3049854096
 20
-2672.123985197956
 30
0.0
 10
41911.8165521821
 20
-2681.090439709556
 30
0.0
 10
41908.17694557
 20
-2689.674435946356
 30
0.0
 10
41903.1686675787
 20
-2697.547726032456
 30
0.0
 10
41897.003175241
 20
-2704.530743501156
 30
0.0
 10
41890.1314033464
 20
-2710.795630900955
 30
0.0
 10
41882.82166480511
 20
-2716.538203668355
 30
0.0
 10
41872.6267776539
 20
-2723.583157957456
 30
0.0
 10
41859.23777923401
 20
-2731.413055145856
 30
0.0
 10
41848.0507641259
 20
-2736.769751587156
 30
0.0
 10
41842.3726614098
 20
-2739.250766062056
 30
0.0
  0
LINE
  5
60E
330
2
100
AcDbEntity
  8
0
  6
Continuous
 62
     7
100
AcDbLine
 10
41842.3726614098
 20
-2739.250766062056
 30
0.0
 11
41826.2473649298
 21
-2739.331488337856
 31
0.0
  0
SPLINE
  5
60F
330
2
100
AcDbEntity
  8
0
  6
Continuous
 62
     7
100
AcDbSpline
210
0.0
220
0.0
230
1.0
 70
     8
 71
     3
 72
     9
 73
     5
 74
     0
 42
0.0000000001
 43
0.0000000001
 40
0.0
 40
0.0
 40
0.0
 40
0.0
 40
0.2404356518
 40
1.0
 40
1.0
 40
1.0
 40
1.0
 10
41826.2473649298
 20
-2739.331488337856
 30
0.0
 10
41826.06598479811
 20
-2739.332035761656
 30
0.0
 10
41825.3116033164
 20
-2739.334212498856
 30
0.0
 10
41824.5572205997
 20
-2739.335964098556
 30
0.0
 10
41823.9842179543
 20
-2739.337043502756
 30
0.0
  0
LINE
  5
610
330
2
100
AcDbEntity
  8
0
  6
Continuous
 62
     7
100
AcDbLine
 10
41823.9842179543
 20
-2739.337043502756
 30
0.0
 11
41823.9074052088
 21
-2739.337186701656
 31
0.0
  0
SPLINE
  5
611
330
2
100
AcDbEntity
  8
0
  6
Continuous
 62
     7
100
AcDbSpline
210
0.0
220
0.0
230
1.0
 70
     8
 71
     3
 72
     9
 73
     5
 74
     0
 42
0.0000000001
 43
0.0000000001
 40
0.0
 40
0.0
 40
0.0
 40
0.0
 40
0.2132632144
 40
1.0
 40
1.0
 40
1.0
 40
1.0
 10
41823.9074052088
 20
-2739.337186701656
 30
0.0
 10
41822.61746503471
 20
-2739.339566316856
 30
0.0
 10
41816.5688686577
 20
-2739.344264194756
 30
0.0
 10
41810.5202882256
 20
-2739.326136358356
 30
0.0
 10
41805.76165078631
 20
-2739.314965253256
 30
0.0
  0
LINE
  5
612
330
2
100
AcDbEntity
  8
0
  6
Continuous
 62
     7
100
AcDbLine
 10
41759.1872844337
 20
-2739.253833378856
 30
0.0
 11
41758.09204956451
 21
-2739.253394074456
 31
0.0
  0
SPLINE
  5
613
330
2
100
AcDbEntity
  8
0
  6
Continuous
 62
     7
100
AcDbSpline
210
0.0
220
0.0
230
1.0
 70
     8
 71
     3
 72
     9
 73
     5
 74
     0
 42
0.0000000001
 43
0.0000000001
 40
0.0
 40
0.0
 40
0.0
 40
0.0
 40
0.2498146439
 40
1.0
 40
1.0
 40
1.0
 40
1.0
 10
41758.09204956451
 20
-2739.253394074456
 30
0.0
 10
41754.2111876731
 20
-2739.251923381756
 30
0.0
 10
41738.67622097671
 20
-2739.250327465356
 30
0.0
 10
41723.14125340771
 20
-2739.248906911956
 30
0.0
 10
41711.4871498086
 20
-2739.253528111256
 30
0.0
  0
LINE
  5
614
330
2
100
AcDbEntity
  8
0
  6
Continuous
 62
     7
100
AcDbLine
 10
41711.4871498086
 20
-2739.253528111256
 30
0.0
 11
41710.86998240951
 21
-2739.253781037356
 31
0.0
  0
SPLINE
  5
615
330
2
100
AcDbEntity
  8
0
  6
Continuous
 62
     7
100
AcDbSpline
210
0.0
220
0.0
230
1.0
 70
     8
 71
     3
 72
    10
 73
     6
 74
     0
 42
0.0000000001
 43
0.0000000001
 40
0.0
 40
0.0
 40
0.0
 40
0.0
 40
0.5409216852000001
 40
0.7928500999
 40
1.0
 40
1.0
 40
1.0
 40
1.0
 10
41710.86998240951
 20
-2739.253781037356
 30
0.0
 10
41699.19657640501
 20
-2739.258717918556
 30
0.0
 10
41682.08639117441
 20
-2739.271979365156
 30
0.0
 10
41660.5058904708
 20
-2739.324683893056
 30
0.0
 10
41650.59869535291
 20
-2739.345502794956
 30
0.0
 10
41646.1282868723
 20
-2739.337155805056
 30
0.0
  0
LINE
  5
616
330
2
100
AcDbEntity
  8
0
  6
Continuous
 62
     7
100
AcDbLine
 10
41646.1282868723
 20
-2739.337155805056
 30
0.0
 11
41645.77638758441
 21
-2739.336467559656
 31
0.0
  0
SPLINE
  5
617
330
2
100
AcDbEntity
  8
0
  6
Continuous
 62
     7
100
AcDbSpline
210
0.0
220
0.0
230
1.0
 70
     8
 71
     3
 72
     9
 73
     5
 74
     0
 42
0.0000000001
 43
0.0000000001
 40
0.0
 40
0.0
 40
0.0
 40
0.0
 40
0.2584587051
 40
1.0
 40
1.0
 40
1.0
 40
1.0
 10
41645.77638758441
 20
-2739.336467559656
 30
0.0
 10
41645.60703989231
 20
-2739.336121376856
 30
0.0
 10
41644.9518185965
 20
-2739.334698614256
 30
0.0
 10
41644.2965980061
 20
-2739.332953383456
 30
0.0
 10
41643.81072542841
 20
-2739.331486790256
 30
0.0
  0
LINE
  5
618
330
2
100
AcDbEntity
  8
0
  6
Continuous
 62
     7
100
AcDbLine
 10
41643.81072542841
 20
-2739.331486790256
 30
0.0
 11
41627.6834690425
 21
-2739.250765928356
 31
0.0
  0
ENDSEC
  0
SECTION
  2
OBJECTS
  0
DICTIONARY
  5
9
330
0
100
AcDbDictionary
281
     1
  3
ACAD_COLOR
350
32
  3
ACAD_GROUP
350
2D
  3
ACAD_LAYOUT
350
F
  3
ACAD_MATERIAL
350
B
  3
ACAD_MLEADERSTYLE
350
66A
  3
ACAD_MLINESTYLE
350
2E
  3
ACAD_PLOTSETTINGS
350
2F
  3
ACAD_PLOTSTYLENAME
350
8
  3
ACAD_SCALELIST
350
648
  3
ACAD_TABLESTYLE
350
33
  3
ACAD_VISUALSTYLE
350
26
  3
ACDB_RECOMPOSE_DATA
350
678
  3
ACDBHEADERROUNDTRIPXREC
350
672
  3
AcDbVariableDictionary
350
BD
  0
DICTIONARY
  5
16
330
15
100
AcDbDictionary
280
     1
281
     1
  3
ACAD_LAYERFILTERS
360
17
  3
ACAD_LAYERSTATES
360
18
  3
ACLYDICTIONARY
360
19
  0
DICTIONARY
  5
3
330
2
100
AcDbDictionary
280
     1
281
     1
  3
ACAD_SORTENTS
360
BB
  0
DICTIONARY
  5
32
102
{ACAD_REACTORS
330
9
102
}
330
9
100
AcDbDictionary
281
     1
  0
DICTIONARY
  5
2D
102
{ACAD_REACTORS
330
9
102
}
330
9
100
AcDbDictionary
281
     1
  0
DICTIONARY
  5
F
102
{ACAD_REACTORS
330
9
102
}
330
9
100
AcDbDictionary
281
     1
  3
Model
350
E
  3
布局1
350
14
  0
DICTIONARY
  5
B
102
{ACAD_REACTORS
330
9
102
}
330
9
100
AcDbDictionary
281
     1
  3
ByBlock
350
31
  3
ByLayer
350
30
  3
Global
350
A
  0
DICTIONARY
  5
66A
102
{ACAD_REACTORS
330
9
102
}
330
9
100
AcDbDictionary
281
     1
  3
Standard
350
66B
  0
DICTIONARY
  5
2E
102
{ACAD_REACTORS
330
9
102
}
330
9
100
AcDbDictionary
281
     1
  3
Standard
350
36
  0
DICTIONARY
  5
2F
102
{ACAD_REACTORS
330
9
102
}
330
9
100
AcDbDictionary
281
     1
  0
ACDBDICTIONARYWDFLT
  5
8
102
{ACAD_REACTORS
330
9
102
}
330
9
100
AcDbDictionary
281
     1
  3
Normal
350
7
100
AcDbDictionaryWithDefault
340
7
  0
DICTIONARY
  5
648
102
{ACAD_REACTORS
330
9
102
}
330
9
100
AcDbDictionary
281
     1
  3
A0
350
649
  3
A1
350
64A
  3
A2
350
64B
  3
A3
350
64C
  3
A4
350
64D
  3
A5
350
64E
  3
A6
350
64F
  3
A7
350
650
  3
A8
350
651
  3
A9
350
652
  3
B0
350
653
  3
B1
350
654
  3
B2
350
655
  3
B3
350
656
  3
B4
350
657
  3
B5
350
658
  3
B6
350
659
  3
B7
350
65A
  3
B8
350
65B
  3
B9
350
65C
  3
C0
350
65D
  3
C1
350
65E
  3
C2
350
65F
  3
C3
350
660
  3
C4
350
661
  3
C5
350
662
  3
C6
350
663
  3
C7
350
664
  3
C8
350
665
  3
C9
350
666
  3
D0
350
667
  3
D1
350
668
  3
D2
350
669
  0
DICTIONARY
  5
33
102
{ACAD_REACTORS
330
9
102
}
330
9
100
AcDbDictionary
281
     1
  3
Standard
350
37
  0
DICTIONARY
  5
26
102
{ACAD_REACTORS
330
9
102
}
330
9
100
AcDbDictionary
281
     1
  3
2dWireframe
350
25
  3
3D Hidden
350
C6
  3
3dWireframe
350
39
  3
Basic
350
C5
  3
Brighten
350
C9
  3
ColorChange
350
CD
  3
Conceptual
350
C7
  3
Dim
350
C8
  3
Facepattern
350
CC
  3
Flat
350
C1
  3
FlatWithEdges
350
C2
  3
Gouraud
350
C3
  3
GouraudWithEdges
350
C4
  3
Linepattern
350
CB
  3
Realistic
350
38
  3
Thicken
350
CA
  0
XRECORD
  5
678
102
{ACAD_REACTORS
330
9
102
}
330
9
100
AcDbXrecord
280
     1
 90
        1
330
37
  0
DICTIONARY
  5
672
102
{ACAD_REACTORS
330
9
102
}
330
9
100
AcDbDictionary
281
     1
  0
DICTIONARY
  5
BD
102
{ACAD_REACTORS
330
9
102
}
330
9
100
AcDbDictionary
281
     1
  3
CMLEADERSTYLE
350
670
  3
CTABLESTYLE
350
BE
  3
FIELDEVAL
350
BF
  0
DICTIONARY
  5
17
102
{ACAD_REACTORS
330
16
102
}
330
16
100
AcDbDictionary
281
     1
  0
DICTIONARY
  5
18
102
{ACAD_REACTORS
330
16
102
}
330
16
100
AcDbDictionary
281
     1
  0
DICTIONARY
  5
19
102
{ACAD_REACTORS
330
16
102
}
330
16
100
AcDbDictionary
281
     1
1001
ACAD
1000
<All
  0
SORTENTSTABLE
  5
BB
102
{ACAD_REACTORS
330
3
102
}
330
3
100
AcDbSortentsTable
330
2
331
B9
  5
B9
  0
LAYOUT
  5
E
102
{ACAD_REACTORS
330
F
102
}
330
F
100
AcDbPlotSettings
  1

  2
none_device
  4
ISO_A4_(210.00_x_297.00_MM)
  6

 40
7.5
 41
20.0
 42
7.5
 43
20.0
 44
210.0
 45
297.0
 46
11.54999923706054
 47
-13.65000009536743
 48
0.0
 49
0.0
140
0.0
141
0.0
142
1.0
143
8.704084754739808
 70
 11952
 72
     1
 73
     0
 74
     0
  7
acad.ctb
 75
     0
147
0.1148885871608098
 76
     0
 77
     2
 78
   300
148
0.0
149
0.0
100
AcDbLayout
  1
Model
 70
     1
 71
     0
 10
0.0
 20
0.0
 11
12.0
 21
9.0
 12
0.0
 22
0.0
 32
0.0
 14
0.0
 24
0.0
 34
0.0
 15
0.0
 25
0.0
 35
0.0
146
0.0
 13
0.0
 23
0.0
 33
0.0
 16
1.0
 26
0.0
 36
0.0
 17
0.0
 27
1.0
 37
0.0
 76
     0
330
2
331
24
1001
ACAD_PSEXT
1000
None
1000
None
1000
Not applicable
1000
The layout will not be plotted unless a new plotter configuration name is selected.
1070
     0
  0
LAYOUT
  5
14
102
{ACAD_REACTORS
330
F
102
}
330
F
100
AcDbPlotSettings
  1

  2
C:\Documents and Settings\basas\Application Data\Autodesk\AutoCAD 2005\R16.1\enu\plotters\Default Windows System Printer.pc3
  4

  6

 40
0.0
 41
0.0
 42
0.0
 43
0.0
 44
0.0
 45
0.0
 46
0.0
 47
0.0
 48
0.0
 49
0.0
140
0.0
141
0.0
142
1.0
143
1.0
 70
   688
 72
     0
 73
     0
 74
     5
  7
acad.ctb
 75
    16
147
1.0
 76
     0
 77
     2
 78
   300
148
0.0
149
0.0
100
AcDbLayout
  1
布局1
 70
     1
 71
     1
 10
0.0
 20
0.0
 11
12.0
 21
9.0
 12
0.0
 22
0.0
 32
0.0
 14
0.0
 24
0.0
 34
0.0
 15
0.0
 25
0.0
 35
0.0
146
0.0
 13
0.0
 23
0.0
 33
0.0
 16
1.0
 26
0.0
 36
0.0
 17
0.0
 27
1.0
 37
0.0
 76
     0
330
11
  0
MATERIAL
  5
31
102
{ACAD_REACTORS
330
B
102
}
330
B
100
AcDbMaterial
  1
ByBlock
  2

  0
MATERIAL
  5
30
102
{ACAD_REACTORS
330
B
102
}
330
B
100
AcDbMaterial
  1
ByLayer
  2

  0
MATERIAL
  5
A
102
{ACAD_REACTORS
330
B
102
}
330
B
100
AcDbMaterial
  1
Global
  2

  0
MLEADERSTYLE
  5
66B
102
{ACAD_REACTORS
330
66A
102
}
330
66A
100
AcDbMLeaderStyle
170
     2
171
     1
172
     0
 90
        2
 40
0.0
 41
0.0
173
     1
 91
-1056964608
340
1F
 92
       -2
290
     1
 42
0.09
291
     1
 43
8.0
  3
Standard
341
0
 44
0.18
300

342
1C
174
     1
178
     1
175
     1
176
     0
 93
-1056964608
 45
0.18
292
     0
297
     0
 46
0.18
343
0
 94
-1056964608
 47
1.0
 49
1.0
140
1.0
293
     1
141
0.0
294
     1
177
     0
142
1.0
295
     0
296
     0
143
3.75
1001
ACAD_MLEADERVER
1070
     2
  0
MLINESTYLE
  5
36
102
{ACAD_REACTORS
330
2E
102
}
330
2E
100
AcDbMlineStyle
  2
STANDARD
 70
     0
  3

 62
   256
 51
90.0
 52
90.0
 71
     2
 49
0.5
 62
   256
  6
BYLAYER
 49
-0.5
 62
   256
  6
BYLAYER
  0
ACDBPLACEHOLDER
  5
7
102
{ACAD_REACTORS
330
8
102
}
330
8
  0
SCALE
  5
649
102
{ACAD_REACTORS
330
648
102
}
330
648
100
AcDbScale
 70
     0
300
1:1
140
1.0
141
1.0
290
     1
  0
SCALE
  5
64A
102
{ACAD_REACTORS
330
648
102
}
330
648
100
AcDbScale
 70
     0
300
1:2
140
1.0
141
2.0
290
     0
  0
SCALE
  5
64B
102
{ACAD_REACTORS
330
648
102
}
330
648
100
AcDbScale
 70
     0
300
1:4
140
1.0
141
4.0
290
     0
  0
SCALE
  5
64C
102
{ACAD_REACTORS
330
648
102
}
330
648
100
AcDbScale
 70
     0
300
1:5
140
1.0
141
5.0
290
     0
  0
SCALE
  5
64D
102
{ACAD_REACTORS
330
648
102
}
330
648
100
AcDbScale
 70
     0
300
1:8
140
1.0
141
8.0
290
     0
  0
SCALE
  5
64E
102
{ACAD_REACTORS
330
648
102
}
330
648
100
AcDbScale
 70
     0
300
1:10
140
1.0
141
10.0
290
     0
  0
SCALE
  5
64F
102
{ACAD_REACTORS
330
648
102
}
330
648
100
AcDbScale
 70
     0
300
1:16
140
1.0
141
16.0
290
     0
  0
SCALE
  5
650
102
{ACAD_REACTORS
330
648
102
}
330
648
100
AcDbScale
 70
     0
300
1:20
140
1.0
141
20.0
290
     0
  0
SCALE
  5
651
102
{ACAD_REACTORS
330
648
102
}
330
648
100
AcDbScale
 70
     0
300
1:30
140
1.0
141
30.0
290
     0
  0
SCALE
  5
652
102
{ACAD_REACTORS
330
648
102
}
330
648
100
AcDbScale
 70
     0
300
1:40
140
1.0
141
40.0
290
     0
  0
SCALE
  5
653
102
{ACAD_REACTORS
330
648
102
}
330
648
100
AcDbScale
 70
     0
300
1:50
140
1.0
141
50.0
290
     0
  0
SCALE
  5
654
102
{ACAD_REACTORS
330
648
102
}
330
648
100
AcDbScale
 70
     0
300
1:100
140
1.0
141
100.0
290
     0
  0
SCALE
  5
655
102
{ACAD_REACTORS
330
648
102
}
330
648
100
AcDbScale
 70
     0
300
2:1
140
2.0
141
1.0
290
     0
  0
SCALE
  5
656
102
{ACAD_REACTORS
330
648
102
}
330
648
100
AcDbScale
 70
     0
300
4:1
140
4.0
141
1.0
290
     0
  0
SCALE
  5
657
102
{ACAD_REACTORS
330
648
102
}
330
648
100
AcDbScale
 70
     0
300
8:1
140
8.0
141
1.0
290
     0
  0
SCALE
  5
658
102
{ACAD_REACTORS
330
648
102
}
330
648
100
AcDbScale
 70
     0
300
10:1
140
10.0
141
1.0
290
     0
  0
SCALE
  5
659
102
{ACAD_REACTORS
330
648
102
}
330
648
100
AcDbScale
 70
     0
300
100:1
140
100.0
141
1.0
290
     0
  0
SCALE
  5
65A
102
{ACAD_REACTORS
330
648
102
}
330
648
100
AcDbScale
 70
     0
300
1/128" = 1'-0"
140
0.0078125
141
12.0
290
     0
  0
SCALE
  5
65B
102
{ACAD_REACTORS
330
648
102
}
330
648
100
AcDbScale
 70
     0
300
1/64" = 1'-0"
140
0.015625
141
12.0
290
     0
  0
SCALE
  5
65C
102
{ACAD_REACTORS
330
648
102
}
330
648
100
AcDbScale
 70
     0
300
1/32" = 1'-0"
140
0.03125
141
12.0
290
     0
  0
SCALE
  5
65D
102
{ACAD_REACTORS
330
648
102
}
330
648
100
AcDbScale
 70
     0
300
1/16" = 1'-0"
140
0.0625
141
12.0
290
     0
  0
SCALE
  5
65E
102
{ACAD_REACTORS
330
648
102
}
330
648
100
AcDbScale
 70
     0
300
3/32" = 1'-0"
140
0.09375
141
12.0
290
     0
  0
SCALE
  5
65F
102
{ACAD_REACTORS
330
648
102
}
330
648
100
AcDbScale
 70
     0
300
1/8" = 1'-0"
140
0.125
141
12.0
290
     0
  0
SCALE
  5
660
102
{ACAD_REACTORS
330
648
102
}
330
648
100
AcDbScale
 70
     0
300
3/16" = 1'-0"
140
0.1875
141
12.0
290
     0
  0
SCALE
  5
661
102
{ACAD_REACTORS
330
648
102
}
330
648
100
AcDbScale
 70
     0
300
1/4" = 1'-0"
140
0.25
141
12.0
290
     0
  0
SCALE
  5
662
102
{ACAD_REACTORS
330
648
102
}
330
648
100
AcDbScale
 70
     0
300
3/8" = 1'-0"
140
0.375
141
12.0
290
     0
  0
SCALE
  5
663
102
{ACAD_REACTORS
330
648
102
}
330
648
100
AcDbScale
 70
     0
300
1/2" = 1'-0"
140
0.5
141
12.0
290
     0
  0
SCALE
  5
664
102
{ACAD_REACTORS
330
648
102
}
330
648
100
AcDbScale
 70
     0
300
3/4" = 1'-0"
140
0.75
141
12.0
290
     0
  0
SCALE
  5
665
102
{ACAD_REACTORS
330
648
102
}
330
648
100
AcDbScale
 70
     0
300
1" = 1'-0"
140
1.0
141
12.0
290
     0
  0
SCALE
  5
666
102
{ACAD_REACTORS
330
648
102
}
330
648
100
AcDbScale
 70
     0
300
1-1/2" = 1'-0"
140
1.5
141
12.0
290
     0
  0
SCALE
  5
667
102
{ACAD_REACTORS
330
648
102
}
330
648
100
AcDbScale
 70
     0
300
3" = 1'-0"
140
3.0
141
12.0
290
     0
  0
SCALE
  5
668
102
{ACAD_REACTORS
330
648
102
}
330
648
100
AcDbScale
 70
     0
300
6" = 1'-0"
140
6.0
141
12.0
290
     0
  0
SCALE
  5
669
102
{ACAD_REACTORS
330
648
102
}
330
648
100
AcDbScale
 70
     0
300
1'-0" = 1'-0"
140
12.0
141
12.0
290
     0
  0
TABLESTYLE
  5
37
102
{ACAD_XDICTIONARY
360
675
102
}
102
{ACAD_REACTORS
330
33
102
}
330
33
100
AcDbTableStyle
  3
Standard
 70
     0
 71
     0
 40
1.5
 41
1.5
280
     0
281
     0
  7
Standard
140
4.5
170
     2
 62
     0
 63
   257
283
     0
274
    -2
284
     1
 64
     0
275
    -2
285
     1
 65
     0
276
    -2
286
     1
 66
     0
277
    -2
287
     1
 67
     0
278
    -2
288
     1
 68
     0
279
    -2
289
     1
 69
     0
  7
Standard
140
6.0
170
     5
 62
     0
 63
   257
283
     0
274
    -2
284
     1
 64
     0
275
    -2
285
     1
 65
     0
276
    -2
286
     1
 66
     0
277
    -2
287
     1
 67
     0
278
    -2
288
     1
 68
     0
279
    -2
289
     1
 69
     0
  7
Standard
140
4.5
170
     5
 62
     0
 63
   257
283
     0
274
    -2
284
     1
 64
     0
275
    -2
285
     1
 65
     0
276
    -2
286
     1
 66
     0
277
    -2
287
     1
 67
     0
278
    -2
288
     1
 68
     0
279
    -2
289
     1
 69
     0
  0
VISUALSTYLE
  5
25
102
{ACAD_XDICTIONARY
360
673
102
}
102
{ACAD_REACTORS
330
26
102
}
330
26
100
AcDbVisualStyle
  2
2dWireframe
 70
     4
 71
     0
 72
     2
 73
     1
 90
        0
 40
-0.6
 41
-30.0
 62
     5
 63
     7
421
 16777215
 74
     1
 91
        4
 64
     7
 65
   257
 75
     1
175
     1
 42
1.0
 92
        0
 66
   257
 43
1.0
 76
     1
 77
     6
 78
     2
 67
     7
 79
     5
170
     0
171
     0
290
     0
174
     0
 93
        1
 44
0.0
173
     0
291
     0
 45
0.0
1001
ACAD
1000
AcDbSavedByObjectVersion
1070
     0
  0
VISUALSTYLE
  5
C6
102
{ACAD_XDICTIONARY
360
687
102
}
102
{ACAD_REACTORS
330
26
102
}
330
26
100
AcDbVisualStyle
  2
3D Hidden
 70
     6
 71
     1
 72
     2
 73
     2
 90
        0
 40
-0.6
 41
-30.0
 62
     5
 63
     7
421
 16777215
 74
     2
 91
        2
 64
     7
 65
   257
 75
     2
175
     1
 42
40.0
 92
        0
 66
   257
 43
1.0
 76
     1
 77
     6
 78
     2
 67
     7
 79
     3
170
     0
171
     0
290
     0
174
     0
 93
        1
 44
0.0
173
     0
291
     0
 45
0.0
1001
ACAD
1000
AcDbSavedByObjectVersion
1070
     0
  0
VISUALSTYLE
  5
39
102
{ACAD_XDICTIONARY
360
67B
102
}
102
{ACAD_REACTORS
330
26
102
}
330
26
100
AcDbVisualStyle
  2
3dWireframe
 70
     5
 71
     0
 72
     2
 73
     1
 90
        0
 40
-0.6
 41
-30.0
 62
     5
 63
     7
421
 16777215
 74
     1
 91
        4
 64
     7
 65
   257
 75
     1
175
     1
 42
1.0
 92
        0
 66
   257
 43
1.0
 76
     1
 77
     6
 78
     2
 67
     7
 79
     5
170
     0
171
     0
290
     0
174
     0
 93
        1
 44
0.0
173
     0
291
     0
 45
0.0
1001
ACAD
1000
AcDbSavedByObjectVersion
1070
     0
  0
VISUALSTYLE
  5
C5
102
{ACAD_XDICTIONARY
360
685
102
}
102
{ACAD_REACTORS
330
26
102
}
330
26
100
AcDbVisualStyle
  2
Basic
 70
     7
 71
     1
 72
     0
 73
     1
 90
        0
 40
-0.6
 41
-30.0
 62
     5
 63
     7
421
 16777215
 74
     0
 91
        4
 64
     7
 65
   257
 75
     1
175
     1
 42
1.0
 92
        8
 66
     7
 43
1.0
 76
     1
 77
     6
 78
     2
 67
     7
 79
     5
170
     0
171
     0
290
     0
174
     0
 93
        1
 44
0.0
173
     0
291
     1
 45
0.0
1001
ACAD
1000
AcDbSavedByObjectVersion
1070
     0
  0
VISUALSTYLE
  5
C9
102
{ACAD_XDICTIONARY
360
68D
102
}
102
{ACAD_REACTORS
330
26
102
}
330
26
100
AcDbVisualStyle
  2
Brighten
 70
    12
 71
     2
 72
     2
 73
     0
 90
        0
 40
-0.6
 41
-30.0
 62
     5
 63
     7
421
 16777215
 74
     1
 91
        4
 64
     7
 65
   257
 75
     1
175
     1
 42
1.0
 92
        8
 66
     7
 43
1.0
 76
     1
 77
     6
 78
     2
 67
     7
 79
     5
170
     0
171
     0
290
     0
174
     0
 93
        1
 44
50.0
173
     0
291
     1
 45
0.0
1001
ACAD
1000
AcDbSavedByObjectVersion
1070
     0
  0
VISUALSTYLE
  5
CD
102
{ACAD_XDICTIONARY
360
695
102
}
102
{ACAD_REACTORS
330
26
102
}
330
26
100
AcDbVisualStyle
  2
ColorChange
 70
    16
 71
     2
 72
     2
 73
     3
 90
        0
 40
-0.6
 41
-30.0
 62
     5
 63
     8
421
  8421504
 74
     1
 91
        4
 64
     7
 65
   257
 75
     1
175
     1
 42
1.0
 92
        8
 66
     8
424
  8421504
 43
1.0
 76
     1
 77
     6
 78
     2
 67
     7
 79
     5
170
     0
171
     0
290
     0
174
     0
 93
        1
 44
0.0
173
     0
291
     1
 45
0.0
1001
ACAD
1000
AcDbSavedByObjectVersion
1070
     0
  0
VISUALSTYLE
  5
C7
102
{ACAD_XDICTIONARY
360
689
102
}
102
{ACAD_REACTORS
330
26
102
}
330
26
100
AcDbVisualStyle
  2
Conceptual
 70
     9
 71
     3
 72
     2
 73
     0
 90
        0
 40
-0.6
 41
-30.0
 62
     5
 63
     7
421
 16777215
 74
     2
 91
        2
 64
     7
 65
   257
 75
     1
175
     1
 42
40.0
 92
        8
 66
     7
 43
1.0
 76
     1
 77
     6
 78
     2
 67
     7
 79
     3
170
     0
171
     0
290
     0
174
     0
 93
        1
 44
0.0
173
     0
291
     0
 45
0.0
1001
ACAD
1000
AcDbSavedByObjectVersion
1070
     0
  0
VISUALSTYLE
  5
C8
102
{ACAD_XDICTIONARY
360
68B
102
}
102
{ACAD_REACTORS
330
26
102
}
330
26
100
AcDbVisualStyle
  2
Dim
 70
    11
 71
     2
 72
     2
 73
     0
 90
        0
 40
-0.6
 41
-30.0
 62
     5
 63
     7
421
 16777215
 74
     1
 91
        4
 64
     7
 65
   257
 75
     1
175
     1
 42
1.0
 92
        8
 66
     7
 43
1.0
 76
     1
 77
     6
 78
     2
 67
     7
 79
     5
170
     0
171
     0
290
     0
174
     0
 93
        1
 44
-50.0
173
     0
291
     1
 45
0.0
1001
ACAD
1000
AcDbSavedByObjectVersion
1070
     0
  0
VISUALSTYLE
  5
CC
102
{ACAD_XDICTIONARY
360
693
102
}
102
{ACAD_REACTORS
330
26
102
}
330
26
100
AcDbVisualStyle
  2
Facepattern
 70
    15
 71
     2
 72
     2
 73
     0
 90
        0
 40
-0.6
 41
-30.0
 62
     5
 63
     7
421
 16777215
 74
     1
 91
        4
 64
     7
 65
   257
 75
     1
175
     1
 42
1.0
 92
        8
 66
     7
 43
1.0
 76
     1
 77
     6
 78
     2
 67
     7
 79
     5
170
     0
171
     0
290
     0
174
     0
 93
        1
 44
0.0
173
     0
291
     1
 45
0.0
1001
ACAD
1000
AcDbSavedByObjectVersion
1070
     0
  0
VISUALSTYLE
  5
C1
102
{ACAD_XDICTIONARY
360
67D
102
}
102
{ACAD_REACTORS
330
26
102
}
330
26
100
AcDbVisualStyle
  2
Flat
 70
     0
 71
     2
 72
     1
 73
     1
 90
        2
 40
-0.6
 41
30.0
 62
     5
 63
     7
421
 16777215
 74
     0
 91
        4
 64
     7
 65
   257
 75
     1
175
     1
 42
1.0
 92
        8
 66
     7
 43
1.0
 76
     1
 77
     6
 78
     2
 67
     7
 79
     5
170
     0
171
     0
290
     0
174
     0
 93
       13
 44
0.0
173
     0
291
     1
 45
0.0
1001
ACAD
1000
AcDbSavedByObjectVersion
1070
     0
  0
VISUALSTYLE
  5
C2
102
{ACAD_XDICTIONARY
360
67F
102
}
102
{ACAD_REACTORS
330
26
102
}
330
26
100
AcDbVisualStyle
  2
FlatWithEdges
 70
     1
 71
     2
 72
     1
 73
     1
 90
        2
 40
-0.6
 41
30.0
 62
     5
 63
     7
421
 16777215
 74
     1
 91
        4
 64
     7
 65
   257
 75
     1
175
     1
 42
1.0
 92
        0
 66
   257
 43
1.0
 76
     1
 77
     6
 78
     2
 67
     7
 79
     5
170
     0
171
     0
290
     0
174
     0
 93
       13
 44
0.0
173
     0
291
     1
 45
0.0
1001
ACAD
1000
AcDbSavedByObjectVersion
1070
     0
  0
VISUALSTYLE
  5
C3
102
{ACAD_XDICTIONARY
360
681
102
}
102
{ACAD_REACTORS
330
26
102
}
330
26
100
AcDbVisualStyle
  2
Gouraud
 70
     2
 71
     2
 72
     2
 73
     1
 90
        2
 40
-0.6
 41
30.0
 62
     5
 63
     7
421
 16777215
 74
     0
 91
        4
 64
     7
 65
   257
 75
     1
175
     1
 42
1.0
 92
        0
 66
     7
 43
1.0
 76
     1
 77
     6
 78
     2
 67
     7
 79
     5
170
     0
171
     0
290
     0
174
     0
 93
       13
 44
0.0
173
     0
291
     1
 45
0.0
1001
ACAD
1000
AcDbSavedByObjectVersion
1070
     0
  0
VISUALSTYLE
  5
C4
102
{ACAD_XDICTIONARY
360
683
102
}
102
{ACAD_REACTORS
330
26
102
}
330
26
100
AcDbVisualStyle
  2
GouraudWithEdges
 70
     3
 71
     2
 72
     2
 73
     1
 90
        2
 40
-0.6
 41
30.0
 62
     5
 63
     7
421
 16777215
 74
     1
 91
        4
 64
     7
 65
   257
 75
     1
175
     1
 42
1.0
 92
        0
 66
   257
 43
1.0
 76
     1
 77
     6
 78
     2
 67
     7
 79
     5
170
     0
171
     0
290
     0
174
     0
 93
       13
 44
0.0
173
     0
291
     1
 45
0.0
1001
ACAD
1000
AcDbSavedByObjectVersion
1070
     0
  0
VISUALSTYLE
  5
CB
102
{ACAD_XDICTIONARY
360
691
102
}
102
{ACAD_REACTORS
330
26
102
}
330
26
100
AcDbVisualStyle
  2
Linepattern
 70
    14
 71
     2
 72
     2
 73
     0
 90
        0
 40
-0.6
 41
-30.0
 62
     5
 63
     7
421
 16777215
 74
     1
 91
        4
 64
     7
 65
   257
 75
     7
175
     7
 42
1.0
 92
        8
 66
     7
 43
1.0
 76
     1
 77
     6
 78
     2
 67
     7
 79
     5
170
     0
171
     0
290
     0
174
     0
 93
        1
 44
0.0
173
     0
291
     1
 45
0.0
1001
ACAD
1000
AcDbSavedByObjectVersion
1070
     0
  0
VISUALSTYLE
  5
38
102
{ACAD_XDICTIONARY
360
679
102
}
102
{ACAD_REACTORS
330
26
102
}
330
26
100
AcDbVisualStyle
  2
Realistic
 70
     8
 71
     2
 72
     2
 73
     1
 90
        0
 40
-0.6
 41
-30.0
 62
     5
 63
     7
421
 16777215
 74
     1
 91
        0
 64
     7
 65
   257
 75
     1
175
     1
 42
1.0
 92
        8
 66
     8
424
  7895160
 43
1.0
 76
     1
 77
     6
 78
     2
 67
     7
 79
     5
170
     0
171
     0
290
     0
174
     0
 93
       13
 44
0.0
173
     0
291
     0
 45
0.0
1001
ACAD
1000
AcDbSavedByObjectVersion
1070
     0
  0
VISUALSTYLE
  5
CA
102
{ACAD_XDICTIONARY
360
68F
102
}
102
{ACAD_REACTORS
330
26
102
}
330
26
100
AcDbVisualStyle
  2
Thicken
 70
    13
 71
     2
 72
     2
 73
     0
 90
        0
 40
-0.6
 41
-30.0
 62
     5
 63
     7
421
 16777215
 74
     1
 91
        4
 64
     7
 65
   257
 75
     1
175
     1
 42
1.0
 92
       12
 66
     7
 43
1.0
 76
     1
 77
     6
 78
     2
 67
     7
 79
     5
170
     0
171
     0
290
     0
174
     0
 93
        1
 44
0.0
173
     0
291
     1
 45
0.0
1001
ACAD
1000
AcDbSavedByObjectVersion
1070
     0
  0
DICTIONARYVAR
  5
670
102
{ACAD_REACTORS
330
BD
102
}
330
BD
100
DictionaryVariables
280
     0
  1
STANDARD
  0
DICTIONARYVAR
  5
BE
102
{ACAD_REACTORS
330
BD
102
}
330
BD
100
DictionaryVariables
280
     0
  1
STANDARD
  0
DICTIONARYVAR
  5
BF
102
{ACAD_REACTORS
330
BD
102
}
330
BD
100
DictionaryVariables
280
     0
  1
4
  0
DICTIONARY
  5
675
330
37
100
AcDbDictionary
280
     1
281
     1
  3
ACAD_ROUNDTRIP_2008_TABLESTYLE_CELLSTYLEMAP
360
677
  3
ACAD_XREC_ROUNDTRIP
360
676
  0
DICTIONARY
  5
673
330
25
100
AcDbDictionary
280
     1
281
     1
  3
ACAD_XREC_ROUNDTRIP
360
674
  0
DICTIONARY
  5
687
330
C6
100
AcDbDictionary
280
     1
281
     1
  3
ACAD_XREC_ROUNDTRIP
360
688
  0
DICTIONARY
  5
67B
330
39
100
AcDbDictionary
280
     1
281
     1
  3
ACAD_XREC_ROUNDTRIP
360
67C
  0
DICTIONARY
  5
685
330
C5
100
AcDbDictionary
280
     1
281
     1
  3
ACAD_XREC_ROUNDTRIP
360
686
  0
DICTIONARY
  5
68D
330
C9
100
AcDbDictionary
280
     1
281
     1
  3
ACAD_XREC_ROUNDTRIP
360
68E
  0
DICTIONARY
  5
695
330
CD
100
AcDbDictionary
280
     1
281
     1
  3
ACAD_XREC_ROUNDTRIP
360
696
  0
DICTIONARY
  5
689
330
C7
100
AcDbDictionary
280
     1
281
     1
  3
ACAD_XREC_ROUNDTRIP
360
68A
  0
DICTIONARY
  5
68B
330
C8
100
AcDbDictionary
280
     1
281
     1
  3
ACAD_XREC_ROUNDTRIP
360
68C
  0
DICTIONARY
  5
693
330
CC
100
AcDbDictionary
280
     1
281
     1
  3
ACAD_XREC_ROUNDTRIP
360
694
  0
DICTIONARY
  5
67D
330
C1
100
AcDbDictionary
280
     1
281
     1
  3
ACAD_XREC_ROUNDTRIP
360
67E
  0
DICTIONARY
  5
67F
330
C2
100
AcDbDictionary
280
     1
281
     1
  3
ACAD_XREC_ROUNDTRIP
360
680
  0
DICTIONARY
  5
681
330
C3
100
AcDbDictionary
280
     1
281
     1
  3
ACAD_XREC_ROUNDTRIP
360
682
  0
DICTIONARY
  5
683
330
C4
100
AcDbDictionary
280
     1
281
     1
  3
ACAD_XREC_ROUNDTRIP
360
684
  0
DICTIONARY
  5
691
330
CB
100
AcDbDictionary
280
     1
281
     1
  3
ACAD_XREC_ROUNDTRIP
360
692
  0
DICTIONARY
  5
679
330
38
100
AcDbDictionary
280
     1
281
     1
  3
ACAD_XREC_ROUNDTRIP
360
67A
  0
DICTIONARY
  5
68F
330
CA
100
AcDbDictionary
280
     1
281
     1
  3
ACAD_XREC_ROUNDTRIP
360
690
  0
CELLSTYLEMAP
  5
677
102
{ACAD_REACTORS
330
675
102
}
330
675
100
AcDbCellStyleMap
 90
        3
300
CELLSTYLE
  1
TABLEFORMAT_BEGIN
 90
        5
170
     1
 91
        0
 92
        0
 62
   257
 93
        1
300
CONTENTFORMAT
  1
CONTENTFORMAT_BEGIN
 90
        0
 91
        0
 92
      512
 93
        0
300

 40
0.0
140
1.0
 94
        5
 62
     0
340
1C
144
6.0
309
CONTENTFORMAT_END
171
     1
301
MARGIN
  1
CELLMARGIN_BEGIN
 40
1.5
 40
1.5
 40
1.5
 40
1.5
 40
4.5
 40
4.5
309
CELLMARGIN_END
 94
        6
 95
        1
302
GRIDFORMAT
  1
GRIDFORMAT_BEGIN
 90
        0
 91
        1
 62
     0
 92
       -2
340
0
 93
        0
 40
0.045
309
GRIDFORMAT_END
 95
        2
302
GRIDFORMAT
  1
GRIDFORMAT_BEGIN
 90
        0
 91
        1
 62
     0
 92
       -2
340
0
 93
        0
 40
0.045
309
GRIDFORMAT_END
 95
        4
302
GRIDFORMAT
  1
GRIDFORMAT_BEGIN
 90
        0
 91
        1
 62
     0
 92
       -2
340
0
 93
        0
 40
0.045
309
GRIDFORMAT_END
 95
        8
302
GRIDFORMAT
  1
GRIDFORMAT_BEGIN
 90
        0
 91
        1
 62
     0
 92
       -2
340
0
 93
        0
 40
0.045
309
GRIDFORMAT_END
 95
       16
302
GRIDFORMAT
  1
GRIDFORMAT_BEGIN
 90
        0
 91
        1
 62
     0
 92
       -2
340
0
 93
        0
 40
0.045
309
GRIDFORMAT_END
 95
       32
302
GRIDFORMAT
  1
GRIDFORMAT_BEGIN
 90
        0
 91
        1
 62
     0
 92
       -2
340
0
 93
        0
 40
0.045
309
GRIDFORMAT_END
309
TABLEFORMAT_END
  1
CELLSTYLE_BEGIN
 90
        1
 91
        1
300
_TITLE
309
CELLSTYLE_END
300
CELLSTYLE
  1
TABLEFORMAT_BEGIN
 90
        5
170
     1
 91
        0
 92
        0
 62
   257
 93
        1
300
CONTENTFORMAT
  1
CONTENTFORMAT_BEGIN
 90
        0
 91
        0
 92
      512
 93
        0
300

 40
0.0
140
1.0
 94
        5
 62
     0
340
1C
144
4.5
309
CONTENTFORMAT_END
171
     1
301
MARGIN
  1
CELLMARGIN_BEGIN
 40
1.5
 40
1.5
 40
1.5
 40
1.5
 40
4.5
 40
4.5
309
CELLMARGIN_END
 94
        6
 95
        1
302
GRIDFORMAT
  1
GRIDFORMAT_BEGIN
 90
        0
 91
        1
 62
     0
 92
       -2
340
0
 93
        0
 40
0.045
309
GRIDFORMAT_END
 95
        2
302
GRIDFORMAT
  1
GRIDFORMAT_BEGIN
 90
        0
 91
        1
 62
     0
 92
       -2
340
0
 93
        0
 40
0.045
309
GRIDFORMAT_END
 95
        4
302
GRIDFORMAT
  1
GRIDFORMAT_BEGIN
 90
        0
 91
        1
 62
     0
 92
       -2
340
0
 93
        0
 40
0.045
309
GRIDFORMAT_END
 95
        8
302
GRIDFORMAT
  1
GRIDFORMAT_BEGIN
 90
        0
 91
        1
 62
     0
 92
       -2
340
0
 93
        0
 40
0.045
309
GRIDFORMAT_END
 95
       16
302
GRIDFORMAT
  1
GRIDFORMAT_BEGIN
 90
        0
 91
        1
 62
     0
 92
       -2
340
0
 93
        0
 40
0.045
309
GRIDFORMAT_END
 95
       32
302
GRIDFORMAT
  1
GRIDFORMAT_BEGIN
 90
        0
 91
        1
 62
     0
 92
       -2
340
0
 93
        0
 40
0.045
309
GRIDFORMAT_END
309
TABLEFORMAT_END
  1
CELLSTYLE_BEGIN
 90
        2
 91
        1
300
_HEADER
309
CELLSTYLE_END
300
CELLSTYLE
  1
TABLEFORMAT_BEGIN
 90
        5
170
     1
 91
        0
 92
        0
 62
   257
 93
        1
300
CONTENTFORMAT
  1
CONTENTFORMAT_BEGIN
 90
        0
 91
        0
 92
      512
 93
        0
300

 40
0.0
140
1.0
 94
        2
 62
     0
340
1C
144
4.5
309
CONTENTFORMAT_END
171
     1
301
MARGIN
  1
CELLMARGIN_BEGIN
 40
1.5
 40
1.5
 40
1.5
 40
1.5
 40
4.5
 40
4.5
309
CELLMARGIN_END
 94
        6
 95
        1
302
GRIDFORMAT
  1
GRIDFORMAT_BEGIN
 90
        0
 91
        1
 62
     0
 92
       -2
340
0
 93
        0
 40
0.045
309
GRIDFORMAT_END
 95
        2
302
GRIDFORMAT
  1
GRIDFORMAT_BEGIN
 90
        0
 91
        1
 62
     0
 92
       -2
340
0
 93
        0
 40
0.045
309
GRIDFORMAT_END
 95
        4
302
GRIDFORMAT
  1
GRIDFORMAT_BEGIN
 90
        0
 91
        1
 62
     0
 92
       -2
340
0
 93
        0
 40
0.045
309
GRIDFORMAT_END
 95
        8
302
GRIDFORMAT
  1
GRIDFORMAT_BEGIN
 90
        0
 91
        1
 62
     0
 92
       -2
340
0
 93
        0
 40
0.045
309
GRIDFORMAT_END
 95
       16
302
GRIDFORMAT
  1
GRIDFORMAT_BEGIN
 90
        0
 91
        1
 62
     0
 92
       -2
340
0
 93
        0
 40
0.045
309
GRIDFORMAT_END
 95
       32
302
GRIDFORMAT
  1
GRIDFORMAT_BEGIN
 90
        0
 91
        1
 62
     0
 92
       -2
340
0
 93
        0
 40
0.045
309
GRIDFORMAT_END
309
TABLEFORMAT_END
  1
CELLSTYLE_BEGIN
 90
        3
 91
        2
300
_DATA
309
CELLSTYLE_END
  0
XRECORD
  5
676
102
{ACAD_REACTORS
330
675
102
}
330
675
100
AcDbXrecord
280
     1
102
ACAD_ROUNDTRIP_PRE2007_TABLESTYLE
 90
      512
 91
        0
  1

 92
      512
 93
        0
  2

 94
      512
 95
        0
  3

  0
XRECORD
  5
674
102
{ACAD_REACTORS
330
673
102
}
330
673
100
AcDbXrecord
280
     1
102
RTVSPropertyOp0
 70
     1
102
RTVSPropertyOp1
 70
     1
102
RTVSPropertyOp2
 70
     1
102
RTVSPropertyOp3
 70
     1
102
RTVSPropertyOp4
 70
     1
102
RTVSPropertyOp5
 70
     1
102
RTVSPropertyOp6
 70
     1
102
RTVSPropertyOp7
 70
     1
102
RTVSPropertyOp8
 70
     1
102
RTVSPropertyOp9
 70
     1
102
RTVSPropertyOp10
 70
     1
102
RTVSPropertyOp11
 70
     1
102
RTVSPropertyOp12
 70
     1
102
RTVSPropertyOp13
 70
     1
102
RTVSPropertyOp14
 70
     1
102
RTVSPropertyOp15
 70
     1
102
RTVSPropertyOp16
 70
     1
102
RTVSPropertyOp17
 70
     1
102
RTVSPropertyOp18
 70
     1
102
RTVSPropertyOp19
 70
     1
102
RTVSPropertyOp20
 70
     1
102
RTVSPropertyOp21
 70
     1
102
RTVSPropertyOp22
 70
     1
102
RTVSPropertyOp23
 70
     1
102
RTVSPropertyOp24
 70
     1
102
RTVSPropertyOp25
 70
     1
102
RTVSPropertyOp26
 70
     1
102
RTVSPropertyOp27
 70
     1
  0
XRECORD
  5
688
102
{ACAD_REACTORS
330
687
102
}
330
687
100
AcDbXrecord
280
     1
102
RTVSPropertyOp0
 70
     1
102
RTVSPropertyOp1
 70
     1
102
RTVSPropertyOp2
 70
     1
102
RTVSPropertyOp3
 70
     1
102
RTVSPropertyOp4
 70
     1
102
RTVSPropertyOp5
 70
     1
102
RTVSPropertyOp6
 70
     1
102
RTVSPropertyOp7
 70
     1
102
RTVSPropertyOp8
 70
     1
102
RTVSPropertyOp9
 70
     1
102
RTVSPropertyOp10
 70
     1
102
RTVSPropertyOp11
 70
     1
102
RTVSPropertyOp12
 70
     1
102
RTVSPropertyOp13
 70
     1
102
RTVSPropertyOp14
 70
     1
102
RTVSPropertyOp15
 70
     1
102
RTVSPropertyOp16
 70
     1
102
RTVSPropertyOp17
 70
     1
102
RTVSPropertyOp18
 70
     1
102
RTVSPropertyOp19
 70
     1
102
RTVSPropertyOp20
 70
     1
102
RTVSPropertyOp21
 70
     1
102
RTVSPropertyOp22
 70
     1
102
RTVSPropertyOp23
 70
     1
102
RTVSPropertyOp24
 70
     1
102
RTVSPropertyOp25
 70
     1
102
RTVSPropertyOp26
 70
     1
102
RTVSPropertyOp27
 70
     1
  0
XRECORD
  5
67C
102
{ACAD_REACTORS
330
67B
102
}
330
67B
100
AcDbXrecord
280
     1
102
RTVSPropertyOp0
 70
     1
102
RTVSPropertyOp1
 70
     1
102
RTVSPropertyOp2
 70
     1
102
RTVSPropertyOp3
 70
     1
102
RTVSPropertyOp4
 70
     1
102
RTVSPropertyOp5
 70
     1
102
RTVSPropertyOp6
 70
     1
102
RTVSPropertyOp7
 70
     1
102
RTVSPropertyOp8
 70
     1
102
RTVSPropertyOp9
 70
     1
102
RTVSPropertyOp10
 70
     1
102
RTVSPropertyOp11
 70
     1
102
RTVSPropertyOp12
 70
     1
102
RTVSPropertyOp13
 70
     1
102
RTVSPropertyOp14
 70
     1
102
RTVSPropertyOp15
 70
     1
102
RTVSPropertyOp16
 70
     1
102
RTVSPropertyOp17
 70
     1
102
RTVSPropertyOp18
 70
     1
102
RTVSPropertyOp19
 70
     1
102
RTVSPropertyOp20
 70
     1
102
RTVSPropertyOp21
 70
     1
102
RTVSPropertyOp22
 70
     1
102
RTVSPropertyOp23
 70
     1
102
RTVSPropertyOp24
 70
     1
102
RTVSPropertyOp25
 70
     1
102
RTVSPropertyOp26
 70
     1
102
RTVSPropertyOp27
 70
     1
  0
XRECORD
  5
686
102
{ACAD_REACTORS
330
685
102
}
330
685
100
AcDbXrecord
280
     1
102
RTVSPropertyOp0
 70
     1
102
RTVSPropertyOp1
 70
     1
102
RTVSPropertyOp2
 70
     1
102
RTVSPropertyOp3
 70
     1
102
RTVSPropertyOp4
 70
     1
102
RTVSPropertyOp5
 70
     1
102
RTVSPropertyOp6
 70
     1
102
RTVSPropertyOp7
 70
     1
102
RTVSPropertyOp8
 70
     1
102
RTVSPropertyOp9
 70
     1
102
RTVSPropertyOp10
 70
     1
102
RTVSPropertyOp11
 70
     1
102
RTVSPropertyOp12
 70
     1
102
RTVSPropertyOp13
 70
     1
102
RTVSPropertyOp14
 70
     1
102
RTVSPropertyOp15
 70
     1
102
RTVSPropertyOp16
 70
     1
102
RTVSPropertyOp17
 70
     1
102
RTVSPropertyOp18
 70
     1
102
RTVSPropertyOp19
 70
     1
102
RTVSPropertyOp20
 70
     1
102
RTVSPropertyOp21
 70
     1
102
RTVSPropertyOp22
 70
     1
102
RTVSPropertyOp23
 70
     1
102
RTVSPropertyOp24
 70
     1
102
RTVSPropertyOp25
 70
     1
102
RTVSPropertyOp26
 70
     1
102
RTVSPropertyOp27
 70
     1
  0
XRECORD
  5
68E
102
{ACAD_REACTORS
330
68D
102
}
330
68D
100
AcDbXrecord
280
     1
102
RTVSPropertyOp0
 70
     1
102
RTVSPropertyOp1
 70
     1
102
RTVSPropertyOp2
 70
     1
102
RTVSPropertyOp3
 70
     1
102
RTVSPropertyOp4
 70
     1
102
RTVSPropertyOp5
 70
     1
102
RTVSPropertyOp6
 70
     1
102
RTVSPropertyOp7
 70
     1
102
RTVSPropertyOp8
 70
     1
102
RTVSPropertyOp9
 70
     1
102
RTVSPropertyOp10
 70
     1
102
RTVSPropertyOp11
 70
     1
102
RTVSPropertyOp12
 70
     1
102
RTVSPropertyOp13
 70
     1
102
RTVSPropertyOp14
 70
     1
102
RTVSPropertyOp15
 70
     1
102
RTVSPropertyOp16
 70
     1
102
RTVSPropertyOp17
 70
     1
102
RTVSPropertyOp18
 70
     1
102
RTVSPropertyOp19
 70
     1
102
RTVSPropertyOp20
 70
     1
102
RTVSPropertyOp21
 70
     1
102
RTVSPropertyOp22
 70
     1
102
RTVSPropertyOp23
 70
     1
102
RTVSPropertyOp24
 70
     1
102
RTVSPropertyOp25
 70
     1
102
RTVSPropertyOp26
 70
     1
102
RTVSPropertyOp27
 70
     1
  0
XRECORD
  5
696
102
{ACAD_REACTORS
330
695
102
}
330
695
100
AcDbXrecord
280
     1
102
RTVSPropertyOp0
 70
     1
102
RTVSPropertyOp1
 70
     1
102
RTVSPropertyOp2
 70
     1
102
RTVSPropertyOp3
 70
     1
102
RTVSPropertyOp4
 70
     1
102
RTVSPropertyOp5
 70
     1
102
RTVSPropertyOp6
 70
     1
102
RTVSPropertyOp7
 70
     1
102
RTVSPropertyOp8
 70
     1
102
RTVSPropertyOp9
 70
     1
102
RTVSPropertyOp10
 70
     1
102
RTVSPropertyOp11
 70
     1
102
RTVSPropertyOp12
 70
     1
102
RTVSPropertyOp13
 70
     1
102
RTVSPropertyOp14
 70
     1
102
RTVSPropertyOp15
 70
     1
102
RTVSPropertyOp16
 70
     1
102
RTVSPropertyOp17
 70
     1
102
RTVSPropertyOp18
 70
     1
102
RTVSPropertyOp19
 70
     1
102
RTVSPropertyOp20
 70
     1
102
RTVSPropertyOp21
 70
     1
102
RTVSPropertyOp22
 70
     1
102
RTVSPropertyOp23
 70
     1
102
RTVSPropertyOp24
 70
     1
102
RTVSPropertyOp25
 70
     1
102
RTVSPropertyOp26
 70
     1
102
RTVSPropertyOp27
 70
     1
  0
XRECORD
  5
68A
102
{ACAD_REACTORS
330
689
102
}
330
689
100
AcDbXrecord
280
     1
102
RTVSPropertyOp0
 70
     1
102
RTVSPropertyOp1
 70
     1
102
RTVSPropertyOp2
 70
     1
102
RTVSPropertyOp3
 70
     1
102
RTVSPropertyOp4
 70
     1
102
RTVSPropertyOp5
 70
     1
102
RTVSPropertyOp6
 70
     1
102
RTVSPropertyOp7
 70
     1
102
RTVSPropertyOp8
 70
     1
102
RTVSPropertyOp9
 70
     1
102
RTVSPropertyOp10
 70
     1
102
RTVSPropertyOp11
 70
     1
102
RTVSPropertyOp12
 70
     1
102
RTVSPropertyOp13
 70
     1
102
RTVSPropertyOp14
 70
     1
102
RTVSPropertyOp15
 70
     1
102
RTVSPropertyOp16
 70
     1
102
RTVSPropertyOp17
 70
     1
102
RTVSPropertyOp18
 70
     1
102
RTVSPropertyOp19
 70
     1
102
RTVSPropertyOp20
 70
     1
102
RTVSPropertyOp21
 70
     1
102
RTVSPropertyOp22
 70
     1
102
RTVSPropertyOp23
 70
     1
102
RTVSPropertyOp24
 70
     1
102
RTVSPropertyOp25
 70
     1
102
RTVSPropertyOp26
 70
     1
102
RTVSPropertyOp27
 70
     1
  0
XRECORD
  5
68C
102
{ACAD_REACTORS
330
68B
102
}
330
68B
100
AcDbXrecord
280
     1
102
RTVSPropertyOp0
 70
     1
102
RTVSPropertyOp1
 70
     1
102
RTVSPropertyOp2
 70
     1
102
RTVSPropertyOp3
 70
     1
102
RTVSPropertyOp4
 70
     1
102
RTVSPropertyOp5
 70
     1
102
RTVSPropertyOp6
 70
     1
102
RTVSPropertyOp7
 70
     1
102
RTVSPropertyOp8
 70
     1
102
RTVSPropertyOp9
 70
     1
102
RTVSPropertyOp10
 70
     1
102
RTVSPropertyOp11
 70
     1
102
RTVSPropertyOp12
 70
     1
102
RTVSPropertyOp13
 70
     1
102
RTVSPropertyOp14
 70
     1
102
RTVSPropertyOp15
 70
     1
102
RTVSPropertyOp16
 70
     1
102
RTVSPropertyOp17
 70
     1
102
RTVSPropertyOp18
 70
     1
102
RTVSPropertyOp19
 70
     1
102
RTVSPropertyOp20
 70
     1
102
RTVSPropertyOp21
 70
     1
102
RTVSPropertyOp22
 70
     1
102
RTVSPropertyOp23
 70
     1
102
RTVSPropertyOp24
 70
     1
102
RTVSPropertyOp25
 70
     1
102
RTVSPropertyOp26
 70
     1
102
RTVSPropertyOp27
 70
     1
  0
XRECORD
  5
694
102
{ACAD_REACTORS
330
693
102
}
330
693
100
AcDbXrecord
280
     1
102
RTVSPropertyOp0
 70
     1
102
RTVSPropertyOp1
 70
     1
102
RTVSPropertyOp2
 70
     1
102
RTVSPropertyOp3
 70
     1
102
RTVSPropertyOp4
 70
     1
102
RTVSPropertyOp5
 70
     1
102
RTVSPropertyOp6
 70
     1
102
RTVSPropertyOp7
 70
     1
102
RTVSPropertyOp8
 70
     1
102
RTVSPropertyOp9
 70
     1
102
RTVSPropertyOp10
 70
     1
102
RTVSPropertyOp11
 70
     1
102
RTVSPropertyOp12
 70
     1
102
RTVSPropertyOp13
 70
     1
102
RTVSPropertyOp14
 70
     1
102
RTVSPropertyOp15
 70
     1
102
RTVSPropertyOp16
 70
     1
102
RTVSPropertyOp17
 70
     1
102
RTVSPropertyOp18
 70
     1
102
RTVSPropertyOp19
 70
     1
102
RTVSPropertyOp20
 70
     1
102
RTVSPropertyOp21
 70
     1
102
RTVSPropertyOp22
 70
     1
102
RTVSPropertyOp23
 70
     1
102
RTVSPropertyOp24
 70
     1
102
RTVSPropertyOp25
 70
     1
102
RTVSPropertyOp26
 70
     1
102
RTVSPropertyOp27
 70
     1
  0
XRECORD
  5
67E
102
{ACAD_REACTORS
330
67D
102
}
330
67D
100
AcDbXrecord
280
     1
102
RTVSPropertyOp0
 70
     1
102
RTVSPropertyOp1
 70
     1
102
RTVSPropertyOp2
 70
     1
102
RTVSPropertyOp3
 70
     1
102
RTVSPropertyOp4
 70
     1
102
RTVSPropertyOp5
 70
     1
102
RTVSPropertyOp6
 70
     1
102
RTVSPropertyOp7
 70
     1
102
RTVSPropertyOp8
 70
     1
102
RTVSPropertyOp9
 70
     1
102
RTVSPropertyOp10
 70
     1
102
RTVSPropertyOp11
 70
     1
102
RTVSPropertyOp12
 70
     1
102
RTVSPropertyOp13
 70
     1
102
RTVSPropertyOp14
 70
     1
102
RTVSPropertyOp15
 70
     1
102
RTVSPropertyOp16
 70
     1
102
RTVSPropertyOp17
 70
     1
102
RTVSPropertyOp18
 70
     1
102
RTVSPropertyOp19
 70
     1
102
RTVSPropertyOp20
 70
     1
102
RTVSPropertyOp21
 70
     1
102
RTVSPropertyOp22
 70
     1
102
RTVSPropertyOp23
 70
     1
102
RTVSPropertyOp24
 70
     1
102
RTVSPropertyOp25
 70
     1
102
RTVSPropertyOp26
 70
     1
102
RTVSPropertyOp27
 70
     1
  0
XRECORD
  5
680
102
{ACAD_REACTORS
330
67F
102
}
330
67F
100
AcDbXrecord
280
     1
102
RTVSPropertyOp0
 70
     1
102
RTVSPropertyOp1
 70
     1
102
RTVSPropertyOp2
 70
     1
102
RTVSPropertyOp3
 70
     1
102
RTVSPropertyOp4
 70
     1
102
RTVSPropertyOp5
 70
     1
102
RTVSPropertyOp6
 70
     1
102
RTVSPropertyOp7
 70
     1
102
RTVSPropertyOp8
 70
     1
102
RTVSPropertyOp9
 70
     1
102
RTVSPropertyOp10
 70
     1
102
RTVSPropertyOp11
 70
     1
102
RTVSPropertyOp12
 70
     1
102
RTVSPropertyOp13
 70
     1
102
RTVSPropertyOp14
 70
     1
102
RTVSPropertyOp15
 70
     1
102
RTVSPropertyOp16
 70
     1
102
RTVSPropertyOp17
 70
     1
102
RTVSPropertyOp18
 70
     1
102
RTVSPropertyOp19
 70
     1
102
RTVSPropertyOp20
 70
     1
102
RTVSPropertyOp21
 70
     1
102
RTVSPropertyOp22
 70
     1
102
RTVSPropertyOp23
 70
     1
102
RTVSPropertyOp24
 70
     1
102
RTVSPropertyOp25
 70
     1
102
RTVSPropertyOp26
 70
     1
102
RTVSPropertyOp27
 70
     1
  0
XRECORD
  5
682
102
{ACAD_REACTORS
330
681
102
}
330
681
100
AcDbXrecord
280
     1
102
RTVSPropertyOp0
 70
     1
102
RTVSPropertyOp1
 70
     1
102
RTVSPropertyOp2
 70
     1
102
RTVSPropertyOp3
 70
     1
102
RTVSPropertyOp4
 70
     1
102
RTVSPropertyOp5
 70
     1
102
RTVSPropertyOp6
 70
     1
102
RTVSPropertyOp7
 70
     1
102
RTVSPropertyOp8
 70
     1
102
RTVSPropertyOp9
 70
     1
102
RTVSPropertyOp10
 70
     1
102
RTVSPropertyOp11
 70
     1
102
RTVSPropertyOp12
 70
     1
102
RTVSPropertyOp13
 70
     1
102
RTVSPropertyOp14
 70
     1
102
RTVSPropertyOp15
 70
     1
102
RTVSPropertyOp16
 70
     1
102
RTVSPropertyOp17
 70
     1
102
RTVSPropertyOp18
 70
     1
102
RTVSPropertyOp19
 70
     1
102
RTVSPropertyOp20
 70
     1
102
RTVSPropertyOp21
 70
     1
102
RTVSPropertyOp22
 70
     1
102
RTVSPropertyOp23
 70
     1
102
RTVSPropertyOp24
 70
     1
102
RTVSPropertyOp25
 70
     1
102
RTVSPropertyOp26
 70
     1
102
RTVSPropertyOp27
 70
     1
  0
XRECORD
  5
684
102
{ACAD_REACTORS
330
683
102
}
330
683
100
AcDbXrecord
280
     1
102
RTVSPropertyOp0
 70
     1
102
RTVSPropertyOp1
 70
     1
102
RTVSPropertyOp2
 70
     1
102
RTVSPropertyOp3
 70
     1
102
RTVSPropertyOp4
 70
     1
102
RTVSPropertyOp5
 70
     1
102
RTVSPropertyOp6
 70
     1
102
RTVSPropertyOp7
 70
     1
102
RTVSPropertyOp8
 70
     1
102
RTVSPropertyOp9
 70
     1
102
RTVSPropertyOp10
 70
     1
102
RTVSPropertyOp11
 70
     1
102
RTVSPropertyOp12
 70
     1
102
RTVSPropertyOp13
 70
     1
102
RTVSPropertyOp14
 70
     1
102
RTVSPropertyOp15
 70
     1
102
RTVSPropertyOp16
 70
     1
102
RTVSPropertyOp17
 70
     1
102
RTVSPropertyOp18
 70
     1
102
RTVSPropertyOp19
 70
     1
102
RTVSPropertyOp20
 70
     1
102
RTVSPropertyOp21
 70
     1
102
RTVSPropertyOp22
 70
     1
102
RTVSPropertyOp23
 70
     1
102
RTVSPropertyOp24
 70
     1
102
RTVSPropertyOp25
 70
     1
102
RTVSPropertyOp26
 70
     1
102
RTVSPropertyOp27
 70
     1
  0
XRECORD
  5
692
102
{ACAD_REACTORS
330
691
102
}
330
691
100
AcDbXrecord
280
     1
102
RTVSPropertyOp0
 70
     1
102
RTVSPropertyOp1
 70
     1
102
RTVSPropertyOp2
 70
     1
102
RTVSPropertyOp3
 70
     1
102
RTVSPropertyOp4
 70
     1
102
RTVSPropertyOp5
 70
     1
102
RTVSPropertyOp6
 70
     1
102
RTVSPropertyOp7
 70
     1
102
RTVSPropertyOp8
 70
     1
102
RTVSPropertyOp9
 70
     1
102
RTVSPropertyOp10
 70
     1
102
RTVSPropertyOp11
 70
     1
102
RTVSPropertyOp12
 70
     1
102
RTVSPropertyOp13
 70
     1
102
RTVSPropertyOp14
 70
     1
102
RTVSPropertyOp15
 70
     1
102
RTVSPropertyOp16
 70
     1
102
RTVSPropertyOp17
 70
     1
102
RTVSPropertyOp18
 70
     1
102
RTVSPropertyOp19
 70
     1
102
RTVSPropertyOp20
 70
     1
102
RTVSPropertyOp21
 70
     1
102
RTVSPropertyOp22
 70
     1
102
RTVSPropertyOp23
 70
     1
102
RTVSPropertyOp24
 70
     1
102
RTVSPropertyOp25
 70
     1
102
RTVSPropertyOp26
 70
     1
102
RTVSPropertyOp27
 70
     1
  0
XRECORD
  5
67A
102
{ACAD_REACTORS
330
679
102
}
330
679
100
AcDbXrecord
280
     1
102
RTVSPropertyOp0
 70
     1
102
RTVSPropertyOp1
 70
     1
102
RTVSPropertyOp2
 70
     1
102
RTVSPropertyOp3
 70
     1
102
RTVSPropertyOp4
 70
     1
102
RTVSPropertyOp5
 70
     1
102
RTVSPropertyOp6
 70
     1
102
RTVSPropertyOp7
 70
     1
102
RTVSPropertyOp8
 70
     1
102
RTVSPropertyOp9
 70
     1
102
RTVSPropertyOp10
 70
     1
102
RTVSPropertyOp11
 70
     1
102
RTVSPropertyOp12
 70
     1
102
RTVSPropertyOp13
 70
     1
102
RTVSPropertyOp14
 70
     1
102
RTVSPropertyOp15
 70
     1
102
RTVSPropertyOp16
 70
     1
102
RTVSPropertyOp17
 70
     1
102
RTVSPropertyOp18
 70
     1
102
RTVSPropertyOp19
 70
     1
102
RTVSPropertyOp20
 70
     1
102
RTVSPropertyOp21
 70
     1
102
RTVSPropertyOp22
 70
     1
102
RTVSPropertyOp23
 70
     1
102
RTVSPropertyOp24
 70
     1
102
RTVSPropertyOp25
 70
     1
102
RTVSPropertyOp26
 70
     1
102
RTVSPropertyOp27
 70
     1
  0
XRECORD
  5
690
102
{ACAD_REACTORS
330
68F
102
}
330
68F
100
AcDbXrecord
280
     1
102
RTVSPropertyOp0
 70
     1
102
RTVSPropertyOp1
 70
     1
102
RTVSPropertyOp2
 70
     1
102
RTVSPropertyOp3
 70
     1
102
RTVSPropertyOp4
 70
     1
102
RTVSPropertyOp5
 70
     1
102
RTVSPropertyOp6
 70
     1
102
RTVSPropertyOp7
 70
     1
102
RTVSPropertyOp8
 70
     1
102
RTVSPropertyOp9
 70
     1
102
RTVSPropertyOp10
 70
     1
102
RTVSPropertyOp11
 70
     1
102
RTVSPropertyOp12
 70
     1
102
RTVSPropertyOp13
 70
     1
102
RTVSPropertyOp14
 70
     1
102
RTVSPropertyOp15
 70
     1
102
RTVSPropertyOp16
 70
     1
102
RTVSPropertyOp17
 70
     1
102
RTVSPropertyOp18
 70
     1
102
RTVSPropertyOp19
 70
     1
102
RTVSPropertyOp20
 70
     1
102
RTVSPropertyOp21
 70
     1
102
RTVSPropertyOp22
 70
     1
102
RTVSPropertyOp23
 70
     1
102
RTVSPropertyOp24
 70
     1
102
RTVSPropertyOp25
 70
     1
102
RTVSPropertyOp26
 70
     1
102
RTVSPropertyOp27
 70
     1
  0
ENDSEC
  0
EOF
