  0
SECTION
  2
HEADER
  9
$ACADVER
  1
AC1018
  9
$ACADMAINTVER
 70
   104
  9
$DWGCODEPAGE
  3
ANSI_936
  9
$LASTSAVEDBY
  1
chaxiu.zhu
  9
$INSBASE
 10
0.0
 20
0.0
 30
0.0
  9
$EXTMIN
 10
55456.01129879306
 20
-7717.374280996458
 30
-0.00000001
  9
$EXTMAX
 10
56608.48501953096
 20
-6477.325448160596
 30
0.00000001
  9
$LIMMIN
 10
0.0
 20
0.0
  9
$LIMMAX
 10
420.0
 20
297.0
  9
$ORTHOMODE
 70
     1
  9
$REGENMODE
 70
     1
  9
$FILLMODE
 70
     1
  9
$QTEXTMODE
 70
     0
  9
$MIRRTEXT
 70
     0
  9
$LTSCALE
 40
1.0
  9
$ATTMODE
 70
     1
  9
$TEXTSIZE
 40
2.5
  9
$TRACEWID
 40
1.0
  9
$TEXTSTYLE
  7
Standard
  9
$CLAYER
  8
尺寸标注
  9
$CELTYPE
  6
ByLayer
  9
$CECOLOR
 62
   256
  9
$CELTSCALE
 40
1.0
  9
$DISPSILH
 70
     0
  9
$DIMSCALE
 40
0.7
  9
$DIMASZ
 40
20.0
  9
$DIMEXO
 40
0.0
  9
$DIMDLI
 40
3.75
  9
$DIMRND
 40
0.0
  9
$DIMDLE
 40
0.0
  9
$DIMEXE
 40
10.0
  9
$DIMTP
 40
0.0
  9
$DIMTM
 40
0.0
  9
$DIMTXT
 40
30.0
  9
$DIMCEN
 40
0.0
  9
$DIMTSZ
 40
0.0
  9
$DIMTOL
 70
     0
  9
$DIMLIM
 70
     0
  9
$DIMTIH
 70
     0
  9
$DIMTOH
 70
     1
  9
$DIMSE1
 70
     0
  9
$DIMSE2
 70
     0
  9
$DIMTAD
 70
     0
  9
$DIMZIN
 70
     8
  9
$DIMBLK
  1

  9
$DIMASO
 70
     1
  9
$DIMSHO
 70
     1
  9
$DIMPOST
  1

  9
$DIMAPOST
  1

  9
$DIMALT
 70
     0
  9
$DIMALTD
 70
     3
  9
$DIMALTF
 40
0.03937007874016
  9
$DIMLFAC
 40
1.0
  9
$DIMTOFL
 70
     1
  9
$DIMTVP
 40
0.0
  9
$DIMTIX
 70
     0
  9
$DIMSOXD
 70
     0
  9
$DIMSAH
 70
     0
  9
$DIMBLK1
  1

  9
$DIMBLK2
  1

  9
$DIMSTYLE
  2
宋体
  9
$DIMCLRD
 70
     0
  9
$DIMCLRE
 70
     0
  9
$DIMCLRT
 70
     0
  9
$DIMTFAC
 40
1.0
  9
$DIMGAP
 40
20.0
  9
$DIMJUST
 70
     0
  9
$DIMSD1
 70
     0
  9
$DIMSD2
 70
     0
  9
$DIMTOLJ
 70
     1
  9
$DIMTZIN
 70
     8
  9
$DIMALTZ
 70
     0
  9
$DIMALTTZ
 70
     0
  9
$DIMUPT
 70
     0
  9
$DIMDEC
 70
     0
  9
$DIMTDEC
 70
     0
  9
$DIMALTU
 70
     2
  9
$DIMALTTD
 70
     3
  9
$DIMTXSTY
  7
Standard
  9
$DIMAUNIT
 70
     0
  9
$DIMADEC
 70
     0
  9
$DIMALTRND
 40
0.0
  9
$DIMAZIN
 70
     0
  9
$DIMDSEP
 70
    46
  9
$DIMATFIT
 70
     3
  9
$DIMFRAC
 70
     0
  9
$DIMLDRBLK
  1

  9
$DIMLUNIT
 70
     2
  9
$DIMLWD
 70
    -2
  9
$DIMLWE
 70
    -2
  9
$DIMTMOVE
 70
     1
  9
$LUNITS
 70
     2
  9
$LUPREC
 70
     4
  9
$SKETCHINC
 40
1.0
  9
$FILLETRAD
 40
0.0
  9
$AUNITS
 70
     0
  9
$AUPREC
 70
     0
  9
$MENU
  1
.
  9
$ELEVATION
 40
0.0
  9
$PELEVATION
 40
0.0
  9
$THICKNESS
 40
0.0
  9
$LIMCHECK
 70
     0
  9
$CHAMFERA
 40
0.0
  9
$CHAMFERB
 40
0.0
  9
$CHAMFERC
 40
0.0
  9
$CHAMFERD
 40
0.0
  9
$SKPOLY
 70
     0
  9
$TDCREATE
 40
2455843.370532037
  9
$TDUCREATE
 40
2455843.037198704
  9
$TDUPDATE
 40
2458858.505929873
  9
$TDUUPDATE
 40
2458858.172596539
  9
$TDINDWG
 40
2.0214394097
  9
$TDUSRTIMER
 40
2.0214392361
  9
$USRTIMER
 70
     1
  9
$ANGBASE
 50
0.0
  9
$ANGDIR
 70
     0
  9
$PDMODE
 70
     0
  9
$PDSIZE
 40
0.0
  9
$PLINEWID
 40
0.0
  9
$SPLFRAME
 70
     0
  9
$SPLINETYPE
 70
     6
  9
$SPLINESEGS
 70
     8
  9
$HANDSEED
  5
18E
  9
$SURFTAB1
 70
     6
  9
$SURFTAB2
 70
     6
  9
$SURFTYPE
 70
     6
  9
$SURFU
 70
     6
  9
$SURFV
 70
     6
  9
$UCSBASE
  2

  9
$UCSNAME
  2

  9
$UCSORG
 10
0.0
 20
0.0
 30
0.0
  9
$UCSXDIR
 10
1.0
 20
0.0
 30
0.0
  9
$UCSYDIR
 10
0.0
 20
1.0
 30
0.0
  9
$UCSORTHOREF
  2

  9
$UCSORTHOVIEW
 70
     0
  9
$UCSORGTOP
 10
0.0
 20
0.0
 30
0.0
  9
$UCSORGBOTTOM
 10
0.0
 20
0.0
 30
0.0
  9
$UCSORGLEFT
 10
0.0
 20
0.0
 30
0.0
  9
$UCSORGRIGHT
 10
0.0
 20
0.0
 30
0.0
  9
$UCSORGFRONT
 10
0.0
 20
0.0
 30
0.0
  9
$UCSORGBACK
 10
0.0
 20
0.0
 30
0.0
  9
$PUCSBASE
  2

  9
$PUCSNAME
  2

  9
$PUCSORG
 10
0.0
 20
0.0
 30
0.0
  9
$PUCSXDIR
 10
1.0
 20
0.0
 30
0.0
  9
$PUCSYDIR
 10
0.0
 20
1.0
 30
0.0
  9
$PUCSORTHOREF
  2

  9
$PUCSORTHOVIEW
 70
     0
  9
$PUCSORGTOP
 10
0.0
 20
0.0
 30
0.0
  9
$PUCSORGBOTTOM
 10
0.0
 20
0.0
 30
0.0
  9
$PUCSORGLEFT
 10
0.0
 20
0.0
 30
0.0
  9
$PUCSORGRIGHT
 10
0.0
 20
0.0
 30
0.0
  9
$PUCSORGFRONT
 10
0.0
 20
0.0
 30
0.0
  9
$PUCSORGBACK
 10
0.0
 20
0.0
 30
0.0
  9
$USERI1
 70
     0
  9
$USERI2
 70
     0
  9
$USERI3
 70
     0
  9
$USERI4
 70
     0
  9
$USERI5
 70
     0
  9
$USERR1
 40
0.0
  9
$USERR2
 40
0.0
  9
$USERR3
 40
0.0
  9
$USERR4
 40
0.0
  9
$USERR5
 40
2.5
  9
$WORLDVIEW
 70
     1
  9
$SHADEDGE
 70
     3
  9
$SHADEDIF
 70
    70
  9
$TILEMODE
 70
     1
  9
$MAXACTVP
 70
    64
  9
$PINSBASE
 10
0.0
 20
0.0
 30
0.0
  9
$PLIMCHECK
 70
     0
  9
$PEXTMIN
 10
0.0
 20
0.0
 30
0.0
  9
$PEXTMAX
 10
0.0
 20
0.0
 30
0.0
  9
$PLIMMIN
 10
0.0
 20
0.0
  9
$PLIMMAX
 10
12.0
 20
9.0
  9
$UNITMODE
 70
     0
  9
$VISRETAIN
 70
     1
  9
$PLINEGEN
 70
     0
  9
$PSLTSCALE
 70
     1
  9
$TREEDEPTH
 70
  3020
  9
$CMLSTYLE
  2
Standard
  9
$CMLJUST
 70
     0
  9
$CMLSCALE
 40
20.0
  9
$PROXYGRAPHICS
 70
     1
  9
$MEASUREMENT
 70
     1
  9
$CELWEIGHT
370
    -1
  9
$ENDCAPS
280
     0
  9
$JOINSTYLE
280
     0
  9
$LWDISPLAY
290
     0
  9
$INSUNITS
 70
     4
  9
$HYPERLINKBASE
  1

  9
$STYLESHEET
  1

  9
$XEDIT
290
     1
  9
$CEPSNTYPE
380
     0
  9
$PSTYLEMODE
290
     1
  9
$FINGERPRINTGUID
  2
{73C84518-6573-4BA4-AEE5-5EA545BC268B}
  9
$VERSIONGUID
  2
{F13B2A28-591B-4E67-9ACF-0081F7FCB071}
  9
$EXTNAMES
290
     1
  9
$PSVPSCALE
 40
0.0
  9
$OLESTARTUP
290
     0
  9
$SORTENTS
280
   127
  9
$INDEXCTL
280
     0
  9
$HIDETEXT
280
     1
  9
$XCLIPFRAME
290
     0
  9
$HALOGAP
280
     0
  9
$OBSCOLOR
 70
   257
  9
$OBSLTYPE
280
     0
  9
$INTERSECTIONDISPLAY
280
     0
  9
$INTERSECTIONCOLOR
 70
   257
  9
$DIMASSOC
280
     2
  9
$PROJECTNAME
  1

  0
ENDSEC
  0
SECTION
  2
CLASSES
  0
CLASS
  1
ACDBDICTIONARYWDFLT
  2
AcDbDictionaryWithDefault
  3
ObjectDBX Classes
 90
        0
 91
        1
280
     0
281
     0
  0
CLASS
  1
DICTIONARYVAR
  2
AcDbDictionaryVar
  3
ObjectDBX Classes
 90
        0
 91
        2
280
     0
281
     0
  0
CLASS
  1
TABLESTYLE
  2
AcDbTableStyle
  3
ObjectDBX Classes
 90
     4095
 91
        1
280
     0
281
     0
  0
CLASS
  1
MATERIAL
  2
AcDbMaterial
  3
ObjectDBX Classes
 90
        0
 91
        3
280
     0
281
     0
  0
CLASS
  1
VISUALSTYLE
  2
AcDbVisualStyle
  3
ObjectDBX Classes
 90
     4095
 91
       16
280
     0
281
     0
  0
CLASS
  1
VLO-VL
  2
vlo_VL
  3
VL|AutoLISP based application
 90
        0
 91
        0
280
     0
281
     0
  0
CLASS
  1
SORTENTSTABLE
  2
AcDbSortentsTable
  3
ObjectDBX Classes
 90
        0
 91
        1
280
     0
281
     0
  0
CLASS
  1
DIMASSOC
  2
AcDbDimAssoc
  3
"ZcDbDimAssoc|Product Desc:     ZwDim ZRX App For Dimension|Company:          ZwSoft.|WEB Address:      www.zwsoft.com"
 90
        0
 91
        0
280
     0
281
     0
  0
CLASS
  1
LARGE_RADIAL_DIMENSION
  2
AcDbRadialDimensionLarge
  3
ObjectDBX Classes
 90
     1025
 91
        0
280
     0
281
     1
  0
CLASS
  1
SCALE
  2
AcDbScale
  3
ObjectDBX Classes
 90
     1153
 91
       33
280
     0
281
     0
  0
CLASS
  1
MLEADERSTYLE
  2
AcDbMLeaderStyle
  3
ACDB_MLEADERSTYLE_CLASS
 90
     4095
 91
        1
280
     0
281
     0
  0
CLASS
  1
CELLSTYLEMAP
  2
AcDbCellStyleMap
  3
ObjectDBX Classes
 90
     1152
 91
        1
280
     0
281
     0
  0
ENDSEC
  0
SECTION
  2
TABLES
  0
TABLE
  2
VPORT
  5
23
102
{ACAD_XDICTIONARY
360
27
102
}
330
0
100
AcDbSymbolTable
 70
     2
  0
VPORT
  5
167
330
23
100
AcDbSymbolTableRecord
100
AcDbViewportTableRecord
  2
*Active
 70
     0
 10
0.0
 20
0.0
 11
1.0
 21
1.0
 12
56629.89078244567
 22
-7176.081397142451
 13
0.0
 23
0.0
 14
10.0
 24
10.0
 15
10.0
 25
10.0
 16
0.0
 26
0.0
 36
1.0
 17
0.0
 27
0.0
 37
0.0
 40
1734.418272223548
 41
1.857503152585119
 42
50.0
 43
0.0
 44
0.0
 50
0.0
 51
0.0
 71
     0
 72
 20000
 73
     1
 74
     3
 75
     0
 76
     0
 77
     0
 78
     0
281
     0
 65
     1
110
0.0
120
0.0
130
0.0
111
1.0
121
0.0
131
0.0
112
0.0
122
1.0
132
0.0
 79
     0
146
0.0
  0
ENDTAB
  0
TABLE
  2
LTYPE
  5
1E
330
0
100
AcDbSymbolTable
 70
     1
  0
LTYPE
  5
1F
330
1E
100
AcDbSymbolTableRecord
100
AcDbLinetypeTableRecord
  2
ByBlock
 70
     0
  3

 72
    65
 73
     0
 40
0.0
  0
LTYPE
  5
20
330
1E
100
AcDbSymbolTableRecord
100
AcDbLinetypeTableRecord
  2
ByLayer
 70
     0
  3

 72
    65
 73
     0
 40
0.0
  0
LTYPE
  5
C
330
1E
100
AcDbSymbolTableRecord
100
AcDbLinetypeTableRecord
  2
Continuous
 70
     0
  3
Solid line
 72
    65
 73
     0
 40
0.0
  0
ENDTAB
  0
TABLE
  2
LAYER
  5
15
102
{ACAD_XDICTIONARY
360
16
102
}
330
0
100
AcDbSymbolTable
 70
     4
  0
LAYER
  5
6
330
15
100
AcDbSymbolTableRecord
100
AcDbLayerTableRecord
  2
0
 70
     0
 62
     7
  6
Continuous
370
    -3
390
7
  0
LAYER
  5
35
330
15
100
AcDbSymbolTableRecord
100
AcDbLayerTableRecord
  2
尺寸标注
 70
     0
 62
    80
  6
Continuous
370
    18
390
7
1001
AcAecLayerStandard
1000

1000

  0
LAYER
  5
A3
330
15
100
AcDbSymbolTableRecord
100
AcDbLayerTableRecord
  2
02___PRT_ALL_AXES
 70
     0
 62
     7
  6
Continuous
370
    -3
390
7
  0
LAYER
  5
3D
330
15
100
AcDbSymbolTableRecord
100
AcDbLayerTableRecord
  2
06___PRT_ALL_SURFS
 70
     0
 62
     7
  6
Continuous
370
    -3
390
7
  0
ENDTAB
  0
TABLE
  2
STYLE
  5
1B
330
0
100
AcDbSymbolTable
 70
     1
  0
STYLE
  5
1C
330
1B
100
AcDbSymbolTableRecord
100
AcDbTextStyleTableRecord
  2
Standard
 70
     0
 40
0.0
 41
1.0
 50
0.0
 71
     0
 42
2.5
  3

  4

1001
ACAD
1000
SimSun
1071
    34306
  0
ENDTAB
  0
TABLE
  2
VIEW
  5
21
330
0
100
AcDbSymbolTable
 70
     0
  0
ENDTAB
  0
TABLE
  2
UCS
  5
22
330
0
100
AcDbSymbolTable
 70
     0
  0
ENDTAB
  0
TABLE
  2
APPID
  5
28
330
0
100
AcDbSymbolTable
 70
     4
  0
APPID
  5
1A
330
28
100
AcDbSymbolTableRecord
100
AcDbRegAppTableRecord
  2
ACAD
 70
     0
  0
APPID
  5
10
330
28
100
AcDbSymbolTableRecord
100
AcDbRegAppTableRecord
  2
ACAD_PSEXT
 70
     0
  0
APPID
  5
36
330
28
100
AcDbSymbolTableRecord
100
AcDbRegAppTableRecord
  2
AcAecLayerStandard
 70
     0
  0
APPID
  5
18D
330
28
100
AcDbSymbolTableRecord
100
AcDbRegAppTableRecord
  2
ACAD_MLEADERVER
 70
     0
  0
ENDTAB
  0
TABLE
  2
DIMSTYLE
  5
29
330
0
100
AcDbSymbolTable
 70
     3
100
AcDbDimStyleTable
 71
     3
340
2A
340
2B
340
2C
  0
DIMSTYLE
105
2A
330
29
100
AcDbSymbolTableRecord
100
AcDbDimStyleTableRecord
  2
宋体
 70
     0
 40
0.7
 41
20.0
 42
0.0
 43
3.75
 44
10.0
 73
     0
 78
     8
140
30.0
141
0.0
143
0.03937007874016
147
20.0
171
     3
172
     1
271
     0
272
     0
274
     3
279
     1
284
     8
340
1C
  0
DIMSTYLE
105
2C
330
29
100
AcDbSymbolTableRecord
100
AcDbDimStyleTableRecord
  2
ISO-25
 70
     0
 40
20.0
 41
1.5
 42
0.625
 43
3.75
 44
0.5
 73
     0
 77
     1
 78
     8
140
2.5
141
2.5
143
0.03937007874016
147
0.3
171
     3
172
     1
271
     0
272
     0
274
     3
283
     0
284
     8
340
1C
  0
DIMSTYLE
105
2B
330
29
100
AcDbSymbolTableRecord
100
AcDbDimStyleTableRecord
  2
副本 ISO-25
 70
     0
 40
9.0
 41
1.5
 42
0.625
 43
3.75
 44
0.5
 73
     0
 74
     0
 77
     1
 78
     8
140
2.5
141
2.5
143
0.03937007874016
147
0.3
171
     3
172
     1
271
     0
272
     0
274
     3
283
     0
284
     8
340
1C
  0
ENDTAB
  0
TABLE
  2
BLOCK_RECORD
  5
1
330
0
100
AcDbSymbolTable
 70
     0
  0
BLOCK_RECORD
  5
2
102
{ACAD_XDICTIONARY
360
3
102
}
330
1
100
AcDbSymbolTableRecord
100
AcDbBlockTableRecord
  2
*Model_Space
340
E
  0
BLOCK_RECORD
  5
11
330
1
100
AcDbSymbolTableRecord
100
AcDbBlockTableRecord
  2
*Paper_Space
340
14
  0
ENDTAB
  0
ENDSEC
  0
SECTION
  2
BLOCKS
  0
BLOCK
  5
5
330
2
100
AcDbEntity
  8
0
100
AcDbBlockBegin
  2
*Model_Space
 70
     0
 10
0.0
 20
0.0
 30
0.0
  3
*Model_Space
  1

  0
ENDBLK
  5
D
330
2
100
AcDbEntity
  8
0
100
AcDbBlockEnd
  0
BLOCK
  5
12
330
11
100
AcDbEntity
 67
     1
  8
0
100
AcDbBlockBegin
  2
*Paper_Space
 70
     0
 10
0.0
 20
0.0
 30
0.0
  3
*Paper_Space
  1

  0
ENDBLK
  5
13
330
11
100
AcDbEntity
 67
     1
  8
0
100
AcDbBlockEnd
  0
ENDSEC
  0
SECTION
  2
ENTITIES
  0
LINE
  5
3B
330
2
100
AcDbEntity
  8
0
  6
Continuous
 62
     7
100
AcDbLine
 10
55456.04700812326
 20
-6849.969762390357
 30
0.0
 11
55456.05167638196
 21
-6850.000753589458
 31
0.0
  0
LWPOLYLINE
  5
3C
330
2
100
AcDbEntity
  8
06___PRT_ALL_SURFS
  6
Continuous
 62
     7
100
AcDbPolyline
 90
       28
 70
     0
 43
0.0
 10
55456.07078164646
 20
-6850.111634137359
 10
55457.39831557806
 20
-6856.766372603558
 10
55459.18849840356
 20
-6864.765832525458
 10
55461.13644978657
 20
-6872.500611010858
 10
55463.24239011886
 20
-6879.967212585658
 10
55465.50902929126
 20
-6887.164967140058
 10
55467.93993798316
 20
-6894.088928726858
 10
55470.54022757666
 20
-6900.730343296458
 10
55473.31463096856
 20
-6907.086024384058
 10
55476.27082182456
 20
-6913.145867733257
 10
55479.42386701836
 20
-6918.901783712257
 10
55482.78876369926
 20
-6924.353307374558
 10
55486.36886037376
 20
-6929.484372985358
 10
55490.16567786526
 20
-6934.283087155659
 10
55494.18170522766
 20
-6938.750167427958
 10
55498.43338090966
 20
-6942.918923625057
 10
55502.86985632877
 20
-6946.802912903958
 10
55507.41435620836
 20
-6950.398893928758
 10
55512.01319953136
 20
-6953.717917260158
 10
55516.63159677066
 20
-6956.777906886959
 10
55521.16692021637
 20
-6959.550491717457
 10
55525.51102920296
 20
-6962.011523714157
 10
55529.55641703786
 20
-6964.144112698358
 10
55533.21456304656
 20
-6965.946350156958
 10
55536.30930876666
 20
-6967.380230172058
 10
55538.64890401066
 20
-6968.411399493558
 10
55540.43533305426
 20
-6969.171264816657
 10
55544.29675680096
 20
-6970.766000054059
  0
LINE
  5
3E
330
2
100
AcDbEntity
  8
0
  6
Continuous
 62
     7
100
AcDbLine
 10
55456.07080760846
 20
-6850.111771595257
 30
0.0
 11
55456.07085302356
 21
-6850.112009117458
 31
0.0
  0
LINE
  5
3F
330
2
100
AcDbEntity
  8
0
  6
Continuous
 62
     7
100
AcDbLine
 10
55456.04700812326
 20
-6849.969762390357
 30
0.0
 11
55456.07082377596
 21
-6850.112060955258
 31
0.0
  0
LINE
  5
40
330
2
100
AcDbEntity
  8
0
  6
Continuous
 62
     7
100
AcDbLine
 10
55711.54704301946
 20
-7008.070520288558
 30
0.0
 11
55649.11888189086
 21
-7008.070520288558
 31
0.0
  0
LWPOLYLINE
  5
42
330
2
100
AcDbEntity
  8
0
  6
Continuous
 62
     7
100
AcDbPolyline
 90
        5
 70
     0
 43
0.0
 10
55722.60842382846
 20
-6972.454562420458
 10
55723.36302577896
 20
-6972.270851537458
 10
55723.85489774076
 20
-6972.192674390658
 10
55724.11007644656
 20
-6972.165200883658
 10
55724.22353852896
 20
-6972.156163069358
  0
LINE
  5
43
330
2
100
AcDbEntity
  8
0
  6
Continuous
 62
     7
100
AcDbLine
 10
55724.22537398955
 20
-6972.156029808158
 30
0.0
 11
55724.31242904046
 21
-6972.143372159258
 31
0.0
  0
LINE
  5
44
330
2
100
AcDbEntity
  8
06___PRT_ALL_SURFS
  6
Continuous
 62
     7
100
AcDbLine
 10
55735.67892153996
 20
-6971.297499174958
 30
0.0
 11
55738.38013431906
 21
-6971.070520288559
 31
0.0
  0
LINE
  5
45
330
2
100
AcDbEntity
  8
06___PRT_ALL_SURFS
  6
Continuous
 62
     7
100
AcDbLine
 10
55731.44430176906
 20
-6971.632144996958
 30
0.0
 11
55735.67892153996
 21
-6971.297499174958
 31
0.0
  0
LINE
  5
46
330
2
100
AcDbEntity
  8
06___PRT_ALL_SURFS
  6
Continuous
 62
     7
100
AcDbLine
 10
55726.89016560966
 20
-6971.968093440158
 30
0.0
 11
55731.44430176906
 21
-6971.632144996958
 31
0.0
  0
LINE
  5
47
330
2
100
AcDbEntity
  8
06___PRT_ALL_SURFS
  6
Continuous
 62
     7
100
AcDbLine
 10
55724.38052972346
 20
-6972.145212034857
 30
0.0
 11
55726.89016560966
 21
-6971.968093440158
 31
0.0
  0
LINE
  5
48
330
2
100
AcDbEntity
  8
0
  6
Continuous
 62
     7
100
AcDbLine
 10
55724.22489673455
 20
-6972.156063027758
 30
0.0
 11
55724.22537398955
 21
-6972.156029808158
 31
0.0
  0
LWPOLYLINE
  5
49
330
2
100
AcDbEntity
  8
0
  6
Continuous
 62
     7
100
AcDbPolyline
 90
       13
 70
     0
 43
0.0
 10
55636.42091040476
 20
-6972.161339039658
 10
55636.47863350156
 20
-6972.165677333357
 10
55636.84100973357
 20
-6972.202316797357
 10
55637.53820210337
 20
-6972.324061625458
 10
55638.47960176106
 20
-6972.595515011157
 10
55639.49996866906
 20
-6973.042207186158
 10
55640.52856346366
 20
-6973.685137641957
 10
55641.49674745416
 20
-6974.525752966558
 10
55642.34026597426
 20
-6975.541976038357
 10
55643.02108150916
 20
-6976.717189895857
 10
55643.50113227296
 20
-6978.019602001957
 10
55643.75069101797
 20
-6979.406825929358
 10
55643.77079557606
 20
-6979.684153453958
  0
LWPOLYLINE
  5
4A
330
2
100
AcDbEntity
  8
06___PRT_ALL_SURFS
  6
Continuous
 62
     7
100
AcDbPolyline
 90
        3
 70
     0
 43
0.0
 10
55621.53959159366
 20
-6971.070520288559
 10
55629.09863105966
 20
-6971.652148968658
 10
55636.43729308216
 20
-6972.162452348658
  0
LINE
  5
4B
330
2
100
AcDbEntity
  8
0
  6
Continuous
 62
     7
100
AcDbLine
 10
55645.12492550106
 20
-7004.290321008157
 30
0.0
 11
55643.77073447396
 21
-6979.683577617858
 31
0.0
  0
LINE
  5
4C
330
2
100
AcDbEntity
  8
0
  6
Continuous
 62
     7
100
AcDbLine
 10
55716.89518707626
 20
-6979.683638641458
 30
0.0
 11
55716.89515376626
 21
-6979.683294554257
 31
0.0
  0
LINE
  5
4D
330
2
100
AcDbEntity
  8
0
  6
Continuous
 62
     7
100
AcDbLine
 10
55715.54099940926
 20
-7004.290321008157
 30
0.0
 11
55716.89518747116
 21
-6979.683631496659
 31
0.0
  0
LWPOLYLINE
  5
4E
330
2
100
AcDbEntity
  8
0
  6
Continuous
 62
     7
100
AcDbPolyline
 90
       10
 70
     0
 43
0.0
 10
55716.89518697535
 20
-6979.683618864157
 10
55716.96859603356
 20
-6978.956778427458
 10
55717.25538464656
 20
-6977.711243692358
 10
55717.72358535026
 20
-6976.553842427958
 10
55718.34607042066
 20
-6975.511769064258
 10
55719.09148494916
 20
-6974.604688199459
 10
55719.92640387186
 20
-6973.844172794358
 10
55720.81561992236
 20
-6973.234939951558
 10
55721.72419200816
 20
-6972.774050045757
 10
55722.60842382846
 20
-6972.454562420458
  0
LINE
  5
4F
330
2
100
AcDbEntity
  8
0
  6
Continuous
 62
     7
100
AcDbLine
 10
55901.25585741706
 20
-6846.070533669458
 30
0.0
 11
55459.39401060596
 21
-6846.070395178859
 31
0.0
  0
LWPOLYLINE
  5
50
330
2
100
AcDbEntity
  8
06___PRT_ALL_SURFS
  6
Continuous
 62
     7
100
AcDbPolyline
 90
       27
 70
     0
 43
0.0
 10
55818.98984425876
 20
-6969.687604762658
 10
55820.44475754066
 20
-6969.081284581157
 10
55822.27808076137
 20
-6968.298459740158
 10
55824.72031856026
 20
-6967.215937097858
 10
55828.06004747036
 20
-6965.654622327258
 10
55832.05528475357
 20
-6963.658845308758
 10
55836.44308508846
 20
-6961.300677840057
 10
55841.10368764436
 20
-6958.594191189257
 10
55845.92159374096
 20
-6955.557997934758
 10
55850.73393039997
 20
-6952.252120500358
 10
55855.47773048576
 20
-6948.680494357557
 10
55860.12718739936
 20
-6944.813817981658
 10
55864.61365595236
 20
-6940.646564217757
 10
55868.85665081176
 20
-6936.181021648359
 10
55872.85889755506
 20
-6931.374184667558
 10
55876.62991802596
 20
-6926.213921682059
 10
55880.17490368506
 20
-6920.702696409758
 10
55883.49372328266
 20
-6914.861353054458
 10
55886.59988093357
 20
-6908.692395386357
 10
55889.50949134586
 20
-6902.202590434058
 10
55892.23288559576
 20
-6895.405012572658
 10
55894.77464552216
 20
-6888.304712425358
 10
55897.14028469806
 20
-6880.910639257158
 10
55899.33370624266
 20
-6873.230897915758
 10
55901.35786006326
 20
-6865.267114886457
 10
55903.21339031136
 20
-6857.023696024057
 10
55904.59542733656
 20
-6850.110130065058
  0
LINE
  5
51
330
2
100
AcDbEntity
  8
06___PRT_ALL_SURFS
  6
Continuous
 62
     7
100
AcDbLine
 10
55816.36918799236
 20
-6970.765991817458
 30
0.0
 11
55818.98984425876
 21
-6969.687604762658
 31
0.0
  0
LWPOLYLINE
  5
52
330
2
100
AcDbEntity
  8
0
  6
Continuous
 62
     7
100
AcDbPolyline
 90
        6
 70
     0
 43
0.0
 10
55459.39401060596
 20
-6846.070395178859
 10
55457.99375017616
 20
-6846.377355027158
 10
55456.86017069987
 20
-6847.219708080958
 10
55456.18101030856
 20
-6848.407645319257
 10
55456.01331748696
 20
-6849.601451767258
 10
55456.05168919396
 20
-6850.000751653057
  0
LINE
  5
53
330
2
100
AcDbEntity
  8
0
  6
Continuous
 62
     7
100
AcDbLine
 10
55902.43085167936
 20
-6846.282633627757
 30
0.0
 11
55901.25585741706
 21
-6846.070533669458
 31
0.0
  0
LINE
  5
54
330
2
100
AcDbEntity
  8
0
  6
Continuous
 62
     7
100
AcDbLine
 10
55903.45199656717
 20
-6846.879831126859
 30
0.0
 11
55902.34442727957
 21
-6846.251925874658
 31
0.0
  0
LINE
  5
55
330
2
100
AcDbEntity
  8
0
  6
Continuous
 62
     7
100
AcDbLine
 10
55903.45298519737
 20
-6846.880680913457
 30
0.0
 11
55902.43085167936
 21
-6846.282633627757
 31
0.0
  0
LINE
  5
56
330
2
100
AcDbEntity
  8
0
  6
Continuous
 62
     7
100
AcDbLine
 10
55904.59555373317
 20
-6850.109457605059
 30
0.0
 11
55904.59554073266
 21
-6850.109529660558
 31
0.0
  0
LINE
  5
57
330
2
100
AcDbEntity
  8
0
  6
Continuous
 62
     7
100
AcDbLine
 10
55904.59546544156
 20
-6850.110144850858
 30
0.0
 11
55904.61265697176
 21
-6848.944411045258
 31
0.0
  0
LINE
  5
58
330
2
100
AcDbEntity
  8
0
  6
Continuous
 62
     7
100
AcDbLine
 10
55904.21758478997
 20
-6847.808194895458
 30
0.0
 11
55903.45199656717
 21
-6846.879831126859
 31
0.0
  0
LINE
  5
59
330
2
100
AcDbEntity
  8
0
  6
Continuous
 62
     7
100
AcDbLine
 10
55904.61265697176
 20
-6848.944411045258
 30
0.0
 11
55904.21758478997
 21
-6847.808194895458
 31
0.0
  0
LWPOLYLINE
  5
5A
330
2
100
AcDbEntity
  8
0
  6
Continuous
 62
     7
100
AcDbPolyline
 90
        3
 70
     0
 43
0.0
 10
56159.08781398006
 20
-6848.599636181758
 10
56158.68019500395
 20
-6850.197565380558
 10
56158.67419885685
 20
-6850.604467054158
  0
LINE
  5
5B
330
2
100
AcDbEntity
  8
0
  6
Continuous
 62
     7
100
AcDbLine
 10
56160.05584911206
 20
-6847.264219931957
 30
0.0
 11
56159.08781398006
 21
-6848.599636181758
 31
0.0
  0
LINE
  5
5C
330
2
100
AcDbEntity
  8
0
  6
Continuous
 62
     7
100
AcDbLine
 10
56161.44789443556
 20
-6846.379683524958
 30
0.0
 11
56160.05584911206
 21
-6847.264219931957
 31
0.0
  0
LINE
  5
5D
330
2
100
AcDbEntity
  8
0
  6
Continuous
 62
     7
100
AcDbLine
 10
56414.77697713936
 20
-7008.070520288558
 30
0.0
 11
56352.34881601066
 21
-7008.070520288558
 31
0.0
  0
LINE
  5
5F
330
2
100
AcDbEntity
  8
0
  6
Continuous
 62
     7
100
AcDbLine
 10
56427.54174933166
 20
-6972.143414085358
 30
0.0
 11
56427.54227379616
 21
-6972.143351962758
 31
0.0
  0
LINE
  5
60
330
2
100
AcDbEntity
  8
06___PRT_ALL_SURFS
  6
Continuous
 62
     7
100
AcDbLine
 10
56427.54198305666
 20
-6972.143397368258
 30
0.0
 11
56440.29534947036
 21
-6971.070520288559
 31
0.0
  0
LINE
  5
61
330
2
100
AcDbEntity
  8
0
  6
Continuous
 62
     7
100
AcDbLine
 10
56490.81929402687
 20
-6971.070528076959
 30
0.0
 11
56490.82097583886
 21
-6971.070520288559
 31
0.0
  0
LINE
  5
62
330
2
100
AcDbEntity
  8
0
  6
Continuous
 62
     7
100
AcDbLine
 10
56190.67238166477
 20
-6971.070520288559
 30
0.0
 11
56517.85279617985
 21
-6971.070520288559
 31
0.0
  0
LINE
  5
63
330
2
100
AcDbEntity
  8
0
  6
Continuous
 62
     7
100
AcDbLine
 10
56366.02875812807
 20
-6979.525451432458
 30
0.0
 11
56365.83191528417
 21
-6979.521487028257
 31
0.0
  0
LINE
  5
64
330
2
100
AcDbEntity
  8
0
  6
Continuous
 62
     7
100
AcDbLine
 10
56427.54231684296
 20
-6972.143389500357
 30
0.0
 11
56427.54072230106
 21
-6972.143302686759
 31
0.0
  0
LINE
  5
65
330
2
100
AcDbEntity
  8
0
  6
Continuous
 62
     7
100
AcDbLine
 10
56420.12513405446
 20
-6979.683405026058
 30
0.0
 11
56420.12387364657
 21
-6979.683319608658
 31
0.0
  0
LINE
  5
66
330
2
100
AcDbEntity
  8
0
  6
Continuous
 62
     7
100
AcDbLine
 10
56348.35485962086
 20
-7004.290321008157
 30
0.0
 11
56348.20331825816
 21
-7001.536692199159
 31
0.0
  0
LINE
  5
67
330
2
100
AcDbEntity
  8
0
  6
Continuous
 62
     7
100
AcDbLine
 10
56420.12513405446
 20
-6979.683405026058
 30
0.0
 11
56418.77093352916
 21
-7004.290321008157
 31
0.0
  0
LINE
  5
68
330
2
100
AcDbEntity
  8
0
  6
Continuous
 62
     7
100
AcDbLine
 10
56420.59832750646
 20
-6977.379105148658
 30
0.0
 11
56420.12513405446
 21
-6979.683405026058
 31
0.0
  0
LWPOLYLINE
  5
69
330
2
100
AcDbEntity
  8
0
  6
Continuous
 62
     7
100
AcDbPolyline
 90
       18
 70
     0
 43
0.0
 10
56420.59829530956
 20
-6977.379088630558
 10
56420.64540635756
 20
-6977.253349561057
 10
56420.92593376816
 20
-6976.609313686657
 10
56421.25628247446
 20
-6976.001665282358
 10
56421.63094178106
 20
-6975.434401409057
 10
56422.04405586746
 20
-6974.910705846558
 10
56422.48954433836
 20
-6974.432930216058
 10
56422.96121951646
 20
-6974.002595083958
 10
56423.45289792476
 20
-6973.620408696858
 10
56423.95850539106
 20
-6973.286300409458
 10
56424.47217043336
 20
-6972.999469756757
 10
56424.98827075236
 20
-6972.758461984158
 10
56425.50059623526
 20
-6972.561537055257
 10
56426.00223293716
 20
-6972.406456108958
 10
56426.48646643256
 20
-6972.290071283058
 10
56426.94294319007
 20
-6972.209004796258
 10
56427.35684753295
 20
-6972.158799113358
 10
56427.54188383456
 20
-6972.143401558958
  0
LINE
  5
6A
330
2
100
AcDbEntity
  8
0
  6
Continuous
 62
     7
100
AcDbLine
 10
56604.65606374225
 20
-6846.071743973358
 30
0.0
 11
56604.79488613305
 21
-6846.070770732459
 31
0.0
  0
LINE
  5
6B
330
2
100
AcDbEntity
  8
0
  6
Continuous
 62
     7
100
AcDbLine
 10
56604.74928494666
 20
-6846.070528715959
 30
0.0
 11
56163.06812681376
 21
-6846.070530719159
 31
0.0
  0
LINE
  5
6C
330
2
100
AcDbEntity
  8
0
  6
Continuous
 62
     7
100
AcDbLine
 10
56318.82706740427
 20
-6846.070520286457
 30
0.0
 11
56318.82683358176
 21
-6846.070519924457
 31
0.0
  0
LINE
  5
6D
330
2
100
AcDbEntity
  8
0
  6
Continuous
 62
     7
100
AcDbLine
 10
56604.76525798216
 20
-6846.070551218558
 30
0.0
 11
56604.79488606355
 21
-6846.070775952057
 31
0.0
  0
LINE
  5
6E
330
2
100
AcDbEntity
  8
0
  6
Continuous
 62
     7
100
AcDbLine
 10
56163.06798561846
 20
-6846.070520364458
 30
0.0
 11
56161.44789443556
 21
-6846.379683524958
 31
0.0
  0
LINE
  5
6F
330
2
100
AcDbEntity
  8
0
  6
Continuous
 62
     7
100
AcDbLine
 10
56606.05186806116
 20
-6846.304253391358
 30
0.0
 11
56604.76525798216
 21
-6846.070551218558
 31
0.0
  0
LINE
  5
70
330
2
100
AcDbEntity
  8
0
  6
Continuous
 62
     7
100
AcDbLine
 10
56607.17972522106
 20
-6846.967961237758
 30
0.0
 11
56606.05186806116
 21
-6846.304253391358
 31
0.0
  0
LINE
  5
71
330
2
100
AcDbEntity
  8
0
  6
Continuous
 62
     7
100
AcDbLine
 10
56608.00938693646
 20
-6847.980374546859
 30
0.0
 11
56607.17972522106
 21
-6846.967961237758
 31
0.0
  0
LINE
  5
72
330
2
100
AcDbEntity
  8
0
  6
Continuous
 62
     7
100
AcDbLine
 10
56608.48392105956
 20
-6849.894670121958
 30
0.0
 11
56608.43856291696
 21
-6849.216735829857
 31
0.0
  0
LINE
  5
73
330
2
100
AcDbEntity
  8
0
  6
Continuous
 62
     7
100
AcDbLine
 10
56608.43856291696
 20
-6849.216735829857
 30
0.0
 11
56608.00938693646
 21
-6847.980374546859
 31
0.0
  0
LWPOLYLINE
  5
74
330
2
100
AcDbEntity
  8
0
  6
Continuous
 62
     7
100
AcDbPolyline
 90
       15
 70
     0
 43
0.0
 10
55680.33294228516
 20
-7717.374280996458
 10
55710.64112425776
 20
-7716.768932482057
 10
55740.71232311466
 20
-7714.549114093158
 10
55769.14231101506
 20
-7710.409334018658
 10
55795.62584255626
 20
-7704.315283268058
 10
55819.74616201996
 20
-7696.013268193458
 10
55840.88207235136
 20
-7685.093005137457
 10
55858.68786679355
 20
-7670.894778617458
 10
55872.76950296386
 20
-7652.998999837457
 10
55883.57387709436
 20
-7631.809991764758
 10
55891.77581875696
 20
-7607.660550974959
 10
55897.79743022496
 20
-7581.167402505058
 10
55901.87623883066
 20
-7552.732138145057
 10
55904.05941391956
 20
-7522.660805743658
 10
55904.65462082616
 20
-7492.451619203858
  0
LINE
  5
75
330
2
100
AcDbEntity
  8
0
  6
Continuous
 62
     7
100
AcDbLine
 10
55678.40918061196
 20
-7717.372247459557
 30
0.0
 11
55680.33294245346
 21
-7717.374275894158
 31
0.0
  0
LWPOLYLINE
  5
76
330
2
100
AcDbEntity
  8
0
  6
Continuous
 62
     7
100
AcDbPolyline
 90
       15
 70
     0
 43
0.0
 10
55456.01131786186
 20
-7492.411268084757
 10
55456.58299389956
 20
-7522.569042276058
 10
55458.74454282776
 20
-7552.490934245358
 10
55462.78690649196
 20
-7580.786332402458
 10
55468.74601550296
 20
-7607.154577190858
 10
55476.84462013986
 20
-7631.204327272958
 10
55487.49229277546
 20
-7652.337325705757
 10
55501.35800845676
 20
-7670.251214297758
 10
55518.94599143976
 20
-7684.544384345257
 10
55539.89482454117
 20
-7695.572194764858
 10
55563.84745534557
 20
-7703.973235645559
 10
55590.17180608447
 20
-7710.153886472759
 10
55618.44405669436
 20
-7714.382779850758
 10
55648.35785744726
 20
-7716.693637861458
 10
55678.40918044396
 20
-7717.372246190658
  0
LWPOLYLINE
  5
77
330
2
100
AcDbEntity
  8
0
  6
Continuous
 62
     7
100
AcDbPolyline
 90
        4
 70
     0
 43
0.0
 10
55459.41478900227
 20
-7427.234566515358
 10
55457.55616342677
 20
-7446.446932931057
 10
55456.37576781836
 20
-7468.984859407157
 10
55456.01129879306
 20
-7492.411265225157
  0
LINE
  5
78
330
2
100
AcDbEntity
  8
0
  6
Continuous
 62
     7
100
AcDbLine
 10
55459.49686139596
 20
-7426.547822380458
 30
0.0
 11
55459.41478968306
 21
-7427.234613036858
 31
0.0
  0
LWPOLYLINE
  5
79
330
2
100
AcDbEntity
  8
0
  6
Continuous
 62
     7
100
AcDbPolyline
 90
       16
 70
     0
 43
0.0
 10
55680.08254193886
 20
-7267.561283335258
 10
55655.41848534816
 20
-7267.945306034758
 10
55630.92729178336
 20
-7269.301765827258
 10
55607.76677779076
 20
-7271.793117790657
 10
55585.96849914876
 20
-7275.452595027458
 10
55565.58310275756
 20
-7280.274426583858
 10
55546.68967682276
 20
-7286.385911992458
 10
55529.35169646736
 20
-7294.074140794558
 10
55513.65142054526
 20
-7303.739861118959
 10
55499.97287165155
 20
-7315.803973302057
 10
55488.72813921295
 20
-7330.300396617658
 10
55479.76633265086
 20
-7346.687566081357
 10
55472.66558424325
 20
-7364.663593110558
 10
55467.04962966806
 20
-7384.132773228859
 10
55462.64674997466
 20
-7405.124102928557
 10
55459.49607003256
 20
-7426.553829586758
  0
LINE
  5
7A
330
2
100
AcDbEntity
  8
0
  6
Continuous
 62
     7
100
AcDbLine
 10
55680.97906137766
 20
-7267.561488682358
 30
0.0
 11
55680.08254186056
 21
-7267.561295346958
 31
0.0
  0
LWPOLYLINE
  5
7B
330
2
100
AcDbEntity
  8
0
  6
Continuous
 62
     7
100
AcDbPolyline
 90
        4
 70
     0
 43
0.0
 10
55904.65462758067
 20
-7492.451620551458
 10
55904.31525416106
 20
-7468.913548234159
 10
55903.13912082526
 20
-7446.368081886259
 10
55901.27804144656
 20
-7427.253766645559
  0
LWPOLYLINE
  5
7C
330
2
100
AcDbEntity
  8
0
  6
Continuous
 62
     7
100
AcDbPolyline
 90
       15
 70
     0
 43
0.0
 10
55901.18692846096
 20
-7426.493968099357
 10
55897.73186797246
 20
-7403.445326438959
 10
55892.87623016066
 20
-7381.171104636059
 10
55886.59661037676
 20
-7360.628484679458
 10
55878.53439038346
 20
-7341.807918467359
 10
55868.19853102577
 20
-7324.868116691257
 10
55855.13747397996
 20
-7310.337978800058
 10
55839.42881549966
 20
-7298.657896826259
 10
55821.67354483926
 20
-7289.497586937058
 10
55802.11738141486
 20
-7282.331537735259
 10
55780.81205448707
 20
-7276.741496811658
 10
55757.86426558886
 20
-7272.505552183459
 10
55733.34321069086
 20
-7269.605391099258
 10
55707.29308671906
 20
-7268.016715101558
 10
55680.97906250026
 20
-7267.561489604559
  0
LINE
  5
7D
330
2
100
AcDbEntity
  8
0
  6
Continuous
 62
     7
100
AcDbLine
 10
55901.27801677507
 20
-7427.253703071558
 30
0.0
 11
55901.18685949276
 21
-7426.493977757957
 31
0.0
  0
ARC
  5
7E
330
2
100
AcDbEntity
  8
0
  6
Continuous
 62
     7
100
AcDbCircle
 10
55724.84406119786
 20
-6980.084559689759
 30
0.0
 40
7.9452938835
100
AcDbArc
 50
134.9931208093394
 51
135.7270832778465
  0
ARC
  5
7F
330
2
100
AcDbEntity
  8
0
  6
Continuous
 62
     7
100
AcDbCircle
 10
55724.79604873466
 20
-6980.080863067958
 30
0.0
 40
7.903412776699999
100
AcDbArc
 50
155.4863832482087
 51
157.1760767296998
  0
ARC
  5
80
330
2
100
AcDbEntity
  8
0
  6
Continuous
 62
     7
100
AcDbCircle
 10
55724.83648141226
 20
-6980.029878392459
 30
0.0
 40
7.8960026019
100
AcDbArc
 50
114.3716323091443
 51
115.3381369781334
  0
ARC
  5
81
330
2
100
AcDbEntity
  8
0
  6
Continuous
 62
     7
100
AcDbCircle
 10
55724.87214392066
 20
-6979.969435626458
 30
0.0
 40
7.8461373913
100
AcDbArc
 50
94.09158329311189
 51
94.73351767533591
  0
ARC
  5
82
330
2
100
AcDbEntity
  8
0
  6
Continuous
 62
     7
100
AcDbCircle
 10
55814.83831965686
 20
-6967.070520288558
 30
0.0
 40
4.0
100
AcDbArc
 50
270.0
 51
292.5024770407458
  0
ARC
  5
83
330
2
100
AcDbEntity
  8
0
  6
Continuous
 62
     7
100
AcDbCircle
 10
55545.82760629486
 20
-6967.070520288558
 30
0.0
 40
4.0
100
AcDbArc
 50
247.4973997605273
 51
270.0
  0
ARC
  5
84
330
2
100
AcDbEntity
  8
0
  6
Continuous
 62
     7
100
AcDbCircle
 10
55649.11888189086
 20
-7004.070520288559
 30
0.0
 40
4.0
100
AcDbArc
 50
183.1499999999894
 51
270.0
  0
ARC
  5
85
330
2
100
AcDbEntity
  8
0
  6
Continuous
 62
     7
100
AcDbCircle
 10
55711.54704301946
 20
-7004.070520288559
 30
0.0
 40
4.0
100
AcDbArc
 50
270.0
 51
356.8500000000106
  0
ARC
  5
86
330
2
100
AcDbEntity
  8
0
  6
Continuous
 62
     7
100
AcDbCircle
 10
55901.24746745906
 20
-6849.477674362659
 30
0.0
 40
3.407153642399999
100
AcDbArc
 50
349.3033056844526
 51
89.73609596195418
  0
ARC
  5
87
330
2
100
AcDbEntity
  8
0
  6
Continuous
 62
     7
100
AcDbCircle
 10
56374.60090928496
 20
-6933.523792203158
 30
0.0
 40
40.2829364516
100
AcDbArc
 50
249.2847774272259
 51
252.8349829525115
  0
ARC
  5
88
330
2
100
AcDbEntity
  8
0
  6
Continuous
 62
     7
100
AcDbCircle
 10
56340.21552885106
 20
-7001.976371335757
 30
0.0
 40
7.9999786924
100
AcDbArc
 50
3.150604188009586
 51
77.72528058753569
  0
ARC
  5
89
330
2
100
AcDbEntity
  8
0
  6
Continuous
 62
     7
100
AcDbCircle
 10
56352.34881601066
 20
-7004.070520288559
 30
0.0
 40
4.0
100
AcDbArc
 50
183.1500000105976
 51
270.0
  0
ARC
  5
8A
330
2
100
AcDbEntity
  8
0
  6
Continuous
 62
     7
100
AcDbCircle
 10
56190.67237669437
 20
-6967.070520288558
 30
0.0
 40
4.0
100
AcDbArc
 50
213.7647676035541
 51
270.0000711958842
  0
ARC
  5
8D
330
2
100
AcDbEntity
  8
0
  6
Continuous
 62
     7
100
AcDbCircle
 10
56163.06716849186
 20
-6850.465649712058
 30
0.0
 40
4.395129552799999
100
AcDbArc
 50
90.15037096101872
 51
181.809128961477
  0
ARC
  5
8E
330
2
100
AcDbEntity
  8
0
  6
Continuous
 62
     7
100
AcDbCircle
 10
56428.17617006146
 20
-6980.137409069158
 30
0.0
 40
8.0651102318
100
AcDbArc
 50
159.936520424532
 51
176.7723640914851
  0
ARC
  5
8F
330
2
100
AcDbEntity
  8
0
  6
Continuous
 62
     7
100
AcDbCircle
 10
56428.11328877716
 20
-6980.122764460258
 30
0.0
 40
7.9997771196
100
AcDbArc
 50
94.09287939303785
 51
159.9432168968931
  0
ARC
  5
90
330
2
100
AcDbEntity
  8
0
  6
Continuous
 62
     7
100
AcDbCircle
 10
56428.07227904816
 20
-6980.100956517559
 30
0.0
 40
7.955018713899999
100
AcDbArc
 50
156.1901566044916
 51
159.9264326465148
  0
ARC
  5
91
330
2
100
AcDbEntity
  8
0
  6
Continuous
 62
     7
100
AcDbCircle
 10
56414.77697713936
 20
-7004.070520288559
 30
0.0
 40
4.0
100
AcDbArc
 50
270.0
 51
356.8499999894024
  0
ARC
  5
92
330
2
100
AcDbEntity
  8
0
  6
Continuous
 62
     7
100
AcDbCircle
 10
56517.85279757706
 20
-6967.070520288558
 30
0.0
 40
4.0
100
AcDbArc
 50
269.9999799875957
 51
290.2672528094903
  0
ARC
  5
93
330
2
100
AcDbEntity
  8
0
  6
Continuous
 62
     7
100
AcDbCircle
 10
56604.75164339016
 20
-6849.803896385158
 30
0.0
 40
3.733376130799999
100
AcDbArc
 50
358.6067995202055
 51
90.00118868094991
  0
ARC
  5
96
330
2
100
AcDbEntity
  8
0
  6
Continuous
 62
     7
100
AcDbCircle
 10
58217.96641574556
 20
-7086.238843256357
 30
0.0
 40
1855.2064041286
100
AcDbArc
 50
176.7023447283376
 51
177.0323885890969
  0
ARC
  5
97
330
2
100
AcDbEntity
  8
0
  6
Continuous
 62
     7
100
AcDbCircle
 10
58020.93760772637
 20
-7105.264554842858
 30
0.0
 40
1663.767090811
100
AcDbArc
 50
175.6519071156926
 51
176.0203498573325
  0
ARC
  5
98
330
2
100
AcDbEntity
  8
0
  6
Continuous
 62
     7
100
AcDbCircle
 10
56039.95986459386
 20
-7365.237357421257
 30
0.0
 40
160.4391431241
100
AcDbArc
 50
202.5416558574616
 51
203.3029826006447
  0
ARC
  5
99
330
2
100
AcDbEntity
  8
0
  6
Continuous
 62
     7
100
AcDbCircle
 10
55940.59899217336
 20
-7561.995126980957
 30
0.0
 40
141.6354992271
100
AcDbArc
 50
109.1942012613283
 51
109.8027088921826
  0
ARC
  5
9A
330
2
100
AcDbEntity
  8
0
  6
Continuous
 62
     7
100
AcDbCircle
 10
55381.70147765976
 20
-7390.250676158058
 30
0.0
 40
95.14339764450001
100
AcDbArc
 50
336.1206132787037
 51
337.485896477657
  0
CIRCLE
  5
9B
330
2
100
AcDbEntity
  8
0
  6
Continuous
 62
     7
100
AcDbCircle
 10
55680.33296245516
 20
-7492.452152982558
 30
0.0
 40
35.8943305435
  0
CIRCLE
  5
9C
330
2
100
AcDbEntity
  8
0
  6
Continuous
 62
     7
100
AcDbCircle
 10
55680.33296245516
 20
-7492.452152982558
 30
0.0
 40
32.5812303024
  0
ARC
  5
9D
330
2
100
AcDbEntity
  8
0
  6
Continuous
 62
     7
100
AcDbCircle
 10
55919.15619862616
 20
-7422.542605096857
 30
0.0
 40
27.2539475862
100
AcDbArc
 50
188.7472278859088
 51
193.1036370184109
  0
ARC
  5
9E
330
2
100
AcDbEntity
  8
0
  6
Continuous
 62
     7
100
AcDbCircle
 10
55443.91828732636
 20
-7423.024214808258
 30
0.0
 40
25.4387237247
100
AcDbArc
 50
346.9555325137604
 51
351.8634750027987
  0
ARC
  5
9F
330
2
100
AcDbEntity
  8
0
  6
Continuous
 62
     7
100
AcDbCircle
 10
55918.85676187057
 20
-7424.824638507658
 30
0.0
 40
25.0561394844
100
AcDbArc
 50
185.8143004263878
 51
187.8273039540917
  0
ARC
  5
A0
330
2
100
AcDbEntity
  8
0
  6
Continuous
 62
     7
100
AcDbCircle
 10
55443.24386520107
 20
-7425.117125943758
 30
0.0
 40
23.6854576846
100
AcDbArc
 50
352.5057268220807
 51
354.4287718415188
  0
CIRCLE
  5
A1
330
2
100
AcDbEntity
  8
0
  6
Continuous
 62
     7
100
AcDbCircle
 10
55680.33296245516
 20
-7492.452152982558
 30
0.0
 40
22.25
  0
CIRCLE
  5
A2
330
2
100
AcDbEntity
  8
02___PRT_ALL_AXES
  6
Continuous
 62
     7
100
AcDbCircle
 10
55680.33296245516
 20
-7352.452152982557
 30
0.0
 40
17.5
  0
SPLINE
  5
A4
330
2
100
AcDbEntity
  8
0
  6
Continuous
 62
     7
100
AcDbSpline
210
0.0
220
0.0
230
1.0
 70
     8
 71
     3
 72
     9
 73
     5
 74
     0
 42
0.0000000001
 43
0.0000000001
 40
0.0
 40
0.0
 40
0.0
 40
0.0
 40
0.2527789896
 40
1.0
 40
1.0
 40
1.0
 40
1.0
 10
55680.33296245516
 20
-6970.822868119357
 30
0.0
 10
55686.61106968035
 20
-6970.822863280059
 30
0.0
 10
55711.44741871766
 20
-6970.823099980659
 30
0.0
 10
55736.28376769816
 20
-6970.836919157557
 30
0.0
 10
55754.84200124906
 20
-6970.854476050158
 30
0.0
  0
LINE
  5
A5
330
2
100
AcDbEntity
  8
0
  6
Continuous
 62
     7
100
AcDbLine
 10
55754.84200124906
 20
-6970.854476050158
 30
0.0
 11
55769.98018059827
 21
-6970.868672964758
 31
0.0
  0
LINE
  5
A6
330
2
100
AcDbEntity
  8
0
  6
Continuous
 62
     7
100
AcDbLine
 10
55769.98018059827
 20
-6970.868672964758
 30
0.0
 11
55770.38513582066
 21
-6970.869037785658
 31
0.0
  0
SPLINE
  5
A7
330
2
100
AcDbEntity
  8
0
  6
Continuous
 62
     7
100
AcDbSpline
210
0.0
220
0.0
230
1.0
 70
     8
 71
     3
 72
     9
 73
     5
 74
     0
 42
0.0000000001
 43
0.0000000001
 40
0.0
 40
0.0
 40
0.0
 40
0.0
 40
0.265118719
 40
1.0
 40
1.0
 40
1.0
 40
1.0
 10
55770.38513582066
 20
-6970.869037785658
 30
0.0
 10
55771.86064230296
 20
-6970.870364449957
 30
0.0
 10
55777.42609801736
 20
-6970.875253617157
 30
0.0
 10
55782.99155520515
 20
-6970.879102597058
 30
0.0
 10
55787.08150600056
 20
-6970.879813959058
 30
0.0
  0
LINE
  5
A8
330
2
100
AcDbEntity
  8
0
  6
Continuous
 62
     7
100
AcDbLine
 10
55787.08150600056
 20
-6970.879813959058
 30
0.0
 11
55789.13748368296
 21
-6970.879973724759
 31
0.0
  0
SPLINE
  5
A9
330
2
100
AcDbEntity
  8
0
  6
Continuous
 62
     7
100
AcDbSpline
210
0.0
220
0.0
230
1.0
 70
     8
 71
     3
 72
     9
 73
     5
 74
     0
 42
0.0000000001
 43
0.0000000001
 40
0.0
 40
0.0
 40
0.0
 40
0.0
 40
0.2603952542
 40
1.0
 40
1.0
 40
1.0
 40
1.0
 10
55789.13748368296
 20
-6970.879973724759
 30
0.0
 10
55789.51004135286
 20
-6970.879964453458
 30
0.0
 10
55790.94078044266
 20
-6970.879844180458
 30
0.0
 10
55792.37151950396
 20
-6970.879355605858
 30
0.0
 10
55793.42970077085
 20
-6970.878779034858
 30
0.0
  0
LINE
  5
AA
330
2
100
AcDbEntity
  8
0
  6
Continuous
 62
     7
100
AcDbLine
 10
55793.42970077085
 20
-6970.878779034858
 30
0.0
 11
55806.96654206366
 21
-6970.861760538058
 31
0.0
  0
LINE
  5
AB
330
2
100
AcDbEntity
  8
0
  6
Continuous
 62
     7
100
AcDbLine
 10
55806.96654206366
 20
-6970.861760538058
 30
0.0
 11
55808.74953353186
 21
-6970.859048001457
 31
0.0
  0
LINE
  5
AC
330
2
100
AcDbEntity
  8
0
  6
Continuous
 62
     7
100
AcDbLine
 10
55808.74953353186
 20
-6970.859048001457
 30
0.0
 11
55813.36948559855
 21
-6970.853198007758
 31
0.0
  0
SPLINE
  5
AD
330
2
100
AcDbEntity
  8
0
  6
Continuous
 62
     7
100
AcDbSpline
210
0.0
220
0.0
230
1.0
 70
     8
 71
     3
 72
    11
 73
     7
 74
     0
 42
0.0000000001
 43
0.0000000001
 40
0.0
 40
0.0
 40
0.0
 40
0.0
 40
0.5244690957
 40
0.7903059848
 40
0.9206846432999999
 40
1.0
 40
1.0
 40
1.0
 40
1.0
 10
55813.36948559855
 20
-6970.853198007758
 30
0.0
 10
55813.88711369376
 20
-6970.852243032457
 30
0.0
 10
55814.66681921567
 20
-6970.848875954158
 30
0.0
 10
55815.57615716666
 20
-6970.843723976958
 30
0.0
 10
55816.04431593927
 20
-6970.820578393757
 30
0.0
 10
55816.25133159707
 20
-6970.798958941258
 30
0.0
 10
55816.32714485797
 20
-6970.779458865158
 30
0.0
  0
SPLINE
  5
AE
330
2
100
AcDbEntity
  8
0
  6
Continuous
 62
     7
100
AcDbSpline
210
0.0
220
0.0
230
1.0
 70
     8
 71
     3
 72
     8
 73
     4
 74
     0
 42
0.0000000001
 43
0.0000000001
 40
0.0
 40
0.0
 40
0.0
 40
0.0
 40
1.0
 40
1.0
 40
1.0
 40
1.0
 10
55816.32714485797
 20
-6970.779458865158
 30
0.0
 10
55816.34140168336
 20
-6970.775791839358
 30
0.0
 10
55816.35559909846
 20
-6970.771610857058
 30
0.0
 10
55816.36919954026
 20
-6970.765977728958
 30
0.0
  0
SPLINE
  5
B0
330
2
100
AcDbEntity
  8
0
  6
Continuous
 62
     7
100
AcDbSpline
210
0.0
220
0.0
230
1.0
 70
     8
 71
     3
 72
     9
 73
     5
 74
     0
 42
0.0000000001
 43
0.0000000001
 40
0.0
 40
0.0
 40
0.0
 40
0.0
 40
0.2469954939
 40
1.0
 40
1.0
 40
1.0
 40
1.0
 10
55724.31228382356
 20
-6972.143291975658
 30
0.0
 10
55725.42240784846
 20
-6972.063861380558
 30
0.0
 10
55729.91664388626
 20
-6971.738574025959
 30
0.0
 10
55734.40936207487
 20
-6971.391237655058
 30
0.0
 10
55737.79035219676
 20
-6971.105541166159
 30
0.0
  0
SPLINE
  5
B1
330
2
100
AcDbEntity
  8
0
  6
Continuous
 62
     7
100
AcDbSpline
210
0.0
220
0.0
230
1.0
 70
     8
 71
     3
 72
    11
 73
     7
 74
     0
 42
0.0000000001
 43
0.0000000001
 40
0.0
 40
0.0
 40
0.0
 40
0.0
 40
0.0786904306
 40
0.2709636838
 40
0.5778877118
 40
1.0
 40
1.0
 40
1.0
 40
1.0
 10
55724.31227532736
 20
-6972.143286795558
 30
0.0
 10
55724.30575062626
 20
-6972.138837239957
 30
0.0
 10
55724.27614286537
 20
-6972.141190975858
 30
0.0
 10
55724.22026438836
 20
-6972.135922931058
 30
0.0
 10
55724.12664632846
 20
-6972.137553199859
 30
0.0
 10
55724.05385108567
 20
-6972.137220797058
 30
0.0
 10
55724.01148824155
 20
-6972.137505004458
 30
0.0
  0
LINE
  5
B2
330
2
100
AcDbEntity
  8
0
  6
Continuous
 62
     7
100
AcDbLine
 10
55724.01148824155
 20
-6972.137505004458
 30
0.0
 11
55723.01750317066
 21
-6972.148098294458
 31
0.0
  0
SPLINE
  5
B3
330
2
100
AcDbEntity
  8
0
  6
Continuous
 62
     7
100
AcDbSpline
210
0.0
220
0.0
230
1.0
 70
     8
 71
     3
 72
     8
 73
     4
 74
     0
 42
0.0000000001
 43
0.0000000001
 40
0.0
 40
0.0
 40
0.0
 40
0.0
 40
1.0
 40
1.0
 40
1.0
 40
1.0
 10
55724.22466872716
 20
-6972.150059191157
 30
0.0
 10
55723.31633482265
 20
-6972.225269844258
 30
0.0
 10
55722.40839047617
 20
-6972.461394194957
 30
0.0
 10
55721.57816837386
 20
-6972.837503733758
 30
0.0
  0
SPLINE
  5
B4
330
2
100
AcDbEntity
  8
0
  6
Continuous
 62
     7
100
AcDbSpline
210
0.0
220
0.0
230
1.0
 70
     8
 71
     3
 72
     8
 73
     4
 74
     0
 42
0.0000000001
 43
0.0000000001
 40
0.0
 40
0.0
 40
0.0
 40
0.0
 40
1.0
 40
1.0
 40
1.0
 40
1.0
 10
55721.45731176826
 20
-6972.893487875857
 30
0.0
 10
55720.63511900156
 20
-6973.282806286558
 30
0.0
 10
55719.86990248205
 20
-6973.822529630957
 30
0.0
 10
55719.22656459786
 20
-6974.465714003658
 30
0.0
  0
SPLINE
  5
B5
330
2
100
AcDbEntity
  8
0
  6
Continuous
 62
     7
100
AcDbSpline
210
0.0
220
0.0
230
1.0
 70
     8
 71
     3
 72
     8
 73
     4
 74
     0
 42
0.0000000001
 43
0.0000000001
 40
0.0
 40
0.0
 40
0.0
 40
0.0
 40
1.0
 40
1.0
 40
1.0
 40
1.0
 10
55719.15504970946
 20
-6974.538133526959
 30
0.0
 10
55718.51668712477
 20
-6975.192908027557
 30
0.0
 10
55717.98445350205
 20
-6975.969632677358
 30
0.0
 10
55717.60502832256
 20
-6976.801662105557
 30
0.0
  0
SPLINE
  5
B6
330
2
100
AcDbEntity
  8
0
  6
Continuous
 62
     7
100
AcDbSpline
210
0.0
220
0.0
230
1.0
 70
     8
 71
     3
 72
     8
 73
     4
 74
     0
 42
0.0000000001
 43
0.0000000001
 40
0.0
 40
0.0
 40
0.0
 40
0.0
 40
1.0
 40
1.0
 40
1.0
 40
1.0
 10
55717.51146315646
 20
-6977.015125559058
 30
0.0
 10
55717.15737860366
 20
-6977.856459296758
 30
0.0
 10
55716.94531147736
 20
-6978.771865712959
 30
0.0
 10
55716.89515173516
 20
-6979.683294442557
 30
0.0
  0
SPLINE
  5
B7
330
2
100
AcDbEntity
  8
0
  6
Continuous
 62
     7
100
AcDbSpline
210
0.0
220
0.0
230
1.0
 70
     8
 71
     3
 72
    11
 73
     7
 74
     0
 42
0.0000000001
 43
0.0000000001
 40
0.0
 40
0.0
 40
0.0
 40
0.0
 40
0.0928777549
 40
0.2468835855
 40
0.5021697082
 40
1.0
 40
1.0
 40
1.0
 40
1.0
 10
55544.29673755266
 20
-6970.765982328558
 30
0.0
 10
55544.34689575036
 20
-6970.786751010859
 30
0.0
 10
55544.49206376697
 20
-6970.806873752858
 30
0.0
 10
55544.78313627796
 20
-6970.832668347658
 30
0.0
 10
55545.31435100266
 20
-6970.844324644457
 30
0.0
 10
55545.75410310386
 20
-6970.847676051858
 30
0.0
 10
55546.04508557246
 20
-6970.849247801758
 30
0.0
  0
LINE
  5
B8
330
2
100
AcDbEntity
  8
0
  6
Continuous
 62
     7
100
AcDbLine
 10
55546.04508557246
 20
-6970.849247801758
 30
0.0
 11
55547.31517034646
 21
-6970.853232014959
 31
0.0
  0
LINE
  5
B9
330
2
100
AcDbEntity
  8
0
  6
Continuous
 62
     7
100
AcDbLine
 10
55547.31517034646
 20
-6970.853232014959
 30
0.0
 11
55551.94113750776
 21
-6970.859083511157
 31
0.0
  0
LINE
  5
BA
330
2
100
AcDbEntity
  8
0
  6
Continuous
 62
     7
100
AcDbLine
 10
55551.94113750776
 20
-6970.859083511157
 30
0.0
 11
55553.71998718976
 21
-6970.861792915759
 31
0.0
  0
LINE
  5
BB
330
2
100
AcDbEntity
  8
0
  6
Continuous
 62
     7
100
AcDbLine
 10
55553.71998718976
 20
-6970.861792915759
 30
0.0
 11
55567.24321403216
 21
-6970.878776870257
 31
0.0
  0
SPLINE
  5
BC
330
2
100
AcDbEntity
  8
0
  6
Continuous
 62
     7
100
AcDbSpline
210
0.0
220
0.0
230
1.0
 70
     8
 71
     3
 72
     9
 73
     5
 74
     0
 42
0.0000000001
 43
0.0000000001
 40
0.0
 40
0.0
 40
0.0
 40
0.0
 40
0.239597755
 40
1.0
 40
1.0
 40
1.0
 40
1.0
 10
55567.24321403216
 20
-6970.878776870257
 30
0.0
 10
55567.58002784156
 20
-6970.878960996458
 30
0.0
 10
55568.98577482336
 20
-6970.879639414258
 30
0.0
 10
55570.39152198286
 20
-6970.879937774057
 30
0.0
 10
55571.46045526597
 20
-6970.879975302757
 30
0.0
  0
LINE
  5
BD
330
2
100
AcDbEntity
  8
0
  6
Continuous
 62
     7
100
AcDbLine
 10
55571.46045526597
 20
-6970.879975302757
 30
0.0
 11
55573.55452217876
 21
-6970.879829902059
 31
0.0
  0
SPLINE
  5
BE
330
2
100
AcDbEntity
  8
0
  6
Continuous
 62
     7
100
AcDbSpline
210
0.0
220
0.0
230
1.0
 70
     8
 71
     3
 72
     9
 73
     5
 74
     0
 42
0.0000000001
 43
0.0000000001
 40
0.0
 40
0.0
 40
0.0
 40
0.0
 40
0.2331250809
 40
1.0
 40
1.0
 40
1.0
 40
1.0
 10
55573.55452217876
 20
-6970.879829902059
 30
0.0
 10
55574.80105817486
 20
-6970.879620846358
 30
0.0
 10
55580.14812749306
 20
-6970.877846545558
 30
0.0
 10
55585.49519536517
 20
-6970.873286616558
 30
0.0
 10
55589.59572724305
 20
-6970.869636040458
 30
0.0
  0
LINE
  5
BF
330
2
100
AcDbEntity
  8
0
  6
Continuous
 62
     7
100
AcDbLine
 10
55589.59572724305
 20
-6970.869636040458
 30
0.0
 11
55590.66589554826
 21
-6970.868678153859
 31
0.0
  0
LINE
  5
C0
330
2
100
AcDbEntity
  8
0
  6
Continuous
 62
     7
100
AcDbLine
 10
55590.66589554826
 20
-6970.868678153859
 30
0.0
 11
55608.03103124566
 21
-6970.852395012357
 31
0.0
  0
SPLINE
  5
C1
330
2
100
AcDbEntity
  8
0
  6
Continuous
 62
     7
100
AcDbSpline
210
0.0
220
0.0
230
1.0
 70
     8
 71
     3
 72
     9
 73
     5
 74
     0
 42
0.0000000001
 43
0.0000000001
 40
0.0
 40
0.0
 40
0.0
 40
0.0
 40
0.2450568298
 40
1.0
 40
1.0
 40
1.0
 40
1.0
 10
55608.03103124566
 20
-6970.852395012357
 30
0.0
 10
55613.87030268976
 20
-6970.846916835357
 30
0.0
 10
55637.69853840097
 20
-6970.826134991958
 30
0.0
 10
55661.52678575616
 20
-6970.822900968459
 30
0.0
 10
55679.51575606747
 20
-6970.822868552058
 30
0.0
  0
LINE
  5
C2
330
2
100
AcDbEntity
  8
0
  6
Continuous
 62
     7
100
AcDbLine
 10
55679.51575606747
 20
-6970.822868552058
 30
0.0
 11
55680.33296245516
 21
-6970.822868119357
 31
0.0
  0
SPLINE
  5
C4
330
2
100
AcDbEntity
  8
0
  6
Continuous
 62
     7
100
AcDbSpline
210
0.0
220
0.0
230
1.0
 70
     8
 71
     3
 72
    10
 73
     6
 74
     0
 42
0.0000000001
 43
0.0000000001
 40
0.0
 40
0.0
 40
0.0
 40
0.0
 40
0.7573808604000001
 40
0.9261173079999998
 40
1.0
 40
1.0
 40
1.0
 40
1.0
 10
55456.86438166886
 20
-6849.985350520957
 30
0.0
 10
55456.65606875026
 20
-6849.988956533159
 30
0.0
 10
55456.39588549386
 20
-6850.007966314858
 30
0.0
 10
55456.13112285646
 20
-6850.034515897158
 30
0.0
 10
55456.06747404097
 20
-6850.090099424457
 30
0.0
 10
55456.07053761315
 20
-6850.110191223258
 30
0.0
  0
SPLINE
  5
C6
330
2
100
AcDbEntity
  8
0
  6
Continuous
 62
     7
100
AcDbSpline
210
0.0
220
0.0
230
1.0
 70
     8
 71
     3
 72
     9
 73
     5
 74
     0
 42
0.0000000001
 43
0.0000000001
 40
0.0
 40
0.0
 40
0.0
 40
0.0
 40
0.2469916979
 40
1.0
 40
1.0
 40
1.0
 40
1.0
 10
56427.54231680976
 20
-6972.143389484857
 30
0.0
 10
56428.65068494796
 20
-6972.064117406159
 30
0.0
 10
56433.13788308116
 20
-6971.739492936459
 30
0.0
 10
56437.62355156206
 20
-6971.392660758858
 30
0.0
 10
56440.99926027236
 20
-6971.107464673558
 30
0.0
  0
SPLINE
  5
C7
330
2
100
AcDbEntity
  8
0
  6
Continuous
 62
     7
100
AcDbSpline
210
0.0
220
0.0
230
1.0
 70
     8
 71
     3
 72
    17
 73
    13
 74
     0
 42
0.0000000001
 43
0.0000000001
 40
0.0
 40
0.0
 40
0.0
 40
0.0
 40
0.12391595
 40
0.2494545936
 40
0.3126266348
 40
0.3755932248
 40
0.4380594195000001
 40
0.499985943
 40
0.6235725886
 40
0.7492984601
 40
0.8757693142
 40
1.0
 40
1.0
 40
1.0
 40
1.0
 10
56608.48391583446
 20
-6849.894667971958
 30
0.0
 10
56608.32050631106
 20
-6856.613608629757
 30
0.0
 10
56607.68806988467
 20
-6870.142063318557
 30
0.0
 10
56604.90466729045
 20
-6886.937061404359
 30
0.0
 10
56600.99944384486
 20
-6900.033796496659
 30
0.0
 10
56597.21273509166
 20
-6909.552459631759
 30
0.0
 10
56592.53366065255
 20
-6918.594909350858
 30
0.0
 10
56585.00137992176
 20
-6929.777602359557
 30
0.0
 10
56572.93961737837
 20
-6941.825096475558
 30
0.0
 10
56555.99343390727
 20
-6953.259476272759
 30
0.0
 10
56538.01125989286
 20
-6962.957864632158
 30
0.0
 10
56525.55922369976
 20
-6968.488826566858
 30
0.0
 10
56519.23839560136
 20
-6970.822868119357
 30
0.0
  0
SPLINE
  5
C8
330
2
100
AcDbEntity
  8
0
  6
Continuous
 62
     7
100
AcDbSpline
210
0.0
220
0.0
230
1.0
 70
     8
 71
     3
 72
    15
 73
    11
 74
     0
 42
0.0000000001
 43
0.0000000001
 40
0.0
 40
0.0
 40
0.0
 40
0.0
 40
0.1226879372
 40
0.2473782216
 40
0.3731535086
 40
0.4991009332
 40
0.6243211447000001
 40
0.7482984690000001
 40
0.8724428813999999
 40
1.0
 40
1.0
 40
1.0
 40
1.0
 10
56158.67419884906
 20
-6850.604466823359
 30
0.0
 10
56158.83346916826
 20
-6855.646925895358
 30
0.0
 10
56159.39058540627
 20
-6865.808016112758
 30
0.0
 10
56160.90519217435
 20
-6881.081926553758
 30
0.0
 10
56163.09950936706
 20
-6896.408722714157
 30
0.0
 10
56165.96664907876
 20
-6911.646826606558
 30
0.0
 10
56169.50082410366
 20
-6926.666726144858
 30
0.0
 10
56173.72674616206
 20
-6941.437759530157
 30
0.0
 10
56179.36144528946
 20
-6955.855523850058
 30
0.0
 10
56184.43187864746
 20
-6964.933183919258
 30
0.0
 10
56187.34707456876
 20
-6969.293656073158
 30
0.0
  0
SPLINE
  5
C9
330
2
100
AcDbEntity
  8
0
  6
Continuous
 62
     7
100
AcDbSpline
210
0.0
220
0.0
230
1.0
 70
     8
 71
     3
 72
     9
 73
     5
 74
     0
 42
0.0000000001
 43
0.0000000001
 40
0.0
 40
0.0
 40
0.0
 40
0.0
 40
0.2063393264
 40
1.0
 40
1.0
 40
1.0
 40
1.0
 10
56301.57446057256
 20
-6971.077732625258
 30
0.0
 10
56303.80673244296
 20
-6973.949808102258
 30
0.0
 10
56315.62707762497
 20
-6986.750377659658
 30
0.0
 10
56332.89680648466
 20
-6992.752338342758
 30
0.0
 10
56347.69472585326
 20
-6995.276291531958
 30
0.0
  0
SPLINE
  5
CA
330
2
100
AcDbEntity
  8
0
  6
Continuous
 62
     7
100
AcDbSpline
210
0.0
220
0.0
230
1.0
 70
     8
 71
     3
 72
    15
 73
    11
 74
     0
 42
0.0000000001
 43
0.0000000001
 40
0.0
 40
0.0
 40
0.0
 40
0.0
 40
0.2238236638
 40
0.4682688519
 40
0.5964922983
 40
0.7277516017
 40
0.7944788552
 40
0.8619605291999999
 40
0.9303987816999999
 40
1.0
 40
1.0
 40
1.0
 40
1.0
 10
56347.69470255286
 20
-6995.276297294258
 30
0.0
 10
56348.84040799656
 20
-6995.471648166258
 30
0.0
 10
56351.30749472866
 20
-6995.451746805958
 30
0.0
 10
56354.34967458436
 20
-6994.801329641457
 30
0.0
 10
56356.81786860676
 20
-6993.922648055257
 30
0.0
 10
56358.34686329376
 20
-6993.179105057457
 30
0.0
 10
56359.49903997866
 20
-6992.417714065059
 30
0.0
 10
56360.29682887896
 20
-6991.725540281558
 30
0.0
 10
56360.95553855766
 20
-6990.870365294258
 30
0.0
 10
56361.16548610696
 20
-6990.156545415358
 30
0.0
 10
56361.18225399876
 20
-6989.795519045758
 30
0.0
  0
SPLINE
  5
CC
330
2
100
AcDbEntity
  8
0
  6
Continuous
 62
     7
100
AcDbSpline
210
0.0
220
0.0
230
1.0
 70
     8
 71
     3
 72
     9
 73
     5
 74
     0
 42
0.0000000001
 43
0.0000000001
 40
0.0
 40
0.0
 40
0.0
 40
0.0
 40
0.2361752786
 40
1.0
 40
1.0
 40
1.0
 40
1.0
 10
56365.83191521435
 20
-6979.521487381359
 30
0.0
 10
56365.52810281686
 20
-6979.480936791458
 30
0.0
 10
56364.24021284536
 20
-6979.320605722158
 30
0.0
 10
56362.94758474796
 20
-6979.199253675059
 30
0.0
 10
56361.95909375736
 20
-6979.124860272257
 30
0.0
  0
SPLINE
  5
CD
330
2
100
AcDbEntity
  8
0
  6
Continuous
 62
     7
100
AcDbSpline
210
0.0
220
0.0
230
1.0
 70
     8
 71
     3
 72
     9
 73
     5
 74
     0
 42
0.0000000001
 43
0.0000000001
 40
0.0
 40
0.0
 40
0.0
 40
0.0
 40
0.234535364
 40
1.0
 40
1.0
 40
1.0
 40
1.0
 10
56365.24791745157
 20
-6990.192145105559
 30
0.0
 10
56364.93123463996
 20
-6990.150693020957
 30
0.0
 10
56363.57928746606
 20
-6989.986982226458
 30
0.0
 10
56362.22218101316
 20
-6989.867134468958
 30
0.0
 10
56361.18225399947
 20
-6989.795519032857
 30
0.0
  0
SPLINE
  5
CE
330
2
100
AcDbEntity
  8
0
  6
Continuous
 62
     7
100
AcDbSpline
210
0.0
220
0.0
230
1.0
 70
     8
 71
     3
 72
    11
 73
     7
 74
     0
 42
0.0000000001
 43
0.0000000001
 40
0.0
 40
0.0
 40
0.0
 40
0.0
 40
0.2674123217
 40
0.5234290804999999
 40
0.7661935198000001
 40
1.0
 40
1.0
 40
1.0
 40
1.0
 10
56353.21771802106
 20
-7002.722800668059
 30
0.0
 10
56353.21562350487
 20
-7001.829626168659
 30
0.0
 10
56352.95588435146
 20
-7000.069173938358
 30
0.0
 10
56351.80030049716
 20
-6997.735184832958
 30
0.0
 10
56349.99396144796
 20
-6996.005189889358
 30
0.0
 10
56348.46451623157
 20
-6995.407598834157
 30
0.0
 10
56347.69469884486
 20
-6995.276319172858
 30
0.0
  0
SPLINE
  5
D1
330
2
100
AcDbEntity
  8
0
  6
Continuous
 62
     7
100
AcDbSpline
210
0.0
220
0.0
230
1.0
 70
     8
 71
     3
 72
    14
 73
    10
 74
     0
 42
0.0000000001
 43
0.0000000001
 40
0.0
 40
0.0
 40
0.0
 40
0.0
 40
0.0334884676
 40
0.0989884881
 40
0.1947052336
 40
0.3176066801
 40
0.4641806189000001
 40
0.630192486
 40
1.0
 40
1.0
 40
1.0
 40
1.0
 10
56362.48439011936
 20
-6972.009358385058
 30
0.0
 10
56362.46483749826
 20
-6972.086570220259
 30
0.0
 10
56362.45156740116
 20
-6972.323434600259
 30
0.0
 10
56362.41212214737
 20
-6972.783587026659
 30
0.0
 10
56362.36177385066
 20
-6973.458056573658
 30
0.0
 10
56362.29433809486
 20
-6974.323775979357
 30
0.0
 10
56362.21924119456
 20
-6975.356899236458
 30
0.0
 10
56362.10544995136
 20
-6976.975877775958
 30
0.0
 10
56362.02061907316
 20
-6978.247463632158
 30
0.0
 10
56361.95909375736
 20
-6979.124860272257
 30
0.0
  0
SPLINE
  5
D2
330
2
100
AcDbEntity
  8
0
  6
Continuous
 62
     7
100
AcDbSpline
210
0.0
220
0.0
230
1.0
 70
     8
 71
     3
 72
    12
 73
     8
 74
     0
 42
0.0000000001
 43
0.0000000001
 40
0.0
 40
0.0
 40
0.0
 40
0.0
 40
0.1741236979
 40
0.2811058396
 40
0.4027539884000001
 40
0.6844172089000001
 40
1.0
 40
1.0
 40
1.0
 40
1.0
 10
56362.48439011936
 20
-6972.009358385058
 30
0.0
 10
56362.97607310446
 20
-6972.118604285558
 30
0.0
 10
56363.69180076707
 20
-6972.618923280258
 30
0.0
 10
56364.38847954816
 20
-6973.549483922058
 30
0.0
 10
56365.07974384606
 20
-6974.862478790258
 30
0.0
 10
56365.65636072186
 20
-6976.880279937057
 30
0.0
 10
56365.81378467337
 20
-6978.608807005658
 30
0.0
 10
56365.83191521435
 20
-6979.521487381359
 30
0.0
  0
SPLINE
  5
D3
330
2
100
AcDbEntity
  8
0
  6
Continuous
 62
     7
100
AcDbSpline
210
0.0
220
0.0
230
1.0
 70
     8
 71
     3
 72
    12
 73
     8
 74
     0
 42
0.0000000001
 43
0.0000000001
 40
0.0
 40
0.0
 40
0.0
 40
0.0
 40
0.1730835566
 40
0.2799535165
 40
0.4015111214
 40
0.6836182059000001
 40
1.0
 40
1.0
 40
1.0
 40
1.0
 10
56362.71315378547
 20
-6972.012493891158
 30
0.0
 10
56363.20046315926
 20
-6972.123043358057
 30
0.0
 10
56363.90991042876
 20
-6972.622415302258
 30
0.0
 10
56364.60044682096
 20
-6973.550499112758
 30
0.0
 10
56365.28286050986
 20
-6974.865785798158
 30
0.0
 10
56365.85258266586
 20
-6976.883329117157
 30
0.0
 10
56366.01638150247
 20
-6978.612142341258
 30
0.0
 10
56366.02875823596
 20
-6979.525451419958
 30
0.0
  0
SPLINE
  5
D4
330
2
100
AcDbEntity
  8
0
  6
Continuous
 62
     7
100
AcDbSpline
210
0.0
220
0.0
230
1.0
 70
     8
 71
     3
 72
     8
 73
     4
 74
     0
 42
0.0000000001
 43
0.0000000001
 40
0.0
 40
0.0
 40
0.0
 40
0.0
 40
1.0
 40
1.0
 40
1.0
 40
1.0
 10
56427.54074536377
 20
-6972.143320134057
 30
0.0
 10
56426.59534569586
 20
-6972.210946160657
 30
0.0
 10
56425.64796506126
 20
-6972.453406844758
 30
0.0
 10
56424.78575922426
 20
-6972.847049965058
 30
0.0
  0
SPLINE
  5
D5
330
2
100
AcDbEntity
  8
0
  6
Continuous
 62
     7
100
AcDbSpline
210
0.0
220
0.0
230
1.0
 70
     8
 71
     3
 72
     8
 73
     4
 74
     0
 42
0.0000000001
 43
0.0000000001
 40
0.0
 40
0.0
 40
0.0
 40
0.0
 40
1.0
 40
1.0
 40
1.0
 40
1.0
 10
56424.78575922426
 20
-6972.847049965058
 30
0.0
 10
56423.91244298936
 20
-6973.245765576757
 30
0.0
 10
56423.09990829456
 20
-6973.813923872459
 30
0.0
 10
56422.42469895236
 20
-6974.496380998857
 30
0.0
  0
SPLINE
  5
D6
330
2
100
AcDbEntity
  8
0
  6
Continuous
 62
     7
100
AcDbSpline
210
0.0
220
0.0
230
1.0
 70
     8
 71
     3
 72
     8
 73
     4
 74
     0
 42
0.0000000001
 43
0.0000000001
 40
0.0
 40
0.0
 40
0.0
 40
0.0
 40
1.0
 40
1.0
 40
1.0
 40
1.0
 10
56422.42469895236
 20
-6974.496380998857
 30
0.0
 10
56421.74582554606
 20
-6975.182541519858
 30
0.0
 10
56421.18405848036
 20
-6976.006443635057
 30
0.0
 10
56420.79430938846
 20
-6976.889495733058
 30
0.0
  0
SPLINE
  5
D7
330
2
100
AcDbEntity
  8
0
  6
Continuous
 62
     7
100
AcDbSpline
210
0.0
220
0.0
230
1.0
 70
     8
 71
     3
 72
     9
 73
     5
 74
     0
 42
0.0000000001
 43
0.0000000001
 40
0.0
 40
0.0
 40
0.0
 40
0.0
 40
0.2469750469
 40
1.0
 40
1.0
 40
1.0
 40
1.0
 10
56427.54074536826
 20
-6972.143320132459
 30
0.0
 10
56428.64866618976
 20
-6972.064066092858
 30
0.0
 10
56433.13435616517
 20
-6971.739500659258
 30
0.0
 10
56437.61851693356
 20
-6971.392734602358
 30
0.0
 10
56440.99316312626
 20
-6971.107565269459
 30
0.0
  0
SPLINE
  5
DB
330
2
100
AcDbEntity
  8
0
  6
Continuous
 62
     7
100
AcDbSpline
210
0.0
220
0.0
230
1.0
 70
     8
 71
     3
 72
    10
 73
     6
 74
     0
 42
0.0000000001
 43
0.0000000001
 40
0.0
 40
0.0
 40
0.0
 40
0.0
 40
0.1092615583
 40
0.3048998001
 40
1.0
 40
1.0
 40
1.0
 40
1.0
 10
56318.13850460656
 20
-6846.070875534657
 30
0.0
 10
56318.11154334426
 20
-6846.070875784057
 30
0.0
 10
56318.04681430456
 20
-6846.128717316259
 30
0.0
 10
56317.95531391496
 20
-6846.353119773159
 30
0.0
 10
56317.90795407556
 20
-6846.572327161458
 30
0.0
 10
56317.87806336306
 20
-6846.741224757058
 30
0.0
  0
SPLINE
  5
DD
330
2
100
AcDbEntity
  8
0
  6
Continuous
 62
     7
100
AcDbSpline
210
0.0
220
0.0
230
1.0
 70
     8
 71
     3
 72
     9
 73
     5
 74
     0
 42
0.0000000001
 43
0.0000000001
 40
0.0
 40
0.0
 40
0.0
 40
0.0
 40
0.3094705918
 40
1.0
 40
1.0
 40
1.0
 40
1.0
 10
56318.82683971807
 20
-6846.070876882058
 30
0.0
 10
56318.75032771706
 20
-6846.070824891758
 30
0.0
 10
56318.60719874316
 20
-6846.355643159857
 30
0.0
 10
56318.56727029997
 20
-6846.565967387459
 30
0.0
 10
56318.53530395297
 20
-6846.733671149358
 30
0.0
  0
SPLINE
  5
DF
330
2
100
AcDbEntity
  8
0
  6
Continuous
 62
     7
100
AcDbSpline
210
0.0
220
0.0
230
1.0
 70
     8
 71
     3
 72
    18
 73
    14
 74
     0
 42
0.0000000001
 43
0.0000000001
 40
0.0
 40
0.0
 40
0.0
 40
0.0
 40
0.00408433
 40
0.0162728286
 40
0.0365239993
 40
0.064796401
 40
0.1010486631
 40
0.1452361341
 40
0.2570649848
 40
0.3994651121
 40
0.5715747308
 40
0.772213002
 40
1.0
 40
1.0
 40
1.0
 40
1.0
 10
56348.20331825816
 20
-7001.536692199159
 30
0.0
 10
56348.20680210407
 20
-7001.542781887858
 30
0.0
 10
56348.24174683997
 20
-7001.539821102658
 30
0.0
 10
56348.29471547146
 20
-7001.565820088159
 30
0.0
 10
56348.39988916986
 20
-7001.586875349959
 30
0.0
 10
56348.53883334336
 20
-7001.626279188858
 30
0.0
 10
56348.72029080217
 20
-7001.672363820758
 30
0.0
 10
56349.03970167156
 20
-7001.755451724958
 30
0.0
 10
56349.53676179566
 20
-7001.881338258758
 30
0.0
 10
56350.24780897246
 20
-7002.056398095958
 30
0.0
 10
56351.10889850587
 20
-7002.260400627858
 30
0.0
 10
56352.11497656346
 20
-7002.488314733757
 30
0.0
 10
56352.83451214457
 20
-7002.642854434158
 30
0.0
 10
56353.21753332386
 20
-7002.722812496357
 30
0.0
  0
SPLINE
  5
E0
330
2
100
AcDbEntity
  8
0
  6
Continuous
 62
     7
100
AcDbSpline
210
0.0
220
0.0
230
1.0
 70
     8
 71
     3
 72
    13
 73
     9
 74
     0
 42
0.0000000001
 43
0.0000000001
 40
0.0
 40
0.0
 40
0.0
 40
0.0
 40
0.1823510647
 40
0.2942433987
 40
0.4184627713000001
 40
0.6951041393999999
 40
0.8450022888999999
 40
1.0
 40
1.0
 40
1.0
 40
1.0
 10
56353.21753332386
 20
-7002.722812496357
 30
0.0
 10
56354.34108812606
 20
-7002.957220154758
 30
0.0
 10
56356.29096173906
 20
-7002.497181362558
 30
0.0
 10
56358.56289653657
 20
-7001.191725244957
 30
0.0
 10
56361.09903174846
 20
-6999.171478239357
 30
0.0
 10
56363.33213101166
 20
-6996.437306725858
 30
0.0
 10
56364.84528607606
 20
-6993.079087056958
 30
0.0
 10
56365.19550919106
 20
-6991.166316879358
 30
0.0
 10
56365.24791750196
 20
-6990.192145312658
 30
0.0
  0
LINE
  5
EB
330
2
100
AcDbEntity
  8
0
  6
Continuous
 62
     7
100
AcDbLine
 10
56481.14392324017
 20
-6970.875821858759
 30
0.0
 11
56481.49197791576
 21
-6970.876065073958
 31
0.0
  0
LINE
  5
EC
330
2
100
AcDbEntity
  8
0
  6
Continuous
 62
     7
100
AcDbLine
 10
56481.49197791576
 20
-6970.876065073958
 30
0.0
 11
56482.16258771467
 21
-6970.876521005258
 31
0.0
  0
SPLINE
  5
ED
330
2
100
AcDbEntity
  8
0
  6
Continuous
 62
     7
100
AcDbSpline
210
0.0
220
0.0
230
1.0
 70
     8
 71
     3
 72
     9
 73
     5
 74
     0
 42
0.0000000001
 43
0.0000000001
 40
0.0
 40
0.0
 40
0.0
 40
0.0
 40
0.2583133392
 40
1.0
 40
1.0
 40
1.0
 40
1.0
 10
56482.16258771467
 20
-6970.876521005258
 30
0.0
 10
56482.63987125696
 20
-6970.876839225958
 30
0.0
 10
56484.48756349186
 20
-6970.878017160457
 30
0.0
 10
56486.33525590097
 20
-6970.878946490159
 30
0.0
 10
56487.70566478856
 20
-6970.879402943157
 30
0.0
  0
LINE
  5
EE
330
2
100
AcDbEntity
  8
0
  6
Continuous
 62
     7
100
AcDbLine
 10
56487.70566478856
 20
-6970.879402943157
 30
0.0
 11
56489.26463171216
 21
-6970.879812807957
 31
0.0
  0
LINE
  5
EF
330
2
100
AcDbEntity
  8
0
  6
Continuous
 62
     7
100
AcDbLine
 10
56489.26463171216
 20
-6970.879812807957
 30
0.0
 11
56490.93132556626
 21
-6970.879980563857
 31
0.0
  0
SPLINE
  5
F0
330
2
100
AcDbEntity
  8
0
  6
Continuous
 62
     7
100
AcDbSpline
210
0.0
220
0.0
230
1.0
 70
     8
 71
     3
 72
     9
 73
     5
 74
     0
 42
0.0000000001
 43
0.0000000001
 40
0.0
 40
0.0
 40
0.0
 40
0.0
 40
0.2631569741
 40
1.0
 40
1.0
 40
1.0
 40
1.0
 10
56490.93132556626
 20
-6970.879980563857
 30
0.0
 10
56491.39924114126
 20
-6970.879985914459
 30
0.0
 10
56493.17732654376
 20
-6970.879869444158
 30
0.0
 10
56494.95541192687
 20
-6970.879205609058
 30
0.0
 10
56496.26558148326
 20
-6970.878357534058
 30
0.0
  0
LINE
  5
F1
330
2
100
AcDbEntity
  8
0
  6
Continuous
 62
     7
100
AcDbLine
 10
56496.26558148326
 20
-6970.878357534058
 30
0.0
 11
56496.80017274686
 21
-6970.877991230558
 31
0.0
  0
SPLINE
  5
F2
330
2
100
AcDbEntity
  8
0
  6
Continuous
 62
     7
100
AcDbSpline
210
0.0
220
0.0
230
1.0
 70
     8
 71
     3
 72
     9
 73
     5
 74
     0
 42
0.0000000001
 43
0.0000000001
 40
0.0
 40
0.0
 40
0.0
 40
0.0
 40
0.258382826
 40
1.0
 40
1.0
 40
1.0
 40
1.0
 10
56496.80017274686
 20
-6970.877991230558
 30
0.0
 10
56497.03535556066
 20
-6970.877821080257
 30
0.0
 10
56497.94556623016
 20
-6970.877116144658
 30
0.0
 10
56498.85577675886
 20
-6970.876230332158
 30
0.0
 10
56499.53080440186
 20
-6970.875474253259
 30
0.0
  0
LINE
  5
F3
330
2
100
AcDbEntity
  8
0
  6
Continuous
 62
     7
100
AcDbLine
 10
56499.53080440186
 20
-6970.875474253259
 30
0.0
 11
56508.87145497896
 21
-6970.859034280957
 31
0.0
  0
LINE
  5
F4
330
2
100
AcDbEntity
  8
0
  6
Continuous
 62
     7
100
AcDbLine
 10
56508.87145497896
 20
-6970.859034280957
 30
0.0
 11
56509.62900072157
 21
-6970.857127406858
 31
0.0
  0
LINE
  5
F5
330
2
100
AcDbEntity
  8
0
  6
Continuous
 62
     7
100
AcDbLine
 10
56509.62900072157
 20
-6970.857127406858
 30
0.0
 11
56512.12998733626
 21
-6970.850023525958
 31
0.0
  0
LINE
  5
F6
330
2
100
AcDbEntity
  8
0
  6
Continuous
 62
     7
100
AcDbLine
 10
56512.12998733626
 20
-6970.850023525958
 30
0.0
 11
56517.31131968066
 21
-6970.831405754857
 31
0.0
  0
LINE
  5
F7
330
2
100
AcDbEntity
  8
0
  6
Continuous
 62
     7
100
AcDbLine
 10
56517.31131968066
 20
-6970.831405754857
 30
0.0
 11
56519.23839561465
 21
-6970.822868114457
 31
0.0
  0
LINE
  5
FD
330
2
100
AcDbEntity
  8
0
  6
Continuous
 62
     7
100
AcDbLine
 10
56362.71286239656
 20
-6972.012490134658
 30
0.0
 11
56362.48439024746
 21
-6972.009358397158
 31
0.0
  0
SPLINE
  5
FF
330
2
100
AcDbEntity
  8
02___PRT_ALL_AXES
  6
Continuous
 62
     7
100
AcDbSpline
210
0.0
220
0.0
230
1.0
 70
     8
 71
     3
 72
    14
 73
    10
 74
     0
 42
0.0000000001
 43
0.0000000001
 40
0.0
 40
0.0
 40
0.0
 40
0.0
 40
0.0305026645
 40
0.0564675723
 40
0.0905660806
 40
0.1829865936
 40
0.3057034373
 40
0.6242579007
 40
1.0
 40
1.0
 40
1.0
 40
1.0
 10
55667.83296245516
 20
-7411.037139170858
 30
0.0
 10
55667.83296245516
 20
-7410.907182169458
 30
0.0
 10
55668.05797529347
 20
-7410.716741446359
 30
0.0
 10
55668.39305472196
 20
-7410.560879075458
 30
0.0
 10
55669.01519450427
 20
-7410.345151596558
 30
0.0
 10
55670.05006141596
 20
-7410.120412561759
 30
0.0
 10
55672.30163230246
 20
-7409.779661945758
 30
0.0
 10
55675.77385371716
 20
-7409.507899764559
 30
0.0
 10
55678.73211810236
 20
-7409.424806476858
 30
0.0
 10
55680.33296245516
 20
-7409.419210996557
 30
0.0
  0
SPLINE
  5
100
330
2
100
AcDbEntity
  8
02___PRT_ALL_AXES
  6
Continuous
 62
     7
100
AcDbSpline
210
0.0
220
0.0
230
1.0
 70
     8
 71
     3
 72
    14
 73
    10
 74
     0
 42
0.0000000001
 43
0.0000000001
 40
0.0
 40
0.0
 40
0.0
 40
0.0
 40
0.374865262
 40
0.6926347234
 40
0.8150656934999998
 40
0.9074263387
 40
0.9416479963
 40
0.9679338482999998
 40
1.0
 40
1.0
 40
1.0
 40
1.0
 10
55680.33296245516
 20
-7409.419210996557
 30
0.0
 10
55681.93414031346
 20
-7409.413614350457
 30
0.0
 10
55684.89312402316
 20
-7409.476114057858
 30
0.0
 10
55688.36822828836
 20
-7409.732565950758
 30
0.0
 10
55690.61935563246
 20
-7410.078915633057
 30
0.0
 10
55691.65524304966
 20
-7410.314382263059
 30
0.0
 10
55692.27453293156
 20
-7410.544162932158
 30
0.0
 10
55692.61616461187
 20
-7410.714761605759
 30
0.0
 10
55692.83296245516
 20
-7410.922561334757
 30
0.0
 10
55692.83296245516
 20
-7411.059527682258
 30
0.0
  0
SPLINE
  5
101
330
2
100
AcDbEntity
  8
0
  6
Continuous
 62
     7
100
AcDbSpline
210
0.0
220
0.0
230
1.0
 70
     8
 71
     3
 72
    11
 73
     7
 74
     0
 42
0.0000000001
 43
0.0000000001
 40
0.0
 40
0.0
 40
0.0
 40
0.0
 40
0.2496107681
 40
0.4996308607000001
 40
0.7498046749
 40
1.0
 40
1.0
 40
1.0
 40
1.0
 10
55864.16318421636
 20
-7409.540430290359
 30
0.0
 10
55865.94953985366
 20
-7409.625299143758
 30
0.0
 10
55869.51967797067
 20
-7410.083527401458
 30
0.0
 10
55874.67345647596
 20
-7411.698902296158
 30
0.0
 10
55879.43966952797
 20
-7414.261059248758
 30
0.0
 10
55882.19289200706
 20
-7416.609026333258
 30
0.0
 10
55883.42255938266
 20
-7417.913321069858
 30
0.0
  0
SPLINE
  5
102
330
2
100
AcDbEntity
  8
0
  6
Continuous
 62
     7
100
AcDbSpline
210
0.0
220
0.0
230
1.0
 70
     8
 71
     3
 72
    13
 73
     9
 74
     0
 42
0.0000000001
 43
0.0000000001
 40
0.0
 40
0.0
 40
0.0
 40
0.0
 40
0.2600610174
 40
0.5166255233000001
 40
0.642482896
 40
0.7660822207
 40
0.8858641906999999
 40
1.0
 40
1.0
 40
1.0
 40
1.0
 10
55883.42255938266
 20
-7417.913321069858
 30
0.0
 10
55884.16489000336
 20
-7418.700534651057
 30
0.0
 10
55885.61921973886
 20
-7420.283836655858
 30
0.0
 10
55887.36422091486
 20
-7422.309356527458
 30
0.0
 10
55888.70576782007
 20
-7423.932066279959
 30
0.0
 10
55889.65579126826
 20
-7425.139635479658
 30
0.0
 10
55890.58761685886
 20
-7426.298429533758
 30
0.0
 10
55891.17674319166
 20
-7427.075005773257
 30
0.0
 10
55891.49476831826
 20
-7427.427663718059
 30
0.0
  0
SPLINE
  5
103
330
2
100
AcDbEntity
  8
0
  6
Continuous
 62
     7
100
AcDbSpline
210
0.0
220
0.0
230
1.0
 70
     8
 71
     3
 72
     9
 73
     5
 74
     0
 42
0.0000000001
 43
0.0000000001
 40
0.0
 40
0.0
 40
0.0
 40
0.0
 40
0.2565679637
 40
1.0
 40
1.0
 40
1.0
 40
1.0
 10
55891.49476831826
 20
-7427.427663718059
 30
0.0
 10
55891.59296481536
 20
-7427.538562980858
 30
0.0
 10
55891.97514566826
 20
-7427.971287483358
 30
0.0
 10
55892.35377133876
 20
-7428.407179068357
 30
0.0
 10
55892.63176558036
 20
-7428.734195482857
 30
0.0
  0
SPLINE
  5
104
330
2
100
AcDbEntity
  8
02___PRT_ALL_AXES
  6
Continuous
 62
     7
100
AcDbSpline
210
0.0
220
0.0
230
1.0
 70
     8
 71
     3
 72
    14
 73
    10
 74
     0
 42
0.0000000001
 43
0.0000000001
 40
0.0
 40
0.0
 40
0.0
 40
0.0
 40
0.032348737
 40
0.0588210539
 40
0.093215726
 40
0.1857921259
 40
0.3082510701
 40
0.6256734104000001
 40
1.0
 40
1.0
 40
1.0
 40
1.0
 10
55692.83296245516
 20
-7411.059527682258
 30
0.0
 10
55692.83296245516
 20
-7411.197903869058
 30
0.0
 10
55692.61567527457
 20
-7411.407993263757
 30
0.0
 10
55692.27384984326
 20
-7411.585383777357
 30
0.0
 10
55691.65453919246
 20
-7411.824869162858
 30
0.0
 10
55690.61897512286
 20
-7412.076278917258
 30
0.0
 10
55688.36933192507
 20
-7412.451166823858
 30
0.0
 10
55684.89419232906
 20
-7412.734893130458
 30
0.0
 10
55681.93415066575
 20
-7412.796255891358
 30
0.0
 10
55680.33296245516
 20
-7412.784193492957
 30
0.0
  0
SPLINE
  5
105
330
2
100
AcDbEntity
  8
0
  6
Continuous
 62
     7
100
AcDbSpline
210
0.0
220
0.0
230
1.0
 70
     8
 71
     3
 72
    16
 73
    12
 74
     0
 42
0.0000000001
 43
0.0000000001
 40
0.0
 40
0.0
 40
0.0
 40
0.0
 40
0.2500150647
 40
0.375021972
 40
0.5000277997
 40
0.6250335404000001
 40
0.6875369188000001
 40
0.7500405067
 40
0.8125442126000001
 40
0.8750446463999999
 40
1.0
 40
1.0
 40
1.0
 40
1.0
 10
55680.33296245516
 20
-7407.273203511458
 30
0.0
 10
55695.65522888846
 20
-7407.214852646959
 30
0.0
 10
55718.63926743466
 20
-7407.316158033258
 30
0.0
 10
55749.28225736306
 20
-7407.625899402858
 30
0.0
 10
55772.26365164726
 20
-7407.926361572759
 30
0.0
 10
55791.41431085976
 20
-7408.207813401657
 30
0.0
 10
55806.73575395945
 20
-7408.371476095457
 30
0.0
 10
55818.22739200196
 20
-7408.422102347657
 30
0.0
 10
55829.71909363236
 20
-7408.445608810959
 30
0.0
 10
55845.03695964326
 20
-7408.560710278958
 30
0.0
 10
55856.52550618356
 20
-7408.983025826758
 30
0.0
 10
55864.16318421636
 20
-7409.540430290359
 30
0.0
  0
SPLINE
  5
106
330
2
100
AcDbEntity
  8
0
  6
Continuous
 62
     7
100
AcDbSpline
210
0.0
220
0.0
230
1.0
 70
     8
 71
     3
 72
    13
 73
     9
 74
     0
 42
0.0000000001
 43
0.0000000001
 40
0.0
 40
0.0
 40
0.0
 40
0.0
 40
0.1249568942
 40
0.2499608999
 40
0.3749681331000001
 40
0.4999744248
 40
0.7499861157
 40
1.0
 40
1.0
 40
1.0
 40
1.0
 10
55496.84034167946
 20
-7409.648732635658
 30
0.0
 10
55504.46414664147
 20
-7409.093423809358
 30
0.0
 10
55519.75706347576
 20
-7408.566526593258
 30
0.0
 10
55542.69404223136
 20
-7408.693056931157
 30
0.0
 10
55565.63546871556
 20
-7408.616339481958
 30
0.0
 10
55596.22158982836
 20
-7408.260577413857
 30
0.0
 10
55634.45240548606
 20
-7407.697582071057
 30
0.0
 10
55665.03894596126
 20
-7407.331507384357
 30
0.0
 10
55680.33296245516
 20
-7407.273203511458
 30
0.0
  0
SPLINE
  5
107
330
2
100
AcDbEntity
  8
02___PRT_ALL_AXES
  6
Continuous
 62
     7
100
AcDbSpline
210
0.0
220
0.0
230
1.0
 70
     8
 71
     3
 72
    14
 73
    10
 74
     0
 42
0.0000000001
 43
0.0000000001
 40
0.0
 40
0.0
 40
0.0
 40
0.0
 40
0.3752142226
 40
0.6935391273999999
 40
0.8163257146999999
 40
0.9089529759999999
 40
0.9431778726000001
 40
0.9692875864999999
 40
1.0
 40
1.0
 40
1.0
 40
1.0
 10
55680.33296245516
 20
-7412.784193492957
 30
0.0
 10
55678.73212838176
 20
-7412.772133762358
 30
0.0
 10
55675.77320733327
 20
-7412.666244492658
 30
0.0
 10
55672.30239042566
 20
-7412.352042036158
 30
0.0
 10
55670.05186197506
 20
-7411.982581047557
 30
0.0
 10
55669.01672007896
 20
-7411.744466043457
 30
0.0
 10
55668.39414812686
 20
-7411.521104244858
 30
0.0
 10
55668.05844188516
 20
-7411.360528050558
 30
0.0
 10
55667.83296245516
 20
-7411.168175976257
 30
0.0
 10
55667.83296245516
 20
-7411.037139170858
 30
0.0
  0
SPLINE
  5
108
330
2
100
AcDbEntity
  8
0
  6
Continuous
 62
     7
100
AcDbSpline
210
0.0
220
0.0
230
1.0
 70
     8
 71
     3
 72
     9
 73
     5
 74
     0
 42
0.0000000001
 43
0.0000000001
 40
0.0
 40
0.0
 40
0.0
 40
0.0
 40
0.2440971905
 40
1.0
 40
1.0
 40
1.0
 40
1.0
 10
55468.70057017956
 20
-7428.765918157458
 30
0.0
 10
55468.80130684676
 20
-7428.653736681458
 30
0.0
 10
55469.21460415855
 20
-7428.194704072058
 30
0.0
 10
55469.62944335876
 20
-7427.737064043857
 30
0.0
 10
55469.94251360496
 20
-7427.390673918058
 30
0.0
  0
SPLINE
  5
109
330
2
100
AcDbEntity
  8
0
  6
Continuous
 62
     7
100
AcDbSpline
210
0.0
220
0.0
230
1.0
 70
     8
 71
     3
 72
    13
 73
     9
 74
     0
 42
0.0000000001
 43
0.0000000001
 40
0.0
 40
0.0
 40
0.0
 40
0.0
 40
0.1156833178
 40
0.2363851515
 40
0.360043136
 40
0.4858466528000001
 40
0.7414010903000001
 40
1.0
 40
1.0
 40
1.0
 40
1.0
 10
55469.94251360496
 20
-7427.390673918058
 30
0.0
 10
55470.25482586946
 20
-7427.053608415757
 30
0.0
 10
55470.82965837056
 20
-7426.308991970357
 30
0.0
 10
55471.71796880906
 20
-7425.189058204058
 30
0.0
 10
55472.62380963447
 20
-7424.030621758159
 30
0.0
 10
55473.87617160786
 20
-7422.463589688958
 30
0.0
 10
55475.50553181396
 20
-7420.511940402957
 30
0.0
 10
55476.85601893237
 20
-7418.979545849158
 30
0.0
 10
55477.54514786745
 20
-7418.217814541058
 30
0.0
  0
SPLINE
  5
10A
330
2
100
AcDbEntity
  8
0
  6
Continuous
 62
     7
100
AcDbSpline
210
0.0
220
0.0
230
1.0
 70
     8
 71
     3
 72
    11
 73
     7
 74
     0
 42
0.0000000001
 43
0.0000000001
 40
0.0
 40
0.0
 40
0.0
 40
0.0
 40
0.250276586
 40
0.5004495814
 40
0.7504585971
 40
1.0
 40
1.0
 40
1.0
 40
1.0
 10
55477.54514786745
 20
-7418.217814541058
 30
0.0
 10
55478.75613460247
 20
-7416.878992833459
 30
0.0
 10
55481.48823235826
 20
-7414.464945524558
 30
0.0
 10
55486.26442792456
 20
-7411.838157449858
 30
0.0
 10
55491.44778671767
 20
-7410.192025817558
 30
0.0
 10
55495.04230407587
 20
-7409.731649576558
 30
0.0
 10
55496.84034167946
 20
-7409.648732635658
 30
0.0
  0
SPLINE
  5
10B
330
2
100
AcDbEntity
  8
0
  6
Continuous
 62
     7
100
AcDbSpline
210
0.0
220
0.0
230
1.0
 70
     8
 71
     3
 72
    10
 73
     6
 74
     0
 42
0.0000000001
 43
0.0000000001
 40
0.0
 40
0.0
 40
0.0
 40
0.0
 40
0.3750319597
 40
0.7500314136
 40
1.0
 40
1.0
 40
1.0
 40
1.0
 10
55462.77583697657
 20
-7492.452152982558
 30
0.0
 10
55462.85568383366
 20
-7484.409783805057
 30
0.0
 10
55463.25576335767
 20
-7468.326667984658
 30
0.0
 10
55464.61856034006
 20
-7446.916768252558
 30
0.0
 10
55466.04979737236
 20
-7433.587251026158
 30
0.0
 10
55466.71944770117
 20
-7428.268528137458
 30
0.0
  0
SPLINE
  5
10C
330
2
100
AcDbEntity
  8
0
  6
Continuous
 62
     7
100
AcDbSpline
210
0.0
220
0.0
230
1.0
 70
     8
 71
     3
 72
    27
 73
    23
 74
     0
 42
0.0000000001
 43
0.0000000001
 40
0.0
 40
0.0
 40
0.0
 40
0.0
 40
0.1249685779
 40
0.187462708
 40
0.2187134096
 40
0.249964841
 40
0.3124575921
 40
0.374945259
 40
0.4062063255
 40
0.4374682887
 40
0.4687355440000001
 40
0.4999934725000001
 40
0.5312525949
 40
0.5625179529
 40
0.5937796238000001
 40
0.6250383345000001
 40
0.6875258945000001
 40
0.7500171179999999
 40
0.8125117062999999
 40
0.8750068195
 40
0.9375053935
 40
1.0
 40
1.0
 40
1.0
 40
1.0
 10
55678.42636533286
 20
-7709.961422864857
 30
0.0
 10
55663.27043409006
 20
-7709.924200438057
 30
0.0
 10
55640.51453497196
 20
-7709.244864030357
 30
0.0
 10
55614.12086176346
 20
-7706.470816031857
 30
0.0
 10
55599.12854308847
 20
-7704.210590544558
 30
0.0
 10
55584.21562384776
 20
-7701.477782751259
 30
0.0
 10
55565.75458132216
 20
-7697.141206868058
 30
0.0
 10
55547.73162725906
 20
-7691.145375991758
 30
0.0
 10
55533.89585142176
 20
-7684.911948735159
 30
0.0
 10
55523.93715847606
 20
-7679.384306533258
 30
0.0
 10
55514.56715847096
 20
-7672.894035225557
 30
0.0
 10
55506.06985962186
 20
-7665.284183543159
 30
0.0
 10
55498.64459037966
 20
-7656.626625241859
 30
0.0
 10
55492.32718955776
 20
-7647.141535667959
 30
0.0
 10
55486.93676143446
 20
-7637.110212598257
 30
0.0
 10
55480.84067367995
 20
-7623.214921517157
 30
0.0
 10
55474.95022619346
 20
-7605.161986103158
 30
0.0
 10
55469.76517308547
 20
-7583.007390529758
 30
0.0
 10
55466.07406233396
 20
-7560.554756848758
 30
0.0
 10
55463.81262040205
 20
-7537.915901950057
 30
0.0
 10
55462.76633913206
 20
-7515.193316414958
 30
0.0
 10
55462.70042278696
 20
-7500.031017551157
 30
0.0
 10
55462.77583697657
 20
-7492.452152982558
 30
0.0
  0
LINE
  5
10D
330
2
100
AcDbEntity
  8
0
  6
Continuous
 62
     7
100
AcDbLine
 10
55680.33296244676
 20
-7709.964003153058
 30
0.0
 11
55678.42636546336
 21
-7709.961371723858
 31
0.0
  0
SPLINE
  5
10E
330
2
100
AcDbEntity
  8
0
  6
Continuous
 62
     7
100
AcDbSpline
210
0.0
220
0.0
230
1.0
 70
     8
 71
     3
 72
    27
 73
    23
 74
     0
 42
0.0000000001
 43
0.0000000001
 40
0.0
 40
0.0
 40
0.0
 40
0.0
 40
0.0624930626
 40
0.1249898652
 40
0.1874835117
 40
0.2499777432
 40
0.3124690082999999
 40
0.3749564963
 40
0.4062157477000001
 40
0.4374768887
 40
0.4687423837
 40
0.5000002607999999
 40
0.5312580126
 40
0.5625239256
 40
0.5937853002000001
 40
0.6250450188000001
 40
0.6875321887000001
 40
0.7500238006000001
 40
0.8125172570999998
 40
0.8750103999
 40
0.937506594
 40
1.0
 40
1.0
 40
1.0
 40
1.0
 10
55897.89010885236
 20
-7492.452152982558
 30
0.0
 10
55897.89219063406
 20
-7500.071357411258
 30
0.0
 10
55897.72396183056
 20
-7515.311718550659
 30
0.0
 10
55896.63616899726
 20
-7538.150890011158
 30
0.0
 10
55894.39860867006
 20
-7560.912086174657
 30
0.0
 10
55890.72529887056
 20
-7583.489904067957
 30
0.0
 10
55885.52630659876
 20
-7605.765808690057
 30
0.0
 10
55879.57557044636
 20
-7623.906954254758
 30
0.0
 10
55873.39652575956
 20
-7637.854147947158
 30
0.0
 10
55867.92051065916
 20
-7647.908630404957
 30
0.0
 10
55861.49337082576
 20
-7657.393698364959
 30
0.0
 10
55853.94045052656
 20
-7666.021529004758
 30
0.0
 10
55845.31403012786
 20
-7673.576295336457
 30
0.0
 10
55835.82741266896
 20
-7680.001729700357
 30
0.0
 10
55825.76757515656
 20
-7685.468678841857
 30
0.0
 10
55811.81099651436
 20
-7691.627041064759
 30
0.0
 10
55793.65496198996
 20
-7697.535577536958
 30
0.0
 10
55771.36261562916
 20
-7702.661968288758
 30
0.0
 10
55748.78241919736
 20
-7706.309196566859
 30
0.0
 10
55726.02802762566
 20
-7708.601397152659
 30
0.0
 10
55703.19270324295
 20
-7709.768216394158
 30
0.0
 10
55687.95220883626
 20
-7709.965720160258
 30
0.0
 10
55680.33296245516
 20
-7709.963969577358
 30
0.0
  0
SPLINE
  5
10F
330
2
100
AcDbEntity
  8
0
  6
Continuous
 62
     7
100
AcDbSpline
210
0.0
220
0.0
230
1.0
 70
     8
 71
     3
 72
     9
 73
     5
 74
     0
 42
0.0000000001
 43
0.0000000001
 40
0.0
 40
0.0
 40
0.0
 40
0.0
 40
0.7394875116
 40
1.0
 40
1.0
 40
1.0
 40
1.0
 10
55901.18682497826
 20
-7427.250027456759
 30
0.0
 10
55901.20927126316
 20
-7427.248902604758
 30
0.0
 10
55901.23076463986
 20
-7427.252692816359
 30
0.0
 10
55901.27635397826
 20
-7427.245941251858
 30
0.0
 10
55901.27744782826
 20
-7427.253782803757
 30
0.0
  0
SPLINE
  5
110
330
2
100
AcDbEntity
  8
0
  6
Continuous
 62
     7
100
AcDbSpline
210
0.0
220
0.0
230
1.0
 70
     8
 71
     3
 72
     9
 73
     5
 74
     0
 42
0.0000000001
 43
0.0000000001
 40
0.0
 40
0.0
 40
0.0
 40
0.0
 40
0.7398142879
 40
1.0
 40
1.0
 40
1.0
 40
1.0
 10
55459.49936114096
 20
-7427.231989938258
 30
0.0
 10
55459.47856772696
 20
-7427.230880419059
 30
0.0
 10
55459.45855617506
 20
-7427.234697150957
 30
0.0
 10
55459.41653360797
 20
-7427.227428810159
 30
0.0
 10
55459.41534522936
 20
-7427.234654995856
 30
0.0
  0
SPLINE
  5
111
330
2
100
AcDbEntity
  8
0
  6
Continuous
 62
     7
100
AcDbSpline
210
0.0
220
0.0
230
1.0
 70
     8
 71
     3
 72
    10
 73
     6
 74
     0
 42
0.0000000001
 43
0.0000000001
 40
0.0
 40
0.0
 40
0.0
 40
0.0
 40
0.4992345421000001
 40
0.7496451348000001
 40
1.0
 40
1.0
 40
1.0
 40
1.0
 10
55864.58018735486
 20
-7405.000512487958
 30
0.0
 10
55868.63495342466
 20
-7405.373311172659
 30
0.0
 10
55874.70877054387
 20
-7406.927925361357
 30
0.0
 10
55881.81440884386
 20
-7411.004446035658
 30
0.0
 10
55884.91746758236
 20
-7413.712239464158
 30
0.0
 10
55886.31399608666
 20
-7415.201960007358
 30
0.0
  0
SPLINE
  5
112
330
2
100
AcDbEntity
  8
0
  6
Continuous
 62
     7
100
AcDbSpline
210
0.0
220
0.0
230
1.0
 70
     8
 71
     3
 72
    16
 73
    12
 74
     0
 42
0.0000000001
 43
0.0000000001
 40
0.0
 40
0.0
 40
0.0
 40
0.0
 40
0.2500001561
 40
0.3750009211
 40
0.5000016461
 40
0.625002542
 40
0.6875029548999999
 40
0.7500032550000001
 40
0.8125035253
 40
0.8750038973
 40
1.0
 40
1.0
 40
1.0
 40
1.0
 10
55680.31348195626
 20
-7402.310862764259
 30
0.0
 10
55695.67233825607
 20
-7402.250626845759
 30
0.0
 10
55718.71141305257
 20
-7402.358481428658
 30
0.0
 10
55749.42757268487
 20
-7402.692407491958
 30
0.0
 10
55772.46388310786
 20
-7403.020913278059
 30
0.0
 10
55791.66016076526
 20
-7403.333077221157
 30
0.0
 10
55807.01824340937
 20
-7403.516403422457
 30
0.0
 10
55818.53735623766
 20
-7403.573903396957
 30
0.0
 10
55830.05687745516
 20
-7403.610434620758
 30
0.0
 10
55845.41354856146
 20
-7403.777519296058
 30
0.0
 10
55856.93307646736
 20
-7404.298752006858
 30
0.0
 10
55864.58018735486
 20
-7405.000512487958
 30
0.0
  0
SPLINE
  5
113
330
2
100
AcDbEntity
  8
0
  6
Continuous
 62
     7
100
AcDbSpline
210
0.0
220
0.0
230
1.0
 70
     8
 71
     3
 72
    14
 73
    10
 74
     0
 42
0.0000000001
 43
0.0000000001
 40
0.0
 40
0.0
 40
0.0
 40
0.0
 40
0.1249992347
 40
0.2499986575
 40
0.3749989689
 40
0.4999994671
 40
0.6249998062
 40
0.7500002006000001
 40
1.0
 40
1.0
 40
1.0
 40
1.0
 10
55496.42135891197
 20
-7405.125788706257
 30
0.0
 10
55504.05255618346
 20
-7404.419643340258
 30
0.0
 10
55519.38309601497
 20
-7403.756769997158
 30
0.0
 10
55542.37286532757
 20
-7403.851537237558
 30
0.0
 10
55565.36507385626
 20
-7403.768641968757
 30
0.0
 10
55588.35469385256
 20
-7403.463386923156
 30
0.0
 10
55611.34378717285
 20
-7403.121841387857
 30
0.0
 10
55641.99557496196
 20
-7402.657377692958
 30
0.0
 10
55664.98592102226
 20
-7402.371095798158
 30
0.0
 10
55680.31348195626
 20
-7402.310862764259
 30
0.0
  0
SPLINE
  5
114
330
2
100
AcDbEntity
  8
0
  6
Continuous
 62
     7
100
AcDbSpline
210
0.0
220
0.0
230
1.0
 70
     8
 71
     3
 72
    10
 73
     6
 74
     0
 42
0.0000000001
 43
0.0000000001
 40
0.0
 40
0.0
 40
0.0
 40
0.0
 40
0.2504166973
 40
0.5008509068000001
 40
1.0
 40
1.0
 40
1.0
 40
1.0
 10
55474.64991054676
 20
-7415.624003456358
 30
0.0
 10
55476.02346860486
 20
-7414.090445332158
 30
0.0
 10
55479.09900747616
 20
-7411.297920217657
 30
0.0
 10
55486.21094829177
 20
-7407.095958913558
 30
0.0
 10
55492.33523923637
 20
-7405.504781157258
 30
0.0
 10
55496.42135891197
 20
-7405.125788706257
 30
0.0
  0
SPLINE
  5
115
330
2
100
AcDbEntity
  8
0
  6
Continuous
 62
     7
100
AcDbSpline
210
0.0
220
0.0
230
1.0
 70
     8
 71
     3
 72
    25
 73
    21
 74
     0
 42
0.0000000001
 43
0.0000000001
 40
0.0
 40
0.0
 40
0.0
 40
0.0
 40
0.0625081281
 40
0.1250139265
 40
0.1875118587
 40
0.2499939503
 40
0.2812453629
 40
0.3124939963
 40
0.343739401
 40
0.3749834142
 40
0.4062289512
 40
0.4374778945
 40
0.4687300975000001
 40
0.4999843241
 40
0.5624776943
 40
0.6249789544
 40
0.6874842123000001
 40
0.7499915566
 40
0.8749865304
 40
1.0
 40
1.0
 40
1.0
 40
1.0
 10
55474.64991054676
 20
-7415.624003456358
 30
0.0
 10
55475.49683743756
 20
-7409.889069116558
 30
0.0
 10
55477.46739976195
 20
-7398.457928405258
 30
0.0
 10
55481.36455441857
 20
-7381.498837208858
 30
0.0
 10
55486.45005736267
 20
-7364.853023821858
 30
0.0
 10
55492.02380967036
 20
-7351.439113854557
 30
0.0
 10
55497.52869677346
 20
-7341.227753888758
 30
0.0
 10
55502.25049528746
 20
-7333.914910724857
 30
0.0
 10
55507.64015997986
 20
-7327.073863721958
 30
0.0
 10
55513.74938254427
 20
-7320.864518657957
 30
0.0
 10
55520.47896707375
 20
-7315.337054469359
 30
0.0
 10
55527.70984329396
 20
-7310.488887088358
 30
0.0
 10
55535.30388606766
 20
-7306.238191609359
 30
0.0
 10
55545.77924875796
 20
-7301.257222617659
 30
0.0
 10
55559.36341444287
 20
-7296.137805576458
 30
0.0
 10
55576.11066607306
 20
-7291.401841501158
 30
0.0
 10
55593.13646108486
 20
-7287.805714692258
 30
0.0
 10
55616.06222687896
 20
-7284.276864556957
 30
0.0
 10
55644.98355581867
 20
-7281.909182794058
 30
0.0
 10
55668.17461892687
 20
-7281.490855013259
 30
0.0
 10
55679.76862704926
 20
-7281.494180032558
 30
0.0
  0
LINE
  5
116
330
2
100
AcDbEntity
  8
0
  6
Continuous
 62
     7
100
AcDbLine
 10
55679.76862704926
 20
-7281.494180032558
 30
0.0
 11
55680.65447128806
 21
-7281.494846760757
 31
0.0
  0
SPLINE
  5
117
330
2
100
AcDbEntity
  8
0
  6
Continuous
 62
     7
100
AcDbSpline
210
0.0
220
0.0
230
1.0
 70
     8
 71
     3
 72
    25
 73
    21
 74
     0
 42
0.0000000001
 43
0.0000000001
 40
0.0
 40
0.0
 40
0.0
 40
0.0
 40
0.1250133243
 40
0.2500085183
 40
0.3125157886
 40
0.3750209799
 40
0.4375223642
 40
0.5000156407000001
 40
0.5312697602
 40
0.5625219439000001
 40
0.5937708823
 40
0.6250162970000001
 40
0.6562600193
 40
0.6875050618000001
 40
0.7187534413
 40
0.7500046868000001
 40
0.8124877381999999
 40
0.8749862065
 40
0.9374921779999999
 40
1.0
 40
1.0
 40
1.0
 40
1.0
 10
55680.65447128806
 20
-7281.494846760757
 30
0.0
 10
55692.24426786516
 20
-7281.497577719257
 30
0.0
 10
55715.42662561596
 20
-7281.920724494359
 30
0.0
 10
55744.33785134666
 20
-7284.274411179659
 30
0.0
 10
55767.25926309476
 20
-7287.775147432057
 30
0.0
 10
55784.28442397156
 20
-7291.342959543259
 30
0.0
 10
55801.03475370636
 20
-7296.044287798358
 30
0.0
 10
55814.62542368536
 20
-7301.130773115457
 30
0.0
 10
55825.11029873356
 20
-7306.081657020257
 30
0.0
 10
55832.71435246486
 20
-7310.307726281658
 30
0.0
 10
55839.95902589076
 20
-7315.129453315458
 30
0.0
 10
55846.70465865166
 20
-7320.632365282458
 30
0.0
 10
55852.83004305287
 20
-7326.821551483558
 30
0.0
 10
55858.23151873516
 20
-7333.649543260257
 30
0.0
 10
55862.96023775107
 20
-7340.954209343158
 30
0.0
 10
55868.47435289116
 20
-7351.155774393958
 30
0.0
 10
55874.07925045506
 20
-7364.549434371259
 30
0.0
 10
55879.25607597946
 20
-7381.159037922158
 30
0.0
 10
55883.30214748697
 20
-7398.075601010258
 30
0.0
 10
55885.40401116606
 20
-7409.478847070959
 30
0.0
 10
55886.31399608666
 20
-7415.201960007358
 30
0.0
  0
SPLINE
  5
118
330
2
100
AcDbEntity
  8
0
  6
Continuous
 62
     7
100
AcDbSpline
210
0.0
220
0.0
230
1.0
 70
     8
 71
     3
 72
    10
 73
     6
 74
     0
 42
0.0000000001
 43
0.0000000001
 40
0.0
 40
0.0
 40
0.0
 40
0.0
 40
0.249946579
 40
0.4999628674000001
 40
1.0
 40
1.0
 40
1.0
 40
1.0
 10
55894.03408721927
 20
-7428.236971198358
 30
0.0
 10
55894.74065728776
 20
-7433.553837068259
 30
0.0
 10
55895.98175722186
 20
-7444.213366402959
 30
0.0
 10
55897.60877009756
 20
-7465.616430738058
 30
0.0
 10
55897.88695242686
 20
-7481.721845439158
 30
0.0
 10
55897.89010885236
 20
-7492.452152982558
 30
0.0
  0
SPLINE
  5
119
330
2
100
AcDbEntity
  8
0
  6
Continuous
 62
     7
100
AcDbSpline
210
0.0
220
0.0
230
1.0
 70
     8
 71
     3
 72
    24
 73
    20
 74
     0
 42
0.0000000001
 43
0.0000000001
 40
0.0
 40
0.0
 40
0.0
 40
0.0
 40
0.1249556257
 40
0.1874573444
 40
0.2499520762
 40
0.2812124948
 40
0.3124796299
 40
0.343741451
 40
0.3750128496
 40
0.4062756629999999
 40
0.4375469629000001
 40
0.5000236093
 40
0.5625166594
 40
0.6250144904
 40
0.6875140264000001
 40
0.7500148034000001
 40
0.8125147680999999
 40
0.8750150935999998
 40
1.0
 40
1.0
 40
1.0
 40
1.0
 10
55466.81743953766
 20
-7427.416584101658
 30
0.0
 10
55468.28191862986
 20
-7415.020860673358
 30
0.0
 10
55471.34131533757
 20
-7396.497333801058
 30
0.0
 10
55477.68442584876
 20
-7372.333042002458
 30
0.0
 10
55482.89720585026
 20
-7357.588198576957
 30
0.0
 10
55488.09022966277
 20
-7346.221962863957
 30
0.0
 10
55492.55293337047
 20
-7337.974817568358
 30
0.0
 10
55497.67303373706
 20
-7330.112765600557
 30
0.0
 10
55503.53526507047
 20
-7322.782431460658
 30
0.0
 10
55510.15526608176
 20
-7316.123446810258
 30
0.0
 10
55519.88942212366
 20
-7308.266980089058
 30
0.0
 10
55533.39040929526
 20
-7300.279988232358
 30
0.0
 10
55550.68479177056
 20
-7293.003186856957
 30
0.0
 10
55568.60790484376
 20
-7287.490566349958
 30
0.0
 10
55586.87143784516
 20
-7283.286004480358
 30
0.0
 10
55605.34474357826
 20
-7280.144192129158
 30
0.0
 10
55623.95094927636
 20
-7277.936287162758
 30
0.0
 10
55648.86054963716
 20
-7276.095038953158
 30
0.0
 10
55667.59833363557
 20
-7275.724093845759
 30
0.0
 10
55680.08319170846
 20
-7275.722731590658
 30
0.0
  0
SPLINE
  5
11A
330
2
100
AcDbEntity
  8
0
  6
Continuous
 62
     7
100
AcDbSpline
210
0.0
220
0.0
230
1.0
 70
     8
 71
     3
 72
    20
 73
    16
 74
     0
 42
0.0000000001
 43
0.0000000001
 40
0.0
 40
0.0
 40
0.0
 40
0.0
 40
0.1250084043
 40
0.1875292003
 40
0.250037602
 40
0.3125214832
 40
0.3749587843
 40
0.437381554
 40
0.4998531941
 40
0.5623580608
 40
0.624874254
 40
0.6873961176000001
 40
0.7499212933
 40
0.8749493020999999
 40
1.0
 40
1.0
 40
1.0
 40
1.0
 10
55469.10093555086
 20
-7426.624616527658
 30
0.0
 10
55470.50480307267
 20
-7414.375908613958
 30
0.0
 10
55473.43360586176
 20
-7396.066304844758
 30
0.0
 10
55479.61749439695
 20
-7372.175196884757
 30
0.0
 10
55485.80028009396
 20
-7354.711478274658
 30
0.0
 10
55494.01563395056
 20
-7338.090614819758
 30
0.0
 10
55504.89151044396
 20
-7322.996480782459
 30
0.0
 10
55518.88008099606
 20
-7310.696067630458
 30
0.0
 10
55534.90621293126
 20
-7301.337965041658
 30
0.0
 10
55551.96537840926
 20
-7294.115766217657
 30
0.0
 10
55569.62565437226
 20
-7288.541759568058
 30
0.0
 10
55587.66346300936
 20
-7284.371341466559
 30
0.0
 10
55612.00828970807
 20
-7280.339995192559
 30
0.0
 10
55642.76746114596
 20
-7277.684805647957
 30
0.0
 10
55667.43678410256
 20
-7277.224305573558
 30
0.0
 10
55679.76984891806
 20
-7277.232756238658
 30
0.0
  0
LINE
  5
11B
330
2
100
AcDbEntity
  8
0
  6
Continuous
 62
     7
100
AcDbLine
 10
55680.08319171376
 20
-7275.722700310058
 30
0.0
 11
55680.33151115737
 21
-7275.722766654557
 31
0.0
  0
LINE
  5
11C
330
2
100
AcDbEntity
  8
0
  6
Continuous
 62
     7
100
AcDbLine
 10
55680.33151120577
 20
-7275.722654242457
 30
0.0
 11
55680.97293309096
 21
-7275.723125726457
 31
0.0
  0
LINE
  5
11D
330
2
100
AcDbEntity
  8
0
  6
Continuous
 62
     7
100
AcDbLine
 10
55679.76984886056
 20
-7277.232927159558
 30
0.0
 11
55680.65756217476
 21
-7277.233607895057
 31
0.0
  0
SPLINE
  5
11E
330
2
100
AcDbEntity
  8
0
  6
Continuous
 62
     7
100
AcDbSpline
210
0.0
220
0.0
230
1.0
 70
     8
 71
     3
 72
    25
 73
    21
 74
     0
 42
0.0000000001
 43
0.0000000001
 40
0.0
 40
0.0
 40
0.0
 40
0.0
 40
0.124970743
 40
0.187466132
 40
0.2499586404
 40
0.3124537732
 40
0.3749491825
 40
0.4374453192
 40
0.4999381315
 40
0.5311992161
 40
0.5624705318
 40
0.5937329228000001
 40
0.6250034454
 40
0.6562613419
 40
0.6875342423000001
 40
0.7500222485
 40
0.8125142467999999
 40
0.8750096507999998
 40
0.9375074924999999
 40
1.0
 40
1.0
 40
1.0
 40
1.0
 10
55680.97292398836
 20
-7275.723111304358
 30
0.0
 10
55693.43997540336
 20
-7275.731036716658
 30
0.0
 10
55712.15116705346
 20
-7276.112980126258
 30
0.0
 10
55737.02388166236
 20
-7277.970628450258
 30
0.0
 10
55755.60294457917
 20
-7280.185080882358
 30
0.0
 10
55774.04656076886
 20
-7283.341281678257
 30
0.0
 10
55792.28661421556
 20
-7287.538336195858
 30
0.0
 10
55810.17430578996
 20
-7293.068574597258
 30
0.0
 10
55824.57792072596
 20
-7299.134042495558
 30
0.0
 10
55835.51999671656
 20
-7305.142943026559
 30
0.0
 10
55843.33779151846
 20
-7310.307235218258
 30
0.0
 10
55850.62164367106
 20
-7316.208813311357
 30
0.0
 10
55857.22964463947
 20
-7322.859786361357
 30
0.0
 10
55863.07145559227
 20
-7330.192507552358
 30
0.0
 10
55869.86084130306
 20
-7340.672046033659
 30
0.0
 10
55876.76595538237
 20
-7354.708460181658
 30
0.0
 10
55883.00594913196
 20
-7372.368004542959
 30
0.0
 10
55887.77990323886
 20
-7390.468017659059
 30
0.0
 10
55891.41281473646
 20
-7408.824932094159
 30
0.0
 10
55893.18946633847
 20
-7421.172783942758
 30
0.0
 10
55893.92952547527
 20
-7427.362941170257
 30
0.0
  0
SPLINE
  5
11F
330
2
100
AcDbEntity
  8
0
  6
Continuous
 62
     7
100
AcDbSpline
210
0.0
220
0.0
230
1.0
 70
     8
 71
     3
 72
    22
 73
    18
 74
     0
 42
0.0000000001
 43
0.0000000001
 40
0.0
 40
0.0
 40
0.0
 40
0.0
 40
0.1250360138
 40
0.1875577147
 40
0.2500776302
 40
0.3125953954
 40
0.3751098847
 40
0.4376187961
 40
0.5001159966
 40
0.5625793991
 40
0.5938307486
 40
0.6250802609
 40
0.6875092049
 40
0.7499874023000001
 40
0.8124905455
 40
0.8750052933999999
 40
1.0
 40
1.0
 40
1.0
 40
1.0
 10
55680.65758820716
 20
-7277.233591527258
 30
0.0
 10
55693.00770024526
 20
-7277.236178506358
 30
0.0
 10
55711.54157433737
 20
-7277.590166137258
 30
0.0
 10
55736.18814027876
 20
-7279.304171230357
 30
0.0
 10
55754.60565143596
 20
-7281.365640825358
 30
0.0
 10
55772.89383837026
 20
-7284.379341523157
 30
0.0
 10
55790.96113082366
 20
-7288.534018107258
 30
0.0
 10
55808.65308995156
 20
-7294.095458187358
 30
0.0
 10
55825.74218645656
 20
-7301.303588055557
 30
0.0
 10
55839.13413296737
 20
-7309.118538067457
 30
0.0
 10
55848.80189066606
 20
-7316.826075108157
 30
0.0
 10
55857.59397178496
 20
-7325.519746545558
 30
0.0
 10
55866.63649333426
 20
-7338.155359638157
 30
0.0
 10
55874.81613185206
 20
-7354.817127752358
 30
0.0
 10
55881.05426950826
 20
-7372.285712557958
 30
0.0
 10
55887.43605138406
 20
-7396.156323809258
 30
0.0
 10
55890.66501649556
 20
-7414.439452584858
 30
0.0
 10
55892.21924443537
 20
-7426.687264179858
 30
0.0
  0
SPLINE
  5
120
330
2
100
AcDbEntity
  8
0
  6
Continuous
 62
     7
100
AcDbSpline
210
0.0
220
0.0
230
1.0
 70
     8
 71
     3
 72
    12
 73
     8
 74
     0
 42
0.0000000001
 43
0.0000000001
 40
0.0
 40
0.0
 40
0.0
 40
0.0
 40
0.1221063381
 40
0.245931404
 40
0.4958563566
 40
0.7475116905000001
 40
1.0
 40
1.0
 40
1.0
 40
1.0
 10
55469.59354692226
 20
-7426.682113726958
 30
0.0
 10
55469.80404624966
 20
-7426.234111732758
 30
0.0
 10
55470.19343662916
 20
-7425.315989608659
 30
0.0
 10
55470.98585385466
 20
-7423.468873533657
 30
0.0
 10
55472.00302208166
 20
-7421.146387756158
 30
0.0
 10
55473.29112201556
 20
-7418.373970650458
 30
0.0
 10
55474.19025650966
 20
-7416.538523054658
 30
0.0
 10
55474.64990413746
 20
-7415.624009367459
 30
0.0
  0
SPLINE
  5
121
330
2
100
AcDbEntity
  8
0
  6
Continuous
 62
     7
100
AcDbSpline
210
0.0
220
0.0
230
1.0
 70
     8
 71
     3
 72
    12
 73
     8
 74
     0
 42
0.0000000001
 43
0.0000000001
 40
0.0
 40
0.0
 40
0.0
 40
0.0
 40
0.253039164
 40
0.5050604495000001
 40
0.7549639751
 40
0.8784888431999998
 40
1.0
 40
1.0
 40
1.0
 40
1.0
 10
55886.31399169316
 20
-7415.201955903659
 30
0.0
 10
55886.81563932157
 20
-7416.155295373958
 30
0.0
 10
55887.79690755236
 20
-7418.068740889359
 30
0.0
 10
55889.20047941746
 20
-7420.960550904557
 30
0.0
 10
55890.30059473876
 20
-7423.385715852157
 30
0.0
 10
55891.14898833726
 20
-7425.314366254058
 30
0.0
 10
55891.55862438436
 20
-7426.274064819158
 30
0.0
 10
55891.77810654586
 20
-7426.742507823958
 30
0.0
  0
MTEXT
  5
122
330
2
100
AcDbEntity
  8
尺寸标注
100
AcDbMText
 10
55703.35336627764
 20
-6493.992114827263
 30
0.0
 40
75.0
 41
801.6353349369019
 71
     2
 72
     5
  1
SCALE\P1:1
 73
     1
 44
1.0
  0
ENDSEC
  0
SECTION
  2
OBJECTS
  0
DICTIONARY
  5
9
330
0
100
AcDbDictionary
281
     1
  3
ACAD_COLOR
350
33
  3
ACAD_GROUP
350
2E
  3
ACAD_LAYOUT
350
F
  3
ACAD_MATERIAL
350
B
  3
ACAD_MLEADERSTYLE
350
161
  3
ACAD_MLINESTYLE
350
2F
  3
ACAD_PLOTSETTINGS
350
30
  3
ACAD_PLOTSTYLENAME
350
8
  3
ACAD_SCALELIST
350
13F
  3
ACAD_TABLESTYLE
350
34
  3
ACAD_VISUALSTYLE
350
26
  3
ACDB_RECOMPOSE_DATA
350
16E
  3
ACDBHEADERROUNDTRIPXREC
350
168
  3
AcDbVariableDictionary
350
125
  0
DICTIONARY
  5
27
330
23
100
AcDbDictionary
280
     1
281
     1
  0
DICTIONARY
  5
16
330
15
100
AcDbDictionary
280
     1
281
     1
  3
ACAD_LAYERFILTERS
360
17
  3
ACAD_LAYERSTATES
360
18
  3
ACLYDICTIONARY
360
19
  0
DICTIONARY
  5
3
330
2
100
AcDbDictionary
280
     1
281
     1
  3
ACAD_SORTENTS
360
123
  0
DICTIONARY
  5
33
102
{ACAD_REACTORS
330
9
102
}
330
9
100
AcDbDictionary
281
     1
  0
DICTIONARY
  5
2E
102
{ACAD_REACTORS
330
9
102
}
330
9
100
AcDbDictionary
281
     1
  0
DICTIONARY
  5
F
102
{ACAD_REACTORS
330
9
102
}
330
9
100
AcDbDictionary
281
     1
  3
Model
350
E
  3
布局1
350
14
  0
DICTIONARY
  5
B
102
{ACAD_REACTORS
330
9
102
}
330
9
100
AcDbDictionary
281
     1
  3
ByBlock
350
32
  3
ByLayer
350
31
  3
Global
350
A
  0
DICTIONARY
  5
161
102
{ACAD_REACTORS
330
9
102
}
330
9
100
AcDbDictionary
281
     1
  3
Standard
350
162
  0
DICTIONARY
  5
2F
102
{ACAD_REACTORS
330
9
102
}
330
9
100
AcDbDictionary
281
     1
  3
Standard
350
37
  0
DICTIONARY
  5
30
102
{ACAD_REACTORS
330
9
102
}
330
9
100
AcDbDictionary
281
     1
  0
ACDBDICTIONARYWDFLT
  5
8
102
{ACAD_REACTORS
330
9
102
}
330
9
100
AcDbDictionary
281
     1
  3
Normal
350
7
100
AcDbDictionaryWithDefault
340
7
  0
DICTIONARY
  5
13F
102
{ACAD_REACTORS
330
9
102
}
330
9
100
AcDbDictionary
281
     1
  3
A0
350
140
  3
A1
350
141
  3
A2
350
142
  3
A3
350
143
  3
A4
350
144
  3
A5
350
145
  3
A6
350
146
  3
A7
350
147
  3
A8
350
148
  3
A9
350
149
  3
B0
350
14A
  3
B1
350
14B
  3
B2
350
14C
  3
B3
350
14D
  3
B4
350
14E
  3
B5
350
14F
  3
B6
350
150
  3
B7
350
151
  3
B8
350
152
  3
B9
350
153
  3
C0
350
154
  3
C1
350
155
  3
C2
350
156
  3
C3
350
157
  3
C4
350
158
  3
C5
350
159
  3
C6
350
15A
  3
C7
350
15B
  3
C8
350
15C
  3
C9
350
15D
  3
D0
350
15E
  3
D1
350
15F
  3
D2
350
160
  0
DICTIONARY
  5
34
102
{ACAD_REACTORS
330
9
102
}
330
9
100
AcDbDictionary
281
     1
  3
Standard
350
38
  0
DICTIONARY
  5
26
102
{ACAD_REACTORS
330
9
102
}
330
9
100
AcDbDictionary
281
     1
  3
2dWireframe
350
25
  3
3D Hidden
350
12D
  3
3dWireframe
350
3A
  3
Basic
350
12C
  3
Brighten
350
130
  3
ColorChange
350
134
  3
Conceptual
350
12E
  3
Dim
350
12F
  3
Facepattern
350
133
  3
Flat
350
128
  3
FlatWithEdges
350
129
  3
Gouraud
350
12A
  3
GouraudWithEdges
350
12B
  3
Linepattern
350
132
  3
Realistic
350
39
  3
Thicken
350
131
  0
XRECORD
  5
16E
102
{ACAD_REACTORS
330
9
102
}
330
9
100
AcDbXrecord
280
     1
 90
        1
330
38
  0
DICTIONARY
  5
168
102
{ACAD_REACTORS
330
9
102
}
330
9
100
AcDbDictionary
281
     1
  0
DICTIONARY
  5
125
102
{ACAD_REACTORS
330
9
102
}
330
9
100
AcDbDictionary
281
     1
  3
CMLEADERSTYLE
350
166
  3
CTABLESTYLE
350
126
  0
DICTIONARY
  5
17
102
{ACAD_REACTORS
330
16
102
}
330
16
100
AcDbDictionary
281
     1
  0
DICTIONARY
  5
18
102
{ACAD_REACTORS
330
16
102
}
330
16
100
AcDbDictionary
281
     1
  0
DICTIONARY
  5
19
102
{ACAD_REACTORS
330
16
102
}
330
16
100
AcDbDictionary
281
     1
1001
ACAD
1000
<All
  0
SORTENTSTABLE
  5
123
102
{ACAD_REACTORS
330
3
102
}
330
3
100
AcDbSortentsTable
330
2
  0
LAYOUT
  5
E
102
{ACAD_REACTORS
330
F
102
}
330
F
100
AcDbPlotSettings
  1

  2
none_device
  4
ISO_A4_(210.00_x_297.00_MM)
  6

 40
7.5
 41
20.0
 42
7.5
 43
20.0
 44
210.0
 45
297.0
 46
11.54999923706054
 47
-13.65000009536743
 48
0.0
 49
0.0
140
0.0
141
0.0
142
1.0
143
8.704084754739808
 70
 11952
 72
     1
 73
     0
 74
     0
  7
acad.ctb
 75
     0
147
0.1148885871608098
 76
     0
 77
     2
 78
   300
148
0.0
149
0.0
100
AcDbLayout
  1
Model
 70
     1
 71
     0
 10
0.0
 20
0.0
 11
12.0
 21
9.0
 12
0.0
 22
0.0
 32
0.0
 14
0.0
 24
0.0
 34
0.0
 15
0.0
 25
0.0
 35
0.0
146
0.0
 13
0.0
 23
0.0
 33
0.0
 16
1.0
 26
0.0
 36
0.0
 17
0.0
 27
1.0
 37
0.0
 76
     0
330
2
331
24
1001
ACAD_PSEXT
1000
None
1000
None
1000
Not applicable
1000
The layout will not be plotted unless a new plotter configuration name is selected.
1070
     0
  0
LAYOUT
  5
14
102
{ACAD_REACTORS
330
F
102
}
330
F
100
AcDbPlotSettings
  1

  2
C:\Documents and Settings\basas\Application Data\Autodesk\AutoCAD 2005\R16.1\enu\plotters\Default Windows System Printer.pc3
  4

  6

 40
0.0
 41
0.0
 42
0.0
 43
0.0
 44
0.0
 45
0.0
 46
0.0
 47
0.0
 48
0.0
 49
0.0
140
0.0
141
0.0
142
1.0
143
1.0
 70
   688
 72
     0
 73
     0
 74
     5
  7
acad.ctb
 75
    16
147
1.0
 76
     0
 77
     2
 78
   300
148
0.0
149
0.0
100
AcDbLayout
  1
布局1
 70
     1
 71
     1
 10
0.0
 20
0.0
 11
12.0
 21
9.0
 12
0.0
 22
0.0
 32
0.0
 14
0.0
 24
0.0
 34
0.0
 15
0.0
 25
0.0
 35
0.0
146
0.0
 13
0.0
 23
0.0
 33
0.0
 16
1.0
 26
0.0
 36
0.0
 17
0.0
 27
1.0
 37
0.0
 76
     0
330
11
  0
MATERIAL
  5
32
102
{ACAD_REACTORS
330
B
102
}
330
B
100
AcDbMaterial
  1
ByBlock
  2

  0
MATERIAL
  5
31
102
{ACAD_REACTORS
330
B
102
}
330
B
100
AcDbMaterial
  1
ByLayer
  2

  0
MATERIAL
  5
A
102
{ACAD_REACTORS
330
B
102
}
330
B
100
AcDbMaterial
  1
Global
  2

  0
MLEADERSTYLE
  5
162
102
{ACAD_REACTORS
330
161
102
}
330
161
100
AcDbMLeaderStyle
170
     2
171
     1
172
     0
 90
        2
 40
0.0
 41
0.0
173
     1
 91
-1056964608
340
1F
 92
       -2
290
     1
 42
0.09
291
     1
 43
8.0
  3
Standard
341
0
 44
0.18
300

342
1C
174
     1
178
     1
175
     1
176
     0
 93
-1056964608
 45
0.18
292
     0
297
     0
 46
0.18
343
0
 94
-1056964608
 47
1.0
 49
1.0
140
1.0
293
     1
141
0.0
294
     1
177
     0
142
1.0
295
     0
296
     0
143
3.75
1001
ACAD_MLEADERVER
1070
     2
  0
MLINESTYLE
  5
37
102
{ACAD_REACTORS
330
2F
102
}
330
2F
100
AcDbMlineStyle
  2
STANDARD
 70
     0
  3

 62
   256
 51
90.0
 52
90.0
 71
     2
 49
0.5
 62
   256
  6
BYLAYER
 49
-0.5
 62
   256
  6
BYLAYER
  0
ACDBPLACEHOLDER
  5
7
102
{ACAD_REACTORS
330
8
102
}
330
8
  0
SCALE
  5
140
102
{ACAD_REACTORS
330
13F
102
}
330
13F
100
AcDbScale
 70
     0
300
1:1
140
1.0
141
1.0
290
     1
  0
SCALE
  5
141
102
{ACAD_REACTORS
330
13F
102
}
330
13F
100
AcDbScale
 70
     0
300
1:2
140
1.0
141
2.0
290
     0
  0
SCALE
  5
142
102
{ACAD_REACTORS
330
13F
102
}
330
13F
100
AcDbScale
 70
     0
300
1:4
140
1.0
141
4.0
290
     0
  0
SCALE
  5
143
102
{ACAD_REACTORS
330
13F
102
}
330
13F
100
AcDbScale
 70
     0
300
1:5
140
1.0
141
5.0
290
     0
  0
SCALE
  5
144
102
{ACAD_REACTORS
330
13F
102
}
330
13F
100
AcDbScale
 70
     0
300
1:8
140
1.0
141
8.0
290
     0
  0
SCALE
  5
145
102
{ACAD_REACTORS
330
13F
102
}
330
13F
100
AcDbScale
 70
     0
300
1:10
140
1.0
141
10.0
290
     0
  0
SCALE
  5
146
102
{ACAD_REACTORS
330
13F
102
}
330
13F
100
AcDbScale
 70
     0
300
1:16
140
1.0
141
16.0
290
     0
  0
SCALE
  5
147
102
{ACAD_REACTORS
330
13F
102
}
330
13F
100
AcDbScale
 70
     0
300
1:20
140
1.0
141
20.0
290
     0
  0
SCALE
  5
148
102
{ACAD_REACTORS
330
13F
102
}
330
13F
100
AcDbScale
 70
     0
300
1:30
140
1.0
141
30.0
290
     0
  0
SCALE
  5
149
102
{ACAD_REACTORS
330
13F
102
}
330
13F
100
AcDbScale
 70
     0
300
1:40
140
1.0
141
40.0
290
     0
  0
SCALE
  5
14A
102
{ACAD_REACTORS
330
13F
102
}
330
13F
100
AcDbScale
 70
     0
300
1:50
140
1.0
141
50.0
290
     0
  0
SCALE
  5
14B
102
{ACAD_REACTORS
330
13F
102
}
330
13F
100
AcDbScale
 70
     0
300
1:100
140
1.0
141
100.0
290
     0
  0
SCALE
  5
14C
102
{ACAD_REACTORS
330
13F
102
}
330
13F
100
AcDbScale
 70
     0
300
2:1
140
2.0
141
1.0
290
     0
  0
SCALE
  5
14D
102
{ACAD_REACTORS
330
13F
102
}
330
13F
100
AcDbScale
 70
     0
300
4:1
140
4.0
141
1.0
290
     0
  0
SCALE
  5
14E
102
{ACAD_REACTORS
330
13F
102
}
330
13F
100
AcDbScale
 70
     0
300
8:1
140
8.0
141
1.0
290
     0
  0
SCALE
  5
14F
102
{ACAD_REACTORS
330
13F
102
}
330
13F
100
AcDbScale
 70
     0
300
10:1
140
10.0
141
1.0
290
     0
  0
SCALE
  5
150
102
{ACAD_REACTORS
330
13F
102
}
330
13F
100
AcDbScale
 70
     0
300
100:1
140
100.0
141
1.0
290
     0
  0
SCALE
  5
151
102
{ACAD_REACTORS
330
13F
102
}
330
13F
100
AcDbScale
 70
     0
300
1/128" = 1'-0"
140
0.0078125
141
12.0
290
     0
  0
SCALE
  5
152
102
{ACAD_REACTORS
330
13F
102
}
330
13F
100
AcDbScale
 70
     0
300
1/64" = 1'-0"
140
0.015625
141
12.0
290
     0
  0
SCALE
  5
153
102
{ACAD_REACTORS
330
13F
102
}
330
13F
100
AcDbScale
 70
     0
300
1/32" = 1'-0"
140
0.03125
141
12.0
290
     0
  0
SCALE
  5
154
102
{ACAD_REACTORS
330
13F
102
}
330
13F
100
AcDbScale
 70
     0
300
1/16" = 1'-0"
140
0.0625
141
12.0
290
     0
  0
SCALE
  5
155
102
{ACAD_REACTORS
330
13F
102
}
330
13F
100
AcDbScale
 70
     0
300
3/32" = 1'-0"
140
0.09375
141
12.0
290
     0
  0
SCALE
  5
156
102
{ACAD_REACTORS
330
13F
102
}
330
13F
100
AcDbScale
 70
     0
300
1/8" = 1'-0"
140
0.125
141
12.0
290
     0
  0
SCALE
  5
157
102
{ACAD_REACTORS
330
13F
102
}
330
13F
100
AcDbScale
 70
     0
300
3/16" = 1'-0"
140
0.1875
141
12.0
290
     0
  0
SCALE
  5
158
102
{ACAD_REACTORS
330
13F
102
}
330
13F
100
AcDbScale
 70
     0
300
1/4" = 1'-0"
140
0.25
141
12.0
290
     0
  0
SCALE
  5
159
102
{ACAD_REACTORS
330
13F
102
}
330
13F
100
AcDbScale
 70
     0
300
3/8" = 1'-0"
140
0.375
141
12.0
290
     0
  0
SCALE
  5
15A
102
{ACAD_REACTORS
330
13F
102
}
330
13F
100
AcDbScale
 70
     0
300
1/2" = 1'-0"
140
0.5
141
12.0
290
     0
  0
SCALE
  5
15B
102
{ACAD_REACTORS
330
13F
102
}
330
13F
100
AcDbScale
 70
     0
300
3/4" = 1'-0"
140
0.75
141
12.0
290
     0
  0
SCALE
  5
15C
102
{ACAD_REACTORS
330
13F
102
}
330
13F
100
AcDbScale
 70
     0
300
1" = 1'-0"
140
1.0
141
12.0
290
     0
  0
SCALE
  5
15D
102
{ACAD_REACTORS
330
13F
102
}
330
13F
100
AcDbScale
 70
     0
300
1-1/2" = 1'-0"
140
1.5
141
12.0
290
     0
  0
SCALE
  5
15E
102
{ACAD_REACTORS
330
13F
102
}
330
13F
100
AcDbScale
 70
     0
300
3" = 1'-0"
140
3.0
141
12.0
290
     0
  0
SCALE
  5
15F
102
{ACAD_REACTORS
330
13F
102
}
330
13F
100
AcDbScale
 70
     0
300
6" = 1'-0"
140
6.0
141
12.0
290
     0
  0
SCALE
  5
160
102
{ACAD_REACTORS
330
13F
102
}
330
13F
100
AcDbScale
 70
     0
300
1'-0" = 1'-0"
140
12.0
141
12.0
290
     0
  0
TABLESTYLE
  5
38
102
{ACAD_XDICTIONARY
360
16B
102
}
102
{ACAD_REACTORS
330
34
102
}
330
34
100
AcDbTableStyle
  3
Standard
 70
     0
 71
     0
 40
1.5
 41
1.5
280
     0
281
     0
  7
Standard
140
4.5
170
     2
 62
     0
 63
   257
283
     0
274
    -2
284
     1
 64
     0
275
    -2
285
     1
 65
     0
276
    -2
286
     1
 66
     0
277
    -2
287
     1
 67
     0
278
    -2
288
     1
 68
     0
279
    -2
289
     1
 69
     0
  7
Standard
140
6.0
170
     5
 62
     0
 63
   257
283
     0
274
    -2
284
     1
 64
     0
275
    -2
285
     1
 65
     0
276
    -2
286
     1
 66
     0
277
    -2
287
     1
 67
     0
278
    -2
288
     1
 68
     0
279
    -2
289
     1
 69
     0
  7
Standard
140
4.5
170
     5
 62
     0
 63
   257
283
     0
274
    -2
284
     1
 64
     0
275
    -2
285
     1
 65
     0
276
    -2
286
     1
 66
     0
277
    -2
287
     1
 67
     0
278
    -2
288
     1
 68
     0
279
    -2
289
     1
 69
     0
  0
VISUALSTYLE
  5
25
102
{ACAD_XDICTIONARY
360
169
102
}
102
{ACAD_REACTORS
330
26
102
}
330
26
100
AcDbVisualStyle
  2
2dWireframe
 70
     4
 71
     0
 72
     2
 73
     1
 90
        0
 40
-0.6
 41
-30.0
 62
     5
 63
     7
421
 16777215
 74
     1
 91
        4
 64
     7
 65
   257
 75
     1
175
     1
 42
1.0
 92
        0
 66
   257
 43
1.0
 76
     1
 77
     6
 78
     2
 67
     7
 79
     5
170
     0
171
     0
290
     0
174
     0
 93
        1
 44
0.0
173
     0
291
     0
 45
0.0
1001
ACAD
1000
AcDbSavedByObjectVersion
1070
     0
  0
VISUALSTYLE
  5
12D
102
{ACAD_XDICTIONARY
360
17D
102
}
102
{ACAD_REACTORS
330
26
102
}
330
26
100
AcDbVisualStyle
  2
3D Hidden
 70
     6
 71
     1
 72
     2
 73
     2
 90
        0
 40
-0.6
 41
-30.0
 62
     5
 63
     7
421
 16777215
 74
     2
 91
        2
 64
     7
 65
   257
 75
     2
175
     1
 42
40.0
 92
        0
 66
   257
 43
1.0
 76
     1
 77
     6
 78
     2
 67
     7
 79
     3
170
     0
171
     0
290
     0
174
     0
 93
        1
 44
0.0
173
     0
291
     0
 45
0.0
1001
ACAD
1000
AcDbSavedByObjectVersion
1070
     0
  0
VISUALSTYLE
  5
3A
102
{ACAD_XDICTIONARY
360
171
102
}
102
{ACAD_REACTORS
330
26
102
}
330
26
100
AcDbVisualStyle
  2
3dWireframe
 70
     5
 71
     0
 72
     2
 73
     1
 90
        0
 40
-0.6
 41
-30.0
 62
     5
 63
     7
421
 16777215
 74
     1
 91
        4
 64
     7
 65
   257
 75
     1
175
     1
 42
1.0
 92
        0
 66
   257
 43
1.0
 76
     1
 77
     6
 78
     2
 67
     7
 79
     5
170
     0
171
     0
290
     0
174
     0
 93
        1
 44
0.0
173
     0
291
     0
 45
0.0
1001
ACAD
1000
AcDbSavedByObjectVersion
1070
     0
  0
VISUALSTYLE
  5
12C
102
{ACAD_XDICTIONARY
360
17B
102
}
102
{ACAD_REACTORS
330
26
102
}
330
26
100
AcDbVisualStyle
  2
Basic
 70
     7
 71
     1
 72
     0
 73
     1
 90
        0
 40
-0.6
 41
-30.0
 62
     5
 63
     7
421
 16777215
 74
     0
 91
        4
 64
     7
 65
   257
 75
     1
175
     1
 42
1.0
 92
        8
 66
     7
 43
1.0
 76
     1
 77
     6
 78
     2
 67
     7
 79
     5
170
     0
171
     0
290
     0
174
     0
 93
        1
 44
0.0
173
     0
291
     1
 45
0.0
1001
ACAD
1000
AcDbSavedByObjectVersion
1070
     0
  0
VISUALSTYLE
  5
130
102
{ACAD_XDICTIONARY
360
183
102
}
102
{ACAD_REACTORS
330
26
102
}
330
26
100
AcDbVisualStyle
  2
Brighten
 70
    12
 71
     2
 72
     2
 73
     0
 90
        0
 40
-0.6
 41
-30.0
 62
     5
 63
     7
421
 16777215
 74
     1
 91
        4
 64
     7
 65
   257
 75
     1
175
     1
 42
1.0
 92
        8
 66
     7
 43
1.0
 76
     1
 77
     6
 78
     2
 67
     7
 79
     5
170
     0
171
     0
290
     0
174
     0
 93
        1
 44
50.0
173
     0
291
     1
 45
0.0
1001
ACAD
1000
AcDbSavedByObjectVersion
1070
     0
  0
VISUALSTYLE
  5
134
102
{ACAD_XDICTIONARY
360
18B
102
}
102
{ACAD_REACTORS
330
26
102
}
330
26
100
AcDbVisualStyle
  2
ColorChange
 70
    16
 71
     2
 72
     2
 73
     3
 90
        0
 40
-0.6
 41
-30.0
 62
     5
 63
     8
421
  8421504
 74
     1
 91
        4
 64
     7
 65
   257
 75
     1
175
     1
 42
1.0
 92
        8
 66
     8
424
  8421504
 43
1.0
 76
     1
 77
     6
 78
     2
 67
     7
 79
     5
170
     0
171
     0
290
     0
174
     0
 93
        1
 44
0.0
173
     0
291
     1
 45
0.0
1001
ACAD
1000
AcDbSavedByObjectVersion
1070
     0
  0
VISUALSTYLE
  5
12E
102
{ACAD_XDICTIONARY
360
17F
102
}
102
{ACAD_REACTORS
330
26
102
}
330
26
100
AcDbVisualStyle
  2
Conceptual
 70
     9
 71
     3
 72
     2
 73
     0
 90
        0
 40
-0.6
 41
-30.0
 62
     5
 63
     7
421
 16777215
 74
     2
 91
        2
 64
     7
 65
   257
 75
     1
175
     1
 42
40.0
 92
        8
 66
     7
 43
1.0
 76
     1
 77
     6
 78
     2
 67
     7
 79
     3
170
     0
171
     0
290
     0
174
     0
 93
        1
 44
0.0
173
     0
291
     0
 45
0.0
1001
ACAD
1000
AcDbSavedByObjectVersion
1070
     0
  0
VISUALSTYLE
  5
12F
102
{ACAD_XDICTIONARY
360
181
102
}
102
{ACAD_REACTORS
330
26
102
}
330
26
100
AcDbVisualStyle
  2
Dim
 70
    11
 71
     2
 72
     2
 73
     0
 90
        0
 40
-0.6
 41
-30.0
 62
     5
 63
     7
421
 16777215
 74
     1
 91
        4
 64
     7
 65
   257
 75
     1
175
     1
 42
1.0
 92
        8
 66
     7
 43
1.0
 76
     1
 77
     6
 78
     2
 67
     7
 79
     5
170
     0
171
     0
290
     0
174
     0
 93
        1
 44
-50.0
173
     0
291
     1
 45
0.0
1001
ACAD
1000
AcDbSavedByObjectVersion
1070
     0
  0
VISUALSTYLE
  5
133
102
{ACAD_XDICTIONARY
360
189
102
}
102
{ACAD_REACTORS
330
26
102
}
330
26
100
AcDbVisualStyle
  2
Facepattern
 70
    15
 71
     2
 72
     2
 73
     0
 90
        0
 40
-0.6
 41
-30.0
 62
     5
 63
     7
421
 16777215
 74
     1
 91
        4
 64
     7
 65
   257
 75
     1
175
     1
 42
1.0
 92
        8
 66
     7
 43
1.0
 76
     1
 77
     6
 78
     2
 67
     7
 79
     5
170
     0
171
     0
290
     0
174
     0
 93
        1
 44
0.0
173
     0
291
     1
 45
0.0
1001
ACAD
1000
AcDbSavedByObjectVersion
1070
     0
  0
VISUALSTYLE
  5
128
102
{ACAD_XDICTIONARY
360
173
102
}
102
{ACAD_REACTORS
330
26
102
}
330
26
100
AcDbVisualStyle
  2
Flat
 70
     0
 71
     2
 72
     1
 73
     1
 90
        2
 40
-0.6
 41
30.0
 62
     5
 63
     7
421
 16777215
 74
     0
 91
        4
 64
     7
 65
   257
 75
     1
175
     1
 42
1.0
 92
        8
 66
     7
 43
1.0
 76
     1
 77
     6
 78
     2
 67
     7
 79
     5
170
     0
171
     0
290
     0
174
     0
 93
       13
 44
0.0
173
     0
291
     1
 45
0.0
1001
ACAD
1000
AcDbSavedByObjectVersion
1070
     0
  0
VISUALSTYLE
  5
129
102
{ACAD_XDICTIONARY
360
175
102
}
102
{ACAD_REACTORS
330
26
102
}
330
26
100
AcDbVisualStyle
  2
FlatWithEdges
 70
     1
 71
     2
 72
     1
 73
     1
 90
        2
 40
-0.6
 41
30.0
 62
     5
 63
     7
421
 16777215
 74
     1
 91
        4
 64
     7
 65
   257
 75
     1
175
     1
 42
1.0
 92
        0
 66
   257
 43
1.0
 76
     1
 77
     6
 78
     2
 67
     7
 79
     5
170
     0
171
     0
290
     0
174
     0
 93
       13
 44
0.0
173
     0
291
     1
 45
0.0
1001
ACAD
1000
AcDbSavedByObjectVersion
1070
     0
  0
VISUALSTYLE
  5
12A
102
{ACAD_XDICTIONARY
360
177
102
}
102
{ACAD_REACTORS
330
26
102
}
330
26
100
AcDbVisualStyle
  2
Gouraud
 70
     2
 71
     2
 72
     2
 73
     1
 90
        2
 40
-0.6
 41
30.0
 62
     5
 63
     7
421
 16777215
 74
     0
 91
        4
 64
     7
 65
   257
 75
     1
175
     1
 42
1.0
 92
        0
 66
     7
 43
1.0
 76
     1
 77
     6
 78
     2
 67
     7
 79
     5
170
     0
171
     0
290
     0
174
     0
 93
       13
 44
0.0
173
     0
291
     1
 45
0.0
1001
ACAD
1000
AcDbSavedByObjectVersion
1070
     0
  0
VISUALSTYLE
  5
12B
102
{ACAD_XDICTIONARY
360
179
102
}
102
{ACAD_REACTORS
330
26
102
}
330
26
100
AcDbVisualStyle
  2
GouraudWithEdges
 70
     3
 71
     2
 72
     2
 73
     1
 90
        2
 40
-0.6
 41
30.0
 62
     5
 63
     7
421
 16777215
 74
     1
 91
        4
 64
     7
 65
   257
 75
     1
175
     1
 42
1.0
 92
        0
 66
   257
 43
1.0
 76
     1
 77
     6
 78
     2
 67
     7
 79
     5
170
     0
171
     0
290
     0
174
     0
 93
       13
 44
0.0
173
     0
291
     1
 45
0.0
1001
ACAD
1000
AcDbSavedByObjectVersion
1070
     0
  0
VISUALSTYLE
  5
132
102
{ACAD_XDICTIONARY
360
187
102
}
102
{ACAD_REACTORS
330
26
102
}
330
26
100
AcDbVisualStyle
  2
Linepattern
 70
    14
 71
     2
 72
     2
 73
     0
 90
        0
 40
-0.6
 41
-30.0
 62
     5
 63
     7
421
 16777215
 74
     1
 91
        4
 64
     7
 65
   257
 75
     7
175
     7
 42
1.0
 92
        8
 66
     7
 43
1.0
 76
     1
 77
     6
 78
     2
 67
     7
 79
     5
170
     0
171
     0
290
     0
174
     0
 93
        1
 44
0.0
173
     0
291
     1
 45
0.0
1001
ACAD
1000
AcDbSavedByObjectVersion
1070
     0
  0
VISUALSTYLE
  5
39
102
{ACAD_XDICTIONARY
360
16F
102
}
102
{ACAD_REACTORS
330
26
102
}
330
26
100
AcDbVisualStyle
  2
Realistic
 70
     8
 71
     2
 72
     2
 73
     1
 90
        0
 40
-0.6
 41
-30.0
 62
     5
 63
     7
421
 16777215
 74
     1
 91
        0
 64
     7
 65
   257
 75
     1
175
     1
 42
1.0
 92
        8
 66
     8
424
  7895160
 43
1.0
 76
     1
 77
     6
 78
     2
 67
     7
 79
     5
170
     0
171
     0
290
     0
174
     0
 93
       13
 44
0.0
173
     0
291
     0
 45
0.0
1001
ACAD
1000
AcDbSavedByObjectVersion
1070
     0
  0
VISUALSTYLE
  5
131
102
{ACAD_XDICTIONARY
360
185
102
}
102
{ACAD_REACTORS
330
26
102
}
330
26
100
AcDbVisualStyle
  2
Thicken
 70
    13
 71
     2
 72
     2
 73
     0
 90
        0
 40
-0.6
 41
-30.0
 62
     5
 63
     7
421
 16777215
 74
     1
 91
        4
 64
     7
 65
   257
 75
     1
175
     1
 42
1.0
 92
       12
 66
     7
 43
1.0
 76
     1
 77
     6
 78
     2
 67
     7
 79
     5
170
     0
171
     0
290
     0
174
     0
 93
        1
 44
0.0
173
     0
291
     1
 45
0.0
1001
ACAD
1000
AcDbSavedByObjectVersion
1070
     0
  0
DICTIONARYVAR
  5
166
102
{ACAD_REACTORS
330
125
102
}
330
125
100
DictionaryVariables
280
     0
  1
STANDARD
  0
DICTIONARYVAR
  5
126
102
{ACAD_REACTORS
330
125
102
}
330
125
100
DictionaryVariables
280
     0
  1
STANDARD
  0
DICTIONARY
  5
16B
330
38
100
AcDbDictionary
280
     1
281
     1
  3
ACAD_ROUNDTRIP_2008_TABLESTYLE_CELLSTYLEMAP
360
16D
  3
ACAD_XREC_ROUNDTRIP
360
16C
  0
DICTIONARY
  5
169
330
25
100
AcDbDictionary
280
     1
281
     1
  3
ACAD_XREC_ROUNDTRIP
360
16A
  0
DICTIONARY
  5
17D
330
12D
100
AcDbDictionary
280
     1
281
     1
  3
ACAD_XREC_ROUNDTRIP
360
17E
  0
DICTIONARY
  5
171
330
3A
100
AcDbDictionary
280
     1
281
     1
  3
ACAD_XREC_ROUNDTRIP
360
172
  0
DICTIONARY
  5
17B
330
12C
100
AcDbDictionary
280
     1
281
     1
  3
ACAD_XREC_ROUNDTRIP
360
17C
  0
DICTIONARY
  5
183
330
130
100
AcDbDictionary
280
     1
281
     1
  3
ACAD_XREC_ROUNDTRIP
360
184
  0
DICTIONARY
  5
18B
330
134
100
AcDbDictionary
280
     1
281
     1
  3
ACAD_XREC_ROUNDTRIP
360
18C
  0
DICTIONARY
  5
17F
330
12E
100
AcDbDictionary
280
     1
281
     1
  3
ACAD_XREC_ROUNDTRIP
360
180
  0
DICTIONARY
  5
181
330
12F
100
AcDbDictionary
280
     1
281
     1
  3
ACAD_XREC_ROUNDTRIP
360
182
  0
DICTIONARY
  5
189
330
133
100
AcDbDictionary
280
     1
281
     1
  3
ACAD_XREC_ROUNDTRIP
360
18A
  0
DICTIONARY
  5
173
330
128
100
AcDbDictionary
280
     1
281
     1
  3
ACAD_XREC_ROUNDTRIP
360
174
  0
DICTIONARY
  5
175
330
129
100
AcDbDictionary
280
     1
281
     1
  3
ACAD_XREC_ROUNDTRIP
360
176
  0
DICTIONARY
  5
177
330
12A
100
AcDbDictionary
280
     1
281
     1
  3
ACAD_XREC_ROUNDTRIP
360
178
  0
DICTIONARY
  5
179
330
12B
100
AcDbDictionary
280
     1
281
     1
  3
ACAD_XREC_ROUNDTRIP
360
17A
  0
DICTIONARY
  5
187
330
132
100
AcDbDictionary
280
     1
281
     1
  3
ACAD_XREC_ROUNDTRIP
360
188
  0
DICTIONARY
  5
16F
330
39
100
AcDbDictionary
280
     1
281
     1
  3
ACAD_XREC_ROUNDTRIP
360
170
  0
DICTIONARY
  5
185
330
131
100
AcDbDictionary
280
     1
281
     1
  3
ACAD_XREC_ROUNDTRIP
360
186
  0
CELLSTYLEMAP
  5
16D
102
{ACAD_REACTORS
330
16B
102
}
330
16B
100
AcDbCellStyleMap
 90
        3
300
CELLSTYLE
  1
TABLEFORMAT_BEGIN
 90
        5
170
     1
 91
        0
 92
        0
 62
   257
 93
        1
300
CONTENTFORMAT
  1
CONTENTFORMAT_BEGIN
 90
        0
 91
        0
 92
      512
 93
        0
300

 40
0.0
140
1.0
 94
        5
 62
     0
340
1C
144
6.0
309
CONTENTFORMAT_END
171
     1
301
MARGIN
  1
CELLMARGIN_BEGIN
 40
1.5
 40
1.5
 40
1.5
 40
1.5
 40
4.5
 40
4.5
309
CELLMARGIN_END
 94
        6
 95
        1
302
GRIDFORMAT
  1
GRIDFORMAT_BEGIN
 90
        0
 91
        1
 62
     0
 92
       -2
340
0
 93
        0
 40
0.045
309
GRIDFORMAT_END
 95
        2
302
GRIDFORMAT
  1
GRIDFORMAT_BEGIN
 90
        0
 91
        1
 62
     0
 92
       -2
340
0
 93
        0
 40
0.045
309
GRIDFORMAT_END
 95
        4
302
GRIDFORMAT
  1
GRIDFORMAT_BEGIN
 90
        0
 91
        1
 62
     0
 92
       -2
340
0
 93
        0
 40
0.045
309
GRIDFORMAT_END
 95
        8
302
GRIDFORMAT
  1
GRIDFORMAT_BEGIN
 90
        0
 91
        1
 62
     0
 92
       -2
340
0
 93
        0
 40
0.045
309
GRIDFORMAT_END
 95
       16
302
GRIDFORMAT
  1
GRIDFORMAT_BEGIN
 90
        0
 91
        1
 62
     0
 92
       -2
340
0
 93
        0
 40
0.045
309
GRIDFORMAT_END
 95
       32
302
GRIDFORMAT
  1
GRIDFORMAT_BEGIN
 90
        0
 91
        1
 62
     0
 92
       -2
340
0
 93
        0
 40
0.045
309
GRIDFORMAT_END
309
TABLEFORMAT_END
  1
CELLSTYLE_BEGIN
 90
        1
 91
        1
300
_TITLE
309
CELLSTYLE_END
300
CELLSTYLE
  1
TABLEFORMAT_BEGIN
 90
        5
170
     1
 91
        0
 92
        0
 62
   257
 93
        1
300
CONTENTFORMAT
  1
CONTENTFORMAT_BEGIN
 90
        0
 91
        0
 92
      512
 93
        0
300

 40
0.0
140
1.0
 94
        5
 62
     0
340
1C
144
4.5
309
CONTENTFORMAT_END
171
     1
301
MARGIN
  1
CELLMARGIN_BEGIN
 40
1.5
 40
1.5
 40
1.5
 40
1.5
 40
4.5
 40
4.5
309
CELLMARGIN_END
 94
        6
 95
        1
302
GRIDFORMAT
  1
GRIDFORMAT_BEGIN
 90
        0
 91
        1
 62
     0
 92
       -2
340
0
 93
        0
 40
0.045
309
GRIDFORMAT_END
 95
        2
302
GRIDFORMAT
  1
GRIDFORMAT_BEGIN
 90
        0
 91
        1
 62
     0
 92
       -2
340
0
 93
        0
 40
0.045
309
GRIDFORMAT_END
 95
        4
302
GRIDFORMAT
  1
GRIDFORMAT_BEGIN
 90
        0
 91
        1
 62
     0
 92
       -2
340
0
 93
        0
 40
0.045
309
GRIDFORMAT_END
 95
        8
302
GRIDFORMAT
  1
GRIDFORMAT_BEGIN
 90
        0
 91
        1
 62
     0
 92
       -2
340
0
 93
        0
 40
0.045
309
GRIDFORMAT_END
 95
       16
302
GRIDFORMAT
  1
GRIDFORMAT_BEGIN
 90
        0
 91
        1
 62
     0
 92
       -2
340
0
 93
        0
 40
0.045
309
GRIDFORMAT_END
 95
       32
302
GRIDFORMAT
  1
GRIDFORMAT_BEGIN
 90
        0
 91
        1
 62
     0
 92
       -2
340
0
 93
        0
 40
0.045
309
GRIDFORMAT_END
309
TABLEFORMAT_END
  1
CELLSTYLE_BEGIN
 90
        2
 91
        1
300
_HEADER
309
CELLSTYLE_END
300
CELLSTYLE
  1
TABLEFORMAT_BEGIN
 90
        5
170
     1
 91
        0
 92
        0
 62
   257
 93
        1
300
CONTENTFORMAT
  1
CONTENTFORMAT_BEGIN
 90
        0
 91
        0
 92
      512
 93
        0
300

 40
0.0
140
1.0
 94
        2
 62
     0
340
1C
144
4.5
309
CONTENTFORMAT_END
171
     1
301
MARGIN
  1
CELLMARGIN_BEGIN
 40
1.5
 40
1.5
 40
1.5
 40
1.5
 40
4.5
 40
4.5
309
CELLMARGIN_END
 94
        6
 95
        1
302
GRIDFORMAT
  1
GRIDFORMAT_BEGIN
 90
        0
 91
        1
 62
     0
 92
       -2
340
0
 93
        0
 40
0.045
309
GRIDFORMAT_END
 95
        2
302
GRIDFORMAT
  1
GRIDFORMAT_BEGIN
 90
        0
 91
        1
 62
     0
 92
       -2
340
0
 93
        0
 40
0.045
309
GRIDFORMAT_END
 95
        4
302
GRIDFORMAT
  1
GRIDFORMAT_BEGIN
 90
        0
 91
        1
 62
     0
 92
       -2
340
0
 93
        0
 40
0.045
309
GRIDFORMAT_END
 95
        8
302
GRIDFORMAT
  1
GRIDFORMAT_BEGIN
 90
        0
 91
        1
 62
     0
 92
       -2
340
0
 93
        0
 40
0.045
309
GRIDFORMAT_END
 95
       16
302
GRIDFORMAT
  1
GRIDFORMAT_BEGIN
 90
        0
 91
        1
 62
     0
 92
       -2
340
0
 93
        0
 40
0.045
309
GRIDFORMAT_END
 95
       32
302
GRIDFORMAT
  1
GRIDFORMAT_BEGIN
 90
        0
 91
        1
 62
     0
 92
       -2
340
0
 93
        0
 40
0.045
309
GRIDFORMAT_END
309
TABLEFORMAT_END
  1
CELLSTYLE_BEGIN
 90
        3
 91
        2
300
_DATA
309
CELLSTYLE_END
  0
XRECORD
  5
16C
102
{ACAD_REACTORS
330
16B
102
}
330
16B
100
AcDbXrecord
280
     1
102
ACAD_ROUNDTRIP_PRE2007_TABLESTYLE
 90
      512
 91
        0
  1

 92
      512
 93
        0
  2

 94
      512
 95
        0
  3

  0
XRECORD
  5
16A
102
{ACAD_REACTORS
330
169
102
}
330
169
100
AcDbXrecord
280
     1
102
RTVSPropertyOp0
 70
     1
102
RTVSPropertyOp1
 70
     1
102
RTVSPropertyOp2
 70
     1
102
RTVSPropertyOp3
 70
     1
102
RTVSPropertyOp4
 70
     1
102
RTVSPropertyOp5
 70
     1
102
RTVSPropertyOp6
 70
     1
102
RTVSPropertyOp7
 70
     1
102
RTVSPropertyOp8
 70
     1
102
RTVSPropertyOp9
 70
     1
102
RTVSPropertyOp10
 70
     1
102
RTVSPropertyOp11
 70
     1
102
RTVSPropertyOp12
 70
     1
102
RTVSPropertyOp13
 70
     1
102
RTVSPropertyOp14
 70
     1
102
RTVSPropertyOp15
 70
     1
102
RTVSPropertyOp16
 70
     1
102
RTVSPropertyOp17
 70
     1
102
RTVSPropertyOp18
 70
     1
102
RTVSPropertyOp19
 70
     1
102
RTVSPropertyOp20
 70
     1
102
RTVSPropertyOp21
 70
     1
102
RTVSPropertyOp22
 70
     1
102
RTVSPropertyOp23
 70
     1
102
RTVSPropertyOp24
 70
     1
102
RTVSPropertyOp25
 70
     1
102
RTVSPropertyOp26
 70
     1
102
RTVSPropertyOp27
 70
     1
  0
XRECORD
  5
17E
102
{ACAD_REACTORS
330
17D
102
}
330
17D
100
AcDbXrecord
280
     1
102
RTVSPropertyOp0
 70
     1
102
RTVSPropertyOp1
 70
     1
102
RTVSPropertyOp2
 70
     1
102
RTVSPropertyOp3
 70
     1
102
RTVSPropertyOp4
 70
     1
102
RTVSPropertyOp5
 70
     1
102
RTVSPropertyOp6
 70
     1
102
RTVSPropertyOp7
 70
     1
102
RTVSPropertyOp8
 70
     1
102
RTVSPropertyOp9
 70
     1
102
RTVSPropertyOp10
 70
     1
102
RTVSPropertyOp11
 70
     1
102
RTVSPropertyOp12
 70
     1
102
RTVSPropertyOp13
 70
     1
102
RTVSPropertyOp14
 70
     1
102
RTVSPropertyOp15
 70
     1
102
RTVSPropertyOp16
 70
     1
102
RTVSPropertyOp17
 70
     1
102
RTVSPropertyOp18
 70
     1
102
RTVSPropertyOp19
 70
     1
102
RTVSPropertyOp20
 70
     1
102
RTVSPropertyOp21
 70
     1
102
RTVSPropertyOp22
 70
     1
102
RTVSPropertyOp23
 70
     1
102
RTVSPropertyOp24
 70
     1
102
RTVSPropertyOp25
 70
     1
102
RTVSPropertyOp26
 70
     1
102
RTVSPropertyOp27
 70
     1
  0
XRECORD
  5
172
102
{ACAD_REACTORS
330
171
102
}
330
171
100
AcDbXrecord
280
     1
102
RTVSPropertyOp0
 70
     1
102
RTVSPropertyOp1
 70
     1
102
RTVSPropertyOp2
 70
     1
102
RTVSPropertyOp3
 70
     1
102
RTVSPropertyOp4
 70
     1
102
RTVSPropertyOp5
 70
     1
102
RTVSPropertyOp6
 70
     1
102
RTVSPropertyOp7
 70
     1
102
RTVSPropertyOp8
 70
     1
102
RTVSPropertyOp9
 70
     1
102
RTVSPropertyOp10
 70
     1
102
RTVSPropertyOp11
 70
     1
102
RTVSPropertyOp12
 70
     1
102
RTVSPropertyOp13
 70
     1
102
RTVSPropertyOp14
 70
     1
102
RTVSPropertyOp15
 70
     1
102
RTVSPropertyOp16
 70
     1
102
RTVSPropertyOp17
 70
     1
102
RTVSPropertyOp18
 70
     1
102
RTVSPropertyOp19
 70
     1
102
RTVSPropertyOp20
 70
     1
102
RTVSPropertyOp21
 70
     1
102
RTVSPropertyOp22
 70
     1
102
RTVSPropertyOp23
 70
     1
102
RTVSPropertyOp24
 70
     1
102
RTVSPropertyOp25
 70
     1
102
RTVSPropertyOp26
 70
     1
102
RTVSPropertyOp27
 70
     1
  0
XRECORD
  5
17C
102
{ACAD_REACTORS
330
17B
102
}
330
17B
100
AcDbXrecord
280
     1
102
RTVSPropertyOp0
 70
     1
102
RTVSPropertyOp1
 70
     1
102
RTVSPropertyOp2
 70
     1
102
RTVSPropertyOp3
 70
     1
102
RTVSPropertyOp4
 70
     1
102
RTVSPropertyOp5
 70
     1
102
RTVSPropertyOp6
 70
     1
102
RTVSPropertyOp7
 70
     1
102
RTVSPropertyOp8
 70
     1
102
RTVSPropertyOp9
 70
     1
102
RTVSPropertyOp10
 70
     1
102
RTVSPropertyOp11
 70
     1
102
RTVSPropertyOp12
 70
     1
102
RTVSPropertyOp13
 70
     1
102
RTVSPropertyOp14
 70
     1
102
RTVSPropertyOp15
 70
     1
102
RTVSPropertyOp16
 70
     1
102
RTVSPropertyOp17
 70
     1
102
RTVSPropertyOp18
 70
     1
102
RTVSPropertyOp19
 70
     1
102
RTVSPropertyOp20
 70
     1
102
RTVSPropertyOp21
 70
     1
102
RTVSPropertyOp22
 70
     1
102
RTVSPropertyOp23
 70
     1
102
RTVSPropertyOp24
 70
     1
102
RTVSPropertyOp25
 70
     1
102
RTVSPropertyOp26
 70
     1
102
RTVSPropertyOp27
 70
     1
  0
XRECORD
  5
184
102
{ACAD_REACTORS
330
183
102
}
330
183
100
AcDbXrecord
280
     1
102
RTVSPropertyOp0
 70
     1
102
RTVSPropertyOp1
 70
     1
102
RTVSPropertyOp2
 70
     1
102
RTVSPropertyOp3
 70
     1
102
RTVSPropertyOp4
 70
     1
102
RTVSPropertyOp5
 70
     1
102
RTVSPropertyOp6
 70
     1
102
RTVSPropertyOp7
 70
     1
102
RTVSPropertyOp8
 70
     1
102
RTVSPropertyOp9
 70
     1
102
RTVSPropertyOp10
 70
     1
102
RTVSPropertyOp11
 70
     1
102
RTVSPropertyOp12
 70
     1
102
RTVSPropertyOp13
 70
     1
102
RTVSPropertyOp14
 70
     1
102
RTVSPropertyOp15
 70
     1
102
RTVSPropertyOp16
 70
     1
102
RTVSPropertyOp17
 70
     1
102
RTVSPropertyOp18
 70
     1
102
RTVSPropertyOp19
 70
     1
102
RTVSPropertyOp20
 70
     1
102
RTVSPropertyOp21
 70
     1
102
RTVSPropertyOp22
 70
     1
102
RTVSPropertyOp23
 70
     1
102
RTVSPropertyOp24
 70
     1
102
RTVSPropertyOp25
 70
     1
102
RTVSPropertyOp26
 70
     1
102
RTVSPropertyOp27
 70
     1
  0
XRECORD
  5
18C
102
{ACAD_REACTORS
330
18B
102
}
330
18B
100
AcDbXrecord
280
     1
102
RTVSPropertyOp0
 70
     1
102
RTVSPropertyOp1
 70
     1
102
RTVSPropertyOp2
 70
     1
102
RTVSPropertyOp3
 70
     1
102
RTVSPropertyOp4
 70
     1
102
RTVSPropertyOp5
 70
     1
102
RTVSPropertyOp6
 70
     1
102
RTVSPropertyOp7
 70
     1
102
RTVSPropertyOp8
 70
     1
102
RTVSPropertyOp9
 70
     1
102
RTVSPropertyOp10
 70
     1
102
RTVSPropertyOp11
 70
     1
102
RTVSPropertyOp12
 70
     1
102
RTVSPropertyOp13
 70
     1
102
RTVSPropertyOp14
 70
     1
102
RTVSPropertyOp15
 70
     1
102
RTVSPropertyOp16
 70
     1
102
RTVSPropertyOp17
 70
     1
102
RTVSPropertyOp18
 70
     1
102
RTVSPropertyOp19
 70
     1
102
RTVSPropertyOp20
 70
     1
102
RTVSPropertyOp21
 70
     1
102
RTVSPropertyOp22
 70
     1
102
RTVSPropertyOp23
 70
     1
102
RTVSPropertyOp24
 70
     1
102
RTVSPropertyOp25
 70
     1
102
RTVSPropertyOp26
 70
     1
102
RTVSPropertyOp27
 70
     1
  0
XRECORD
  5
180
102
{ACAD_REACTORS
330
17F
102
}
330
17F
100
AcDbXrecord
280
     1
102
RTVSPropertyOp0
 70
     1
102
RTVSPropertyOp1
 70
     1
102
RTVSPropertyOp2
 70
     1
102
RTVSPropertyOp3
 70
     1
102
RTVSPropertyOp4
 70
     1
102
RTVSPropertyOp5
 70
     1
102
RTVSPropertyOp6
 70
     1
102
RTVSPropertyOp7
 70
     1
102
RTVSPropertyOp8
 70
     1
102
RTVSPropertyOp9
 70
     1
102
RTVSPropertyOp10
 70
     1
102
RTVSPropertyOp11
 70
     1
102
RTVSPropertyOp12
 70
     1
102
RTVSPropertyOp13
 70
     1
102
RTVSPropertyOp14
 70
     1
102
RTVSPropertyOp15
 70
     1
102
RTVSPropertyOp16
 70
     1
102
RTVSPropertyOp17
 70
     1
102
RTVSPropertyOp18
 70
     1
102
RTVSPropertyOp19
 70
     1
102
RTVSPropertyOp20
 70
     1
102
RTVSPropertyOp21
 70
     1
102
RTVSPropertyOp22
 70
     1
102
RTVSPropertyOp23
 70
     1
102
RTVSPropertyOp24
 70
     1
102
RTVSPropertyOp25
 70
     1
102
RTVSPropertyOp26
 70
     1
102
RTVSPropertyOp27
 70
     1
  0
XRECORD
  5
182
102
{ACAD_REACTORS
330
181
102
}
330
181
100
AcDbXrecord
280
     1
102
RTVSPropertyOp0
 70
     1
102
RTVSPropertyOp1
 70
     1
102
RTVSPropertyOp2
 70
     1
102
RTVSPropertyOp3
 70
     1
102
RTVSPropertyOp4
 70
     1
102
RTVSPropertyOp5
 70
     1
102
RTVSPropertyOp6
 70
     1
102
RTVSPropertyOp7
 70
     1
102
RTVSPropertyOp8
 70
     1
102
RTVSPropertyOp9
 70
     1
102
RTVSPropertyOp10
 70
     1
102
RTVSPropertyOp11
 70
     1
102
RTVSPropertyOp12
 70
     1
102
RTVSPropertyOp13
 70
     1
102
RTVSPropertyOp14
 70
     1
102
RTVSPropertyOp15
 70
     1
102
RTVSPropertyOp16
 70
     1
102
RTVSPropertyOp17
 70
     1
102
RTVSPropertyOp18
 70
     1
102
RTVSPropertyOp19
 70
     1
102
RTVSPropertyOp20
 70
     1
102
RTVSPropertyOp21
 70
     1
102
RTVSPropertyOp22
 70
     1
102
RTVSPropertyOp23
 70
     1
102
RTVSPropertyOp24
 70
     1
102
RTVSPropertyOp25
 70
     1
102
RTVSPropertyOp26
 70
     1
102
RTVSPropertyOp27
 70
     1
  0
XRECORD
  5
18A
102
{ACAD_REACTORS
330
189
102
}
330
189
100
AcDbXrecord
280
     1
102
RTVSPropertyOp0
 70
     1
102
RTVSPropertyOp1
 70
     1
102
RTVSPropertyOp2
 70
     1
102
RTVSPropertyOp3
 70
     1
102
RTVSPropertyOp4
 70
     1
102
RTVSPropertyOp5
 70
     1
102
RTVSPropertyOp6
 70
     1
102
RTVSPropertyOp7
 70
     1
102
RTVSPropertyOp8
 70
     1
102
RTVSPropertyOp9
 70
     1
102
RTVSPropertyOp10
 70
     1
102
RTVSPropertyOp11
 70
     1
102
RTVSPropertyOp12
 70
     1
102
RTVSPropertyOp13
 70
     1
102
RTVSPropertyOp14
 70
     1
102
RTVSPropertyOp15
 70
     1
102
RTVSPropertyOp16
 70
     1
102
RTVSPropertyOp17
 70
     1
102
RTVSPropertyOp18
 70
     1
102
RTVSPropertyOp19
 70
     1
102
RTVSPropertyOp20
 70
     1
102
RTVSPropertyOp21
 70
     1
102
RTVSPropertyOp22
 70
     1
102
RTVSPropertyOp23
 70
     1
102
RTVSPropertyOp24
 70
     1
102
RTVSPropertyOp25
 70
     1
102
RTVSPropertyOp26
 70
     1
102
RTVSPropertyOp27
 70
     1
  0
XRECORD
  5
174
102
{ACAD_REACTORS
330
173
102
}
330
173
100
AcDbXrecord
280
     1
102
RTVSPropertyOp0
 70
     1
102
RTVSPropertyOp1
 70
     1
102
RTVSPropertyOp2
 70
     1
102
RTVSPropertyOp3
 70
     1
102
RTVSPropertyOp4
 70
     1
102
RTVSPropertyOp5
 70
     1
102
RTVSPropertyOp6
 70
     1
102
RTVSPropertyOp7
 70
     1
102
RTVSPropertyOp8
 70
     1
102
RTVSPropertyOp9
 70
     1
102
RTVSPropertyOp10
 70
     1
102
RTVSPropertyOp11
 70
     1
102
RTVSPropertyOp12
 70
     1
102
RTVSPropertyOp13
 70
     1
102
RTVSPropertyOp14
 70
     1
102
RTVSPropertyOp15
 70
     1
102
RTVSPropertyOp16
 70
     1
102
RTVSPropertyOp17
 70
     1
102
RTVSPropertyOp18
 70
     1
102
RTVSPropertyOp19
 70
     1
102
RTVSPropertyOp20
 70
     1
102
RTVSPropertyOp21
 70
     1
102
RTVSPropertyOp22
 70
     1
102
RTVSPropertyOp23
 70
     1
102
RTVSPropertyOp24
 70
     1
102
RTVSPropertyOp25
 70
     1
102
RTVSPropertyOp26
 70
     1
102
RTVSPropertyOp27
 70
     1
  0
XRECORD
  5
176
102
{ACAD_REACTORS
330
175
102
}
330
175
100
AcDbXrecord
280
     1
102
RTVSPropertyOp0
 70
     1
102
RTVSPropertyOp1
 70
     1
102
RTVSPropertyOp2
 70
     1
102
RTVSPropertyOp3
 70
     1
102
RTVSPropertyOp4
 70
     1
102
RTVSPropertyOp5
 70
     1
102
RTVSPropertyOp6
 70
     1
102
RTVSPropertyOp7
 70
     1
102
RTVSPropertyOp8
 70
     1
102
RTVSPropertyOp9
 70
     1
102
RTVSPropertyOp10
 70
     1
102
RTVSPropertyOp11
 70
     1
102
RTVSPropertyOp12
 70
     1
102
RTVSPropertyOp13
 70
     1
102
RTVSPropertyOp14
 70
     1
102
RTVSPropertyOp15
 70
     1
102
RTVSPropertyOp16
 70
     1
102
RTVSPropertyOp17
 70
     1
102
RTVSPropertyOp18
 70
     1
102
RTVSPropertyOp19
 70
     1
102
RTVSPropertyOp20
 70
     1
102
RTVSPropertyOp21
 70
     1
102
RTVSPropertyOp22
 70
     1
102
RTVSPropertyOp23
 70
     1
102
RTVSPropertyOp24
 70
     1
102
RTVSPropertyOp25
 70
     1
102
RTVSPropertyOp26
 70
     1
102
RTVSPropertyOp27
 70
     1
  0
XRECORD
  5
178
102
{ACAD_REACTORS
330
177
102
}
330
177
100
AcDbXrecord
280
     1
102
RTVSPropertyOp0
 70
     1
102
RTVSPropertyOp1
 70
     1
102
RTVSPropertyOp2
 70
     1
102
RTVSPropertyOp3
 70
     1
102
RTVSPropertyOp4
 70
     1
102
RTVSPropertyOp5
 70
     1
102
RTVSPropertyOp6
 70
     1
102
RTVSPropertyOp7
 70
     1
102
RTVSPropertyOp8
 70
     1
102
RTVSPropertyOp9
 70
     1
102
RTVSPropertyOp10
 70
     1
102
RTVSPropertyOp11
 70
     1
102
RTVSPropertyOp12
 70
     1
102
RTVSPropertyOp13
 70
     1
102
RTVSPropertyOp14
 70
     1
102
RTVSPropertyOp15
 70
     1
102
RTVSPropertyOp16
 70
     1
102
RTVSPropertyOp17
 70
     1
102
RTVSPropertyOp18
 70
     1
102
RTVSPropertyOp19
 70
     1
102
RTVSPropertyOp20
 70
     1
102
RTVSPropertyOp21
 70
     1
102
RTVSPropertyOp22
 70
     1
102
RTVSPropertyOp23
 70
     1
102
RTVSPropertyOp24
 70
     1
102
RTVSPropertyOp25
 70
     1
102
RTVSPropertyOp26
 70
     1
102
RTVSPropertyOp27
 70
     1
  0
XRECORD
  5
17A
102
{ACAD_REACTORS
330
179
102
}
330
179
100
AcDbXrecord
280
     1
102
RTVSPropertyOp0
 70
     1
102
RTVSPropertyOp1
 70
     1
102
RTVSPropertyOp2
 70
     1
102
RTVSPropertyOp3
 70
     1
102
RTVSPropertyOp4
 70
     1
102
RTVSPropertyOp5
 70
     1
102
RTVSPropertyOp6
 70
     1
102
RTVSPropertyOp7
 70
     1
102
RTVSPropertyOp8
 70
     1
102
RTVSPropertyOp9
 70
     1
102
RTVSPropertyOp10
 70
     1
102
RTVSPropertyOp11
 70
     1
102
RTVSPropertyOp12
 70
     1
102
RTVSPropertyOp13
 70
     1
102
RTVSPropertyOp14
 70
     1
102
RTVSPropertyOp15
 70
     1
102
RTVSPropertyOp16
 70
     1
102
RTVSPropertyOp17
 70
     1
102
RTVSPropertyOp18
 70
     1
102
RTVSPropertyOp19
 70
     1
102
RTVSPropertyOp20
 70
     1
102
RTVSPropertyOp21
 70
     1
102
RTVSPropertyOp22
 70
     1
102
RTVSPropertyOp23
 70
     1
102
RTVSPropertyOp24
 70
     1
102
RTVSPropertyOp25
 70
     1
102
RTVSPropertyOp26
 70
     1
102
RTVSPropertyOp27
 70
     1
  0
XRECORD
  5
188
102
{ACAD_REACTORS
330
187
102
}
330
187
100
AcDbXrecord
280
     1
102
RTVSPropertyOp0
 70
     1
102
RTVSPropertyOp1
 70
     1
102
RTVSPropertyOp2
 70
     1
102
RTVSPropertyOp3
 70
     1
102
RTVSPropertyOp4
 70
     1
102
RTVSPropertyOp5
 70
     1
102
RTVSPropertyOp6
 70
     1
102
RTVSPropertyOp7
 70
     1
102
RTVSPropertyOp8
 70
     1
102
RTVSPropertyOp9
 70
     1
102
RTVSPropertyOp10
 70
     1
102
RTVSPropertyOp11
 70
     1
102
RTVSPropertyOp12
 70
     1
102
RTVSPropertyOp13
 70
     1
102
RTVSPropertyOp14
 70
     1
102
RTVSPropertyOp15
 70
     1
102
RTVSPropertyOp16
 70
     1
102
RTVSPropertyOp17
 70
     1
102
RTVSPropertyOp18
 70
     1
102
RTVSPropertyOp19
 70
     1
102
RTVSPropertyOp20
 70
     1
102
RTVSPropertyOp21
 70
     1
102
RTVSPropertyOp22
 70
     1
102
RTVSPropertyOp23
 70
     1
102
RTVSPropertyOp24
 70
     1
102
RTVSPropertyOp25
 70
     1
102
RTVSPropertyOp26
 70
     1
102
RTVSPropertyOp27
 70
     1
  0
XRECORD
  5
170
102
{ACAD_REACTORS
330
16F
102
}
330
16F
100
AcDbXrecord
280
     1
102
RTVSPropertyOp0
 70
     1
102
RTVSPropertyOp1
 70
     1
102
RTVSPropertyOp2
 70
     1
102
RTVSPropertyOp3
 70
     1
102
RTVSPropertyOp4
 70
     1
102
RTVSPropertyOp5
 70
     1
102
RTVSPropertyOp6
 70
     1
102
RTVSPropertyOp7
 70
     1
102
RTVSPropertyOp8
 70
     1
102
RTVSPropertyOp9
 70
     1
102
RTVSPropertyOp10
 70
     1
102
RTVSPropertyOp11
 70
     1
102
RTVSPropertyOp12
 70
     1
102
RTVSPropertyOp13
 70
     1
102
RTVSPropertyOp14
 70
     1
102
RTVSPropertyOp15
 70
     1
102
RTVSPropertyOp16
 70
     1
102
RTVSPropertyOp17
 70
     1
102
RTVSPropertyOp18
 70
     1
102
RTVSPropertyOp19
 70
     1
102
RTVSPropertyOp20
 70
     1
102
RTVSPropertyOp21
 70
     1
102
RTVSPropertyOp22
 70
     1
102
RTVSPropertyOp23
 70
     1
102
RTVSPropertyOp24
 70
     1
102
RTVSPropertyOp25
 70
     1
102
RTVSPropertyOp26
 70
     1
102
RTVSPropertyOp27
 70
     1
  0
XRECORD
  5
186
102
{ACAD_REACTORS
330
185
102
}
330
185
100
AcDbXrecord
280
     1
102
RTVSPropertyOp0
 70
     1
102
RTVSPropertyOp1
 70
     1
102
RTVSPropertyOp2
 70
     1
102
RTVSPropertyOp3
 70
     1
102
RTVSPropertyOp4
 70
     1
102
RTVSPropertyOp5
 70
     1
102
RTVSPropertyOp6
 70
     1
102
RTVSPropertyOp7
 70
     1
102
RTVSPropertyOp8
 70
     1
102
RTVSPropertyOp9
 70
     1
102
RTVSPropertyOp10
 70
     1
102
RTVSPropertyOp11
 70
     1
102
RTVSPropertyOp12
 70
     1
102
RTVSPropertyOp13
 70
     1
102
RTVSPropertyOp14
 70
     1
102
RTVSPropertyOp15
 70
     1
102
RTVSPropertyOp16
 70
     1
102
RTVSPropertyOp17
 70
     1
102
RTVSPropertyOp18
 70
     1
102
RTVSPropertyOp19
 70
     1
102
RTVSPropertyOp20
 70
     1
102
RTVSPropertyOp21
 70
     1
102
RTVSPropertyOp22
 70
     1
102
RTVSPropertyOp23
 70
     1
102
RTVSPropertyOp24
 70
     1
102
RTVSPropertyOp25
 70
     1
102
RTVSPropertyOp26
 70
     1
102
RTVSPropertyOp27
 70
     1
  0
ENDSEC
  0
EOF
