  0
SECTION
  2
HEADER
  9
$ACADVER
  1
AC1018
  9
$ACADMAINTVER
 70
   104
  9
$DWGCODEPAGE
  3
ANSI_936
  9
$LASTSAVEDBY
  1
yuqin.cai
  9
$INSBASE
 10
0.0
 20
0.0
 30
0.0
  9
$EXTMIN
 10
59562.99994029063
 20
12778.0000598212
 30
-0.00000001
  9
$EXTMAX
 10
60848.27465866844
 20
14511.66666666666
 30
0.00000001
  9
$LIMMIN
 10
0.0
 20
0.0
  9
$LIMMAX
 10
297.0
 20
210.0
  9
$ORTHOMODE
 70
     1
  9
$REGENMODE
 70
     1
  9
$FILLMODE
 70
     1
  9
$QTEXTMODE
 70
     0
  9
$MIRRTEXT
 70
     0
  9
$LTSCALE
 40
16.335
  9
$ATTMODE
 70
     1
  9
$TEXTSIZE
 40
0.2
  9
$TRACEWID
 40
0.05
  9
$TEXTSTYLE
  7
STANDARD
  9
$CLAYER
  8
0
  9
$CELTYPE
  6
BYLAYER
  9
$CECOLOR
 62
   256
  9
$CELTSCALE
 40
1.0
  9
$DISPSILH
 70
     0
  9
$DIMSCALE
 40
1.0
  9
$DIMASZ
 40
3.5
  9
$DIMEXO
 40
1.0
  9
$DIMDLI
 40
11.286
  9
$DIMRND
 40
0.0
  9
$DIMDLE
 40
0.0
  9
$DIMEXE
 40
1.5
  9
$DIMTP
 40
0.01
  9
$DIMTM
 40
0.01
  9
$DIMTXT
 40
3.5
  9
$DIMCEN
 40
2.673
  9
$DIMTSZ
 40
0.0
  9
$DIMTOL
 70
     1
  9
$DIMLIM
 70
     0
  9
$DIMTIH
 70
     1
  9
$DIMTOH
 70
     1
  9
$DIMSE1
 70
     0
  9
$DIMSE2
 70
     0
  9
$DIMTAD
 70
     0
  9
$DIMZIN
 70
     0
  9
$DIMBLK
  1

  9
$DIMASO
 70
     1
  9
$DIMSHO
 70
     1
  9
$DIMPOST
  1

  9
$DIMAPOST
  1

  9
$DIMALT
 70
     0
  9
$DIMALTD
 70
     2
  9
$DIMALTF
 40
25.4
  9
$DIMLFAC
 40
1.0
  9
$DIMTOFL
 70
     0
  9
$DIMTVP
 40
0.0
  9
$DIMTIX
 70
     0
  9
$DIMSOXD
 70
     0
  9
$DIMSAH
 70
     0
  9
$DIMBLK1
  1

  9
$DIMBLK2
  1

  9
$DIMSTYLE
  2
STANDARD
  9
$DIMCLRD
 70
     0
  9
$DIMCLRE
 70
     0
  9
$DIMCLRT
 70
     0
  9
$DIMTFAC
 40
1.0
  9
$DIMGAP
 40
0.625
  9
$DIMJUST
 70
     0
  9
$DIMSD1
 70
     0
  9
$DIMSD2
 70
     0
  9
$DIMTOLJ
 70
     1
  9
$DIMTZIN
 70
     0
  9
$DIMALTZ
 70
     0
  9
$DIMALTTZ
 70
     0
  9
$DIMUPT
 70
     0
  9
$DIMDEC
 70
     4
  9
$DIMTDEC
 70
     4
  9
$DIMALTU
 70
     2
  9
$DIMALTTD
 70
     2
  9
$DIMTXSTY
  7
STANDARD
  9
$DIMAUNIT
 70
     0
  9
$DIMADEC
 70
     0
  9
$DIMALTRND
 40
0.0
  9
$DIMAZIN
 70
     0
  9
$DIMDSEP
 70
    44
  9
$DIMATFIT
 70
     3
  9
$DIMFRAC
 70
     0
  9
$DIMLDRBLK
  1

  9
$DIMLUNIT
 70
     2
  9
$DIMLWD
 70
    -2
  9
$DIMLWE
 70
    -2
  9
$DIMTMOVE
 70
     0
  9
$LUNITS
 70
     2
  9
$LUPREC
 70
     4
  9
$SKETCHINC
 40
0.1
  9
$FILLETRAD
 40
0.0
  9
$AUNITS
 70
     0
  9
$AUPREC
 70
     0
  9
$MENU
  1
.
  9
$ELEVATION
 40
0.0
  9
$PELEVATION
 40
0.0
  9
$THICKNESS
 40
0.0
  9
$LIMCHECK
 70
     0
  9
$CHAMFERA
 40
0.0
  9
$CHAMFERB
 40
0.0
  9
$CHAMFERC
 40
0.0
  9
$CHAMFERD
 40
0.0
  9
$SKPOLY
 70
     0
  9
$TDCREATE
 40
2458249.037099549
  9
$TDUCREATE
 40
2458248.703766215
  9
$TDUPDATE
 40
2458507.728288819
  9
$TDUUPDATE
 40
2458507.394955486
  9
$TDINDWG
 40
0.1051173495
  9
$TDUSRTIMER
 40
0.1051173495
  9
$USRTIMER
 70
     1
  9
$ANGBASE
 50
0.0
  9
$ANGDIR
 70
     0
  9
$PDMODE
 70
     3
  9
$PDSIZE
 40
8.0
  9
$PLINEWID
 40
0.0
  9
$SPLFRAME
 70
     0
  9
$SPLINETYPE
 70
     6
  9
$SPLINESEGS
 70
     8
  9
$HANDSEED
  5
7349
  9
$SURFTAB1
 70
     6
  9
$SURFTAB2
 70
     6
  9
$SURFTYPE
 70
     6
  9
$SURFU
 70
     6
  9
$SURFV
 70
     6
  9
$UCSBASE
  2

  9
$UCSNAME
  2

  9
$UCSORG
 10
0.0
 20
0.0
 30
0.0
  9
$UCSXDIR
 10
1.0
 20
0.0
 30
0.0
  9
$UCSYDIR
 10
0.0
 20
1.0
 30
0.0
  9
$UCSORTHOREF
  2

  9
$UCSORTHOVIEW
 70
     0
  9
$UCSORGTOP
 10
0.0
 20
0.0
 30
0.0
  9
$UCSORGBOTTOM
 10
0.0
 20
0.0
 30
0.0
  9
$UCSORGLEFT
 10
0.0
 20
0.0
 30
0.0
  9
$UCSORGRIGHT
 10
0.0
 20
0.0
 30
0.0
  9
$UCSORGFRONT
 10
0.0
 20
0.0
 30
0.0
  9
$UCSORGBACK
 10
0.0
 20
0.0
 30
0.0
  9
$PUCSBASE
  2

  9
$PUCSNAME
  2

  9
$PUCSORG
 10
0.0
 20
0.0
 30
0.0
  9
$PUCSXDIR
 10
1.0
 20
0.0
 30
0.0
  9
$PUCSYDIR
 10
0.0
 20
1.0
 30
0.0
  9
$PUCSORTHOREF
  2

  9
$PUCSORTHOVIEW
 70
     0
  9
$PUCSORGTOP
 10
0.0
 20
0.0
 30
0.0
  9
$PUCSORGBOTTOM
 10
0.0
 20
0.0
 30
0.0
  9
$PUCSORGLEFT
 10
0.0
 20
0.0
 30
0.0
  9
$PUCSORGRIGHT
 10
0.0
 20
0.0
 30
0.0
  9
$PUCSORGFRONT
 10
0.0
 20
0.0
 30
0.0
  9
$PUCSORGBACK
 10
0.0
 20
0.0
 30
0.0
  9
$USERI1
 70
     0
  9
$USERI2
 70
     0
  9
$USERI3
 70
     0
  9
$USERI4
 70
     0
  9
$USERI5
 70
     0
  9
$USERR1
 40
0.0
  9
$USERR2
 40
0.0
  9
$USERR3
 40
0.0
  9
$USERR4
 40
0.0
  9
$USERR5
 40
0.0
  9
$WORLDVIEW
 70
     1
  9
$SHADEDGE
 70
     3
  9
$SHADEDIF
 70
    70
  9
$TILEMODE
 70
     1
  9
$MAXACTVP
 70
    64
  9
$PINSBASE
 10
0.0
 20
0.0
 30
0.0
  9
$PLIMCHECK
 70
     0
  9
$PEXTMIN
 10
1.000000000000000E+20
 20
1.000000000000000E+20
 30
1.000000000000000E+20
  9
$PEXTMAX
 10
-1.000000000000000E+20
 20
-1.000000000000000E+20
 30
-1.000000000000000E+20
  9
$PLIMMIN
 10
0.0
 20
0.0
  9
$PLIMMAX
 10
12.0
 20
9.0
  9
$UNITMODE
 70
     0
  9
$VISRETAIN
 70
     1
  9
$PLINEGEN
 70
     0
  9
$PSLTSCALE
 70
     1
  9
$TREEDEPTH
 70
  3020
  9
$CMLSTYLE
  2
Standard
  9
$CMLJUST
 70
     0
  9
$CMLSCALE
 40
1.0
  9
$PROXYGRAPHICS
 70
     1
  9
$MEASUREMENT
 70
     1
  9
$CELWEIGHT
370
    -1
  9
$ENDCAPS
280
     0
  9
$JOINSTYLE
280
     0
  9
$LWDISPLAY
290
     0
  9
$INSUNITS
 70
     4
  9
$HYPERLINKBASE
  1

  9
$STYLESHEET
  1

  9
$XEDIT
290
     1
  9
$CEPSNTYPE
380
     0
  9
$PSTYLEMODE
290
     1
  9
$FINGERPRINTGUID
  2
{F2F7998C-03D6-45F9-A96A-CF8146DB7140}
  9
$VERSIONGUID
  2
{E190A9D8-034D-469F-98D2-4ADE07304BE7}
  9
$EXTNAMES
290
     1
  9
$PSVPSCALE
 40
0.0
  9
$OLESTARTUP
290
     0
  9
$SORTENTS
280
   127
  9
$INDEXCTL
280
     0
  9
$HIDETEXT
280
     1
  9
$XCLIPFRAME
290
     0
  9
$HALOGAP
280
     0
  9
$OBSCOLOR
 70
   257
  9
$OBSLTYPE
280
     0
  9
$INTERSECTIONDISPLAY
280
     0
  9
$INTERSECTIONCOLOR
 70
   257
  9
$DIMASSOC
280
     2
  9
$PROJECTNAME
  1

  0
ENDSEC
  0
SECTION
  2
CLASSES
  0
CLASS
  1
ACDBDICTIONARYWDFLT
  2
AcDbDictionaryWithDefault
  3
ObjectDBX Classes
 90
        0
 91
        1
280
     0
281
     0
  0
CLASS
  1
MATERIAL
  2
AcDbMaterial
  3
ObjectDBX Classes
 90
        0
 91
        3
280
     0
281
     0
  0
CLASS
  1
VISUALSTYLE
  2
AcDbVisualStyle
  3
ObjectDBX Classes
 90
     4095
 91
       26
280
     0
281
     0
  0
CLASS
  1
TABLESTYLE
  2
AcDbTableStyle
  3
ObjectDBX Classes
 90
     4095
 91
        1
280
     0
281
     0
  0
CLASS
  1
SCALE
  2
AcDbScale
  3
ObjectDBX Classes
 90
     1153
 91
       33
280
     0
281
     0
  0
CLASS
  1
MLEADERSTYLE
  2
AcDbMLeaderStyle
  3
ACDB_MLEADERSTYLE_CLASS
 90
     4095
 91
        1
280
     0
281
     0
  0
CLASS
  1
CELLSTYLEMAP
  2
AcDbCellStyleMap
  3
ObjectDBX Classes
 90
     1152
 91
        1
280
     0
281
     0
  0
CLASS
  1
DICTIONARYVAR
  2
AcDbDictionaryVar
  3
ObjectDBX Classes
 90
        0
 91
        4
280
     0
281
     0
  0
CLASS
  1
DIMASSOC
  2
AcDbDimAssoc
  3
"ZcDbDimAssoc|Product Desc:     ZwDim ZRX App For Dimension|Company:          ZwSoft.|WEB Address:      www.zwsoft.com"
 90
        0
 91
        0
280
     0
281
     0
  0
CLASS
  1
SORTENTSTABLE
  2
AcDbSortentsTable
  3
ObjectDBX Classes
 90
        0
 91
        1
280
     0
281
     0
  0
CLASS
  1
SUN
  2
AcDbSun
  3
SCENEOE
 90
     1024
 91
        0
280
     0
281
     0
  0
ENDSEC
  0
SECTION
  2
TABLES
  0
TABLE
  2
VPORT
  5
8
330
0
100
AcDbSymbolTable
 70
     2
  0
VPORT
  5
7311
330
8
100
AcDbSymbolTableRecord
100
AcDbViewportTableRecord
  2
*Active
 70
     0
 10
0.0
 20
0.0
 11
1.0
 21
1.0
 12
65106.37951210411
 22
12815.25458354525
 13
0.0
 23
0.0
 14
1.0
 24
1.0
 15
0.0
 25
0.0
 16
0.0
 26
0.0
 36
1.0
 17
0.0
 27
0.0
 37
0.0
 40
11389.43885553993
 41
3.584
 42
50.0
 43
0.0
 44
0.0
 50
0.0
 51
0.0
 71
     0
 72
   100
 73
     1
 74
     1
 75
     1
 76
     0
 77
     0
 78
     0
281
     0
 65
     1
110
0.0
120
0.0
130
0.0
111
1.0
121
0.0
131
0.0
112
0.0
122
1.0
132
0.0
 79
     0
146
0.0
  0
ENDTAB
  0
TABLE
  2
LTYPE
  5
5
330
0
100
AcDbSymbolTable
 70
     1
  0
LTYPE
  5
14
330
5
100
AcDbSymbolTableRecord
100
AcDbLinetypeTableRecord
  2
BYBLOCK
 70
     0
  3

 72
    65
 73
     0
 40
0.0
  0
LTYPE
  5
15
330
5
100
AcDbSymbolTableRecord
100
AcDbLinetypeTableRecord
  2
BYLAYER
 70
     0
  3

 72
    65
 73
     0
 40
0.0
  0
LTYPE
  5
16
330
5
100
AcDbSymbolTableRecord
100
AcDbLinetypeTableRecord
  2
CONTINUOUS
 70
     0
  3
Solid line
 72
    65
 73
     0
 40
0.0
  0
ENDTAB
  0
TABLE
  2
LAYER
  5
2
102
{ACAD_XDICTIONARY
360
38E
102
}
330
0
100
AcDbSymbolTable
 70
     6
  0
LAYER
  5
10
330
2
100
AcDbSymbolTableRecord
100
AcDbLayerTableRecord
  2
0
 70
     0
 62
     7
  6
CONTINUOUS
370
    -3
390
F
  0
LAYER
  5
351
330
2
100
AcDbSymbolTableRecord
100
AcDbLayerTableRecord
  2
Defpoints
 70
     0
 62
     7
  6
CONTINUOUS
290
     0
370
    -3
390
F
  0
LAYER
  5
5D2B
330
2
100
AcDbSymbolTableRecord
100
AcDbLayerTableRecord
  2
02___PRT_ALL_AXES
 70
     0
 62
     7
  6
CONTINUOUS
370
    -3
390
F
  0
LAYER
  5
5D2C
330
2
100
AcDbSymbolTableRecord
100
AcDbLayerTableRecord
  2
06___PRT_ALL_SURFS
 70
     0
 62
     7
  6
CONTINUOUS
370
    -3
390
F
  0
LAYER
  5
68F9
330
2
100
AcDbSymbolTableRecord
100
AcDbLayerTableRecord
  2
11111外轮廓线
 70
     0
 62
   255
  6
CONTINUOUS
370
     5
390
F
1001
AcAecLayerStandard
1000

1000

  0
LAYER
  5
68FA
330
2
100
AcDbSymbolTableRecord
100
AcDbLayerTableRecord
  2
11111尺寸标注
 70
     0
 62
    -3
  6
CONTINUOUS
370
     5
390
F
1001
AcAecLayerStandard
1000

1000

  0
ENDTAB
  0
TABLE
  2
STYLE
  5
3
330
0
100
AcDbSymbolTable
 70
     2
  0
STYLE
  5
11
330
3
100
AcDbSymbolTableRecord
100
AcDbTextStyleTableRecord
  2
STANDARD
 70
     0
 40
0.0
 41
0.85
 50
0.0
 71
     0
 42
0.2
  3
txt
  4

  0
STYLE
  5
68FB
330
3
100
AcDbSymbolTableRecord
100
AcDbTextStyleTableRecord
  2
TT宋体
 70
     0
 40
0.0
 41
1.0
 50
0.0
 71
     0
 42
2.5
  3
arial.ttf
  4

1001
ACAD
1000
Arial
1071
       34
  0
ENDTAB
  0
TABLE
  2
VIEW
  5
6
330
0
100
AcDbSymbolTable
 70
     0
  0
ENDTAB
  0
TABLE
  2
UCS
  5
7
330
0
100
AcDbSymbolTable
 70
     0
  0
ENDTAB
  0
TABLE
  2
APPID
  5
9
330
0
100
AcDbSymbolTable
 70
    11
  0
APPID
  5
1FF
330
9
100
AcDbSymbolTableRecord
100
AcDbRegAppTableRecord
  2
ACAD
 70
     0
  0
APPID
  5
343
330
9
100
AcDbSymbolTableRecord
100
AcDbRegAppTableRecord
  2
ACAD_MLEADERVER
 70
     0
  0
APPID
  5
389
330
9
100
AcDbSymbolTableRecord
100
AcDbRegAppTableRecord
  2
ACAD_DSTYLE_DIMJAG
 70
     0
  0
APPID
  5
38A
330
9
100
AcDbSymbolTableRecord
100
AcDbRegAppTableRecord
  2
ACAD_DSTYLE_DIMTALN
 70
     0
  0
APPID
  5
38B
330
9
100
AcDbSymbolTableRecord
100
AcDbRegAppTableRecord
  2
ACAD_PSEXT
 70
     0
  0
APPID
  5
38C
330
9
100
AcDbSymbolTableRecord
100
AcDbRegAppTableRecord
  2
AcAecLayerStandard
 70
     0
  0
APPID
  5
38D
330
9
100
AcDbSymbolTableRecord
100
AcDbRegAppTableRecord
  2
ACAD_DSTYLE_DIMBREAK
 70
     0
  0
APPID
  5
12E1
330
9
100
AcDbSymbolTableRecord
100
AcDbRegAppTableRecord
  2
ACAD_EXEMPT_FROM_CAD_STANDARDS
 70
     0
  0
APPID
  5
617A
330
9
100
AcDbSymbolTableRecord
100
AcDbRegAppTableRecord
  2
ACAD_SPLINE_DATA
 70
     0
  0
APPID
  5
617B
330
9
100
AcDbSymbolTableRecord
100
AcDbRegAppTableRecord
  2
ACAD_SPLINE_DATA2
 70
     0
  0
APPID
  5
730A
330
9
100
AcDbSymbolTableRecord
100
AcDbRegAppTableRecord
  2
ACAD_DSTYLE_DIMJOGGED_JOGANGLE_SYMBOL
 70
     0
  0
ENDTAB
  0
TABLE
  2
DIMSTYLE
  5
A
330
0
100
AcDbSymbolTable
 70
     2
100
AcDbDimStyleTable
 71
     1
340
202
  0
DIMSTYLE
105
202
330
A
100
AcDbSymbolTableRecord
100
AcDbDimStyleTableRecord
  2
STANDARD
 70
     0
 41
3.5
 42
1.0
 44
1.5
 47
0.01
 48
0.01
 71
     1
 73
     0
 74
     0
 77
     1
 78
     8
140
3.5
147
0.625
271
     2
272
     2
278
    44
284
     8
340
11
  0
DIMSTYLE
105
68FC
330
A
100
AcDbSymbolTableRecord
100
AcDbDimStyleTableRecord
  2
新标注1比10
 70
     0
 40
12.0
 41
1.8
 42
1.0
 43
3.75
 44
1.0
 73
     0
 74
     0
 77
     1
 78
     8
140
2.5
141
1.0
143
0.03937007874016
147
1.0
171
     3
172
     1
176
   256
177
   256
178
     3
271
     0
272
     0
274
     3
284
     8
340
68FB
1001
ACAD_DSTYLE_DIMJAG
1070
   388
1040
1.5
  0
ENDTAB
  0
TABLE
  2
BLOCK_RECORD
  5
1
330
0
100
AcDbSymbolTable
 70
     0
  0
BLOCK_RECORD
  5
200
102
{ACAD_XDICTIONARY
360
467B
102
}
330
1
100
AcDbSymbolTableRecord
100
AcDbBlockTableRecord
  2
*Model_Space
340
2EE
  0
BLOCK_RECORD
  5
201
330
1
100
AcDbSymbolTableRecord
100
AcDbBlockTableRecord
  2
*Paper_Space
340
2EF
  0
ENDTAB
  0
ENDSEC
  0
SECTION
  2
BLOCKS
  0
BLOCK
  5
20
330
200
100
AcDbEntity
  8
0
100
AcDbBlockBegin
  2
*Model_Space
 70
     0
 10
0.0
 20
0.0
 30
0.0
  3
*Model_Space
  1

  0
ENDBLK
  5
21
330
200
100
AcDbEntity
  8
0
100
AcDbBlockEnd
  0
BLOCK
  5
1C
330
201
100
AcDbEntity
 67
     1
  8
0
100
AcDbBlockBegin
  2
*Paper_Space
 70
     0
 10
0.0
 20
0.0
 30
0.0
  3
*Paper_Space
  1

  0
ENDBLK
  5
1D
330
201
100
AcDbEntity
 67
     1
  8
0
100
AcDbBlockEnd
  0
ENDSEC
  0
SECTION
  2
ENTITIES
  0
MTEXT
  5
399
330
200
100
AcDbEntity
  8
0
100
AcDbMText
 10
60043.07764527027
 20
14495.0
 30
0.0
 40
75.0
 41
29.92235472972973
 71
     1
 72
     5
  1
{\fSimSun|b0|i0|c134|p2;SCALE  1:1}
 73
     1
 44
1.0
1001
ACAD
1000
MTEXTBEGIN
1070
    73
1070
     1
1070
    44
1040
1.0
1070
    74
1070
     0
1000
MTEXTEND
  0
LINE
  5
7288
330
200
100
AcDbEntity
  8
11111外轮廓线
 62
     7
370
     9
100
AcDbLine
 10
60234.27305299484
 20
13742.42186730476
 30
0.0
 11
60234.27465865844
 21
13736.95357906987
 31
0.0
  0
LINE
  5
7289
330
200
100
AcDbEntity
  8
11111外轮廓线
 62
     7
370
     9
100
AcDbLine
 10
60228.27465865844
 20
14130.95357906986
 30
0.0
 11
60228.27465865844
 21
13742.95357906987
 31
0.0
  0
LINE
  5
728A
330
200
100
AcDbEntity
  8
11111外轮廓线
 62
     7
370
     9
100
AcDbLine
 10
60234.27465865844
 20
14136.95357906987
 30
0.0
 11
60234.27465865984
 21
14082.11686912256
 31
0.0
  0
LINE
  5
728B
330
200
100
AcDbEntity
  8
11111外轮廓线
 62
     7
370
     9
100
AcDbLine
 10
60234.27465865844
 20
13736.95357906987
 30
0.0
 11
60714.62159311154
 21
13736.95357906987
 31
0.0
  0
LWPOLYLINE
  5
728C
330
200
100
AcDbEntity
  8
11111外轮廓线
 62
     7
370
     9
100
AcDbPolyline
 90
        7
 70
     0
 43
0.0
 10
60720.37544637583
 20
13739.96651392876
 10
60750.29129646412
 20
13787.49920370476
 10
60776.58738374454
 20
13838.98087012256
 10
60798.55047535863
 20
13893.52985325626
 10
60816.16990005003
 20
13951.42321882766
 10
60829.35366391246
 20
14012.93262039097
 10
60837.80050934853
 20
14076.75898202797
  0
LINE
  5
728D
330
200
100
AcDbEntity
  8
11111外轮廓线
 62
     7
370
     9
100
AcDbLine
 10
60677.65881073474
 20
14082.10456333007
 30
0.0
 11
60234.27465865984
 21
14082.11686912256
 31
0.0
  0
LINE
  5
728E
330
200
100
AcDbEntity
  8
11111外轮廓线
 62
     7
370
     9
100
AcDbLine
 10
60848.27465865844
 20
14088.95357906986
 30
0.0
 11
60228.27465865844
 21
14088.95357906986
 31
0.0
  0
LINE
  5
728F
330
200
100
AcDbEntity
  8
11111外轮廓线
 62
     7
370
     9
100
AcDbLine
 10
60690.64617519853
 20
14082.09391338486
 30
0.0
 11
60689.76330294934
 21
14082.09416889017
 31
0.0
  0
LWPOLYLINE
  5
7290
330
200
100
AcDbEntity
  8
11111外轮廓线
 62
     7
370
     9
100
AcDbPolyline
 90
        6
 70
     0
 43
0.0
 10
60837.80028545914
 20
14076.75900312517
 10
60837.88721042505
 20
14077.35704804597
 10
60838.58082933325
 20
14079.20157067756
 10
60839.83412834954
 20
14080.72146390106
 10
60841.51153618024
 20
14081.75328144126
 10
60842.62036653404
 20
14082.08420651436
  0
LINE
  5
7291
330
200
100
AcDbEntity
  8
11111外轮廓线
 62
     7
370
     9
100
AcDbLine
 10
60228.27465865844
 20
14129.95357906987
 30
0.0
 11
60848.27465865844
 21
14129.95357906987
 31
0.0
  0
LINE
  5
7292
330
200
100
AcDbEntity
  8
11111外轮廓线
 62
     7
370
     9
100
AcDbLine
 10
60848.27465865844
 20
14088.95357906986
 30
0.0
 11
60848.27465865844
 21
14129.95357906987
 31
0.0
  0
LINE
  5
7293
330
200
100
AcDbEntity
  8
11111外轮廓线
 62
     7
370
     9
100
AcDbLine
 10
60234.27465865844
 20
14136.95357906987
 30
0.0
 11
60841.27442873945
 21
14136.95357906987
 31
0.0
  0
ARC
  5
7294
330
200
100
AcDbEntity
  8
11111外轮廓线
 62
     7
370
     9
100
AcDbCircle
 10
60714.62190262184
 20
13743.95357906986
 30
0.0
 40
7.0
100
AcDbArc
 50
270.0
 51
325.2789871707812
  0
ARC
  5
7295
330
200
100
AcDbEntity
  8
11111外轮廓线
 62
     7
370
     9
100
AcDbCircle
 10
60841.27465865844
 20
14088.95357906986
 30
0.0
 40
7.0
100
AcDbArc
 50
281.0787680024869
 51
0.0
  0
ARC
  5
7296
330
200
100
AcDbEntity
  8
11111外轮廓线
 62
     7
370
     9
100
AcDbCircle
 10
60841.27465865844
 20
14129.95357906987
 30
0.0
 40
7.0
100
AcDbArc
 50
0.0
 51
90.0
  0
ARC
  5
7297
330
200
100
AcDbEntity
  8
11111外轮廓线
 62
     7
370
     9
100
AcDbCircle
 10
60234.27465865844
 20
13742.95367278217
 30
0.0
 40
6.0
100
AcDbArc
 50
180.0008948865159
 51
270.0
  0
ARC
  5
7298
330
200
100
AcDbEntity
  8
11111外轮廓线
 62
     7
370
     9
100
AcDbCircle
 10
60234.27465865844
 20
14130.95357906986
 30
0.0
 40
6.0
100
AcDbArc
 50
90.0
 51
180.0
  0
CIRCLE
  5
7299
330
200
100
AcDbEntity
  8
11111外轮廓线
 62
     7
370
     9
100
AcDbCircle
 10
60428.27465865844
 20
13776.95357906987
 30
0.0
 40
4.5
  0
SPLINE
  5
729A
330
200
100
AcDbEntity
  8
11111外轮廓线
 62
     7
370
     9
100
AcDbSpline
210
0.0
220
0.0
230
1.0
 70
     8
 71
     3
 72
    18
 73
    14
 74
    12
 42
0.0000000001
 43
0.0000000001
 44
0.0000000001
 12
0.9999998930357259
 22
-0.0004625240929361
 32
0.0
 13
0.0004246744360439
 23
-0.9999999098258077
 33
0.0
 40
0.0
 40
0.0
 40
0.0
 40
0.0
 40
23.37312238815078
 40
47.96297872886237
 40
71.40029474755285
 40
92.65818903815585
 40
111.2267791825474
 40
126.6885791380141
 40
138.670768383613
 40
146.9834854003319
 40
151.2365895970493
 40
151.7765690340034
 40
151.9116776821722
 40
151.9116776821722
 40
151.9116776821722
 40
151.9116776821722
 10
60690.64617519853
 20
14082.09391339466
 30
0.0
 10
60698.43721516122
 20
14082.09030985058
 30
0.0
 10
60714.4250285543
 20
14082.08365527249
 30
0.0
 10
60738.22440943391
 20
14082.07815804204
 30
0.0
 10
60761.32189114221
 20
14082.0768449716
 30
0.0
 10
60782.4019024464
 20
14082.06752556827
 30
0.0
 10
60800.85540197988
 20
14082.09394187477
 30
0.0
 10
60816.12485955298
 20
14082.02742989183
 30
0.0
 10
60828.21731895891
 20
14082.20369469511
 30
0.0
 10
60836.02866497035
 20
14081.83412077335
 30
0.0
 10
60840.93590867781
 20
14082.37458366686
 30
0.0
 10
60842.20209244347
 20
14081.99829276451
 30
0.0
 10
60842.55782991379
 20
14082.12917158066
 30
0.0
 10
60842.55784903952
 20
14082.08413536867
 30
0.0
 11
60690.64617519853
 21
14082.09391339466
 31
0.0
 11
60714.01929570213
 21
14082.08452745216
 31
0.0
 11
60738.60915137584
 21
14082.07880002826
 31
0.0
 11
60762.04646712204
 21
14082.07522613146
 31
0.0
 11
60783.30436138894
 21
14082.07422223756
 31
0.0
 11
60801.87295145392
 21
14082.07593949346
 31
0.0
 11
60817.33475128075
 21
14082.07793396666
 31
0.0
 11
60829.31694027152
 21
14082.08040516927
 31
0.0
 11
60837.62965700653
 21
14082.08256931527
 31
0.0
 11
60841.88276099023
 21
14082.08391539396
 31
0.0
 11
60842.42274039844
 21
14082.08409160076
 31
0.0
 11
60842.55784903952
 21
14082.08413536867
 31
0.0
  0
SPLINE
  5
729B
330
200
100
AcDbEntity
  8
11111外轮廓线
 62
     7
370
     9
100
AcDbSpline
210
0.0
220
0.0
230
1.0
 70
     8
 71
     3
 72
    18
 73
    14
 74
    12
 42
0.0000000001
 43
0.0000000001
 44
0.0000000001
 12
0.9999932004222902
 22
0.0036876970029316
 32
0.0
 13
-0.0019884674452037
 23
-0.9999980229966553
 33
0.0
 40
0.0
 40
0.0
 40
0.0
 40
0.0
 40
22.72454190484183
 40
46.62760648998056
 40
69.40224800309941
 40
90.0659051071536
 40
108.1174615479538
 40
123.1501701080242
 40
134.8032786591317
 40
142.889109288402
 40
147.0271392232317
 40
147.552344642292
 40
147.6838137291498
 40
147.6838137291498
 40
147.6838137291498
 40
147.6838137291498
 10
60690.05592795255
 20
14076.66610856207
 30
0.0
 10
60697.6307237484
 20
14076.69404230376
 30
0.0
 10
60713.17333396343
 20
14076.74361785042
 30
0.0
 10
60736.30665391059
 20
14076.79872444375
 30
0.0
 10
60758.75615428448
 20
14076.83162658886
 30
0.0
 10
60779.24505730346
 20
14076.83093812339
 30
0.0
 10
60797.18448229107
 20
14076.84987921838
 30
0.0
 10
60812.03060846069
 20
14076.7657318598
 30
0.0
 10
60823.79029959762
 20
14076.91365148172
 30
0.0
 10
60831.387255665
 20
14076.53515273366
 30
0.0
 10
60836.16217490501
 20
14077.04668179778
 30
0.0
 10
60837.39320692211
 20
14076.67680489022
 30
0.0
 10
60837.73955311871
 20
14076.80297099798
 30
0.0
 10
60837.73946597804
 20
14076.75914805567
 30
0.0
 11
60690.05592795255
 21
14076.66610856207
 31
0.0
 11
60712.78035172063
 21
14076.73938334187
 31
0.0
 11
60736.68334953434
 21
14076.79588182876
 31
0.0
 11
60759.45797020944
 21
14076.82669021327
 31
0.0
 11
60780.12162567503
 21
14076.83491901757
 31
0.0
 11
60798.17318112772
 21
14076.82894626966
 31
0.0
 11
60813.20587936285
 21
14076.81132741906
 31
0.0
 11
60824.85896931264
 21
14076.79050613516
 31
0.0
 11
60832.94477867253
 21
14076.77195995796
 31
0.0
 11
60837.08279420384
 21
14076.76104188796
 31
0.0
 11
60837.60799747664
 21
14076.75954040596
 31
0.0
 11
60837.73946597804
 21
14076.75914805567
 31
0.0
  0
SPLINE
  5
729C
330
200
100
AcDbEntity
  8
11111外轮廓线
 62
     7
370
     9
100
AcDbSpline
210
0.0
220
0.0
230
1.0
 70
     8
 71
     3
 72
    19
 73
    15
 74
    13
 42
0.0000000001
 43
0.0000000001
 44
0.0000000001
 12
0.9998618263288395
 22
-0.0166231239650516
 32
0.0
 13
-0.0083381763501386
 23
-0.999965236803337
 33
0.0
 40
0.0
 40
0.0
 40
0.0
 40
0.0
 40
10.08366071068016
 40
21.18478295974325
 40
33.3720919941715
 40
46.55031724157954
 40
60.5414536911126
 40
74.99392875911421
 40
89.11519230746087
 40
101.7781814035719
 40
111.6275626760749
 40
117.914323761946
 40
121.071958951006
 40
121.9927001029056
 40
121.9927001029056
 40
121.9927001029056
 40
121.9927001029056
 10
60598.40833914134
 20
13742.47831769717
 30
0.0
 10
60601.76909494609
 20
13742.42244371649
 30
0.0
 10
60608.8296972929
 20
13742.3045345057
 30
0.0
 10
60619.95206606679
 20
13742.10988621876
 30
0.0
 10
60632.10529294505
 20
13741.88040959094
 30
0.0
 10
60645.22207443952
 20
13741.60920453097
 30
0.0
 10
60659.09005244301
 20
13741.31290103904
 30
0.0
 10
60673.28602162139
 20
13741.01372836607
 30
0.0
 10
60686.98898957999
 20
13740.67097322931
 30
0.0
 10
60699.3190829279
 20
13740.51923298773
 30
0.0
 10
60708.60488576791
 20
13740.00680022708
 30
0.0
 10
60715.65622693723
 20
13740.46880496498
 30
0.0
 10
60718.20043674506
 20
13739.51057687996
 30
0.0
 10
60720.37753519825
 20
13740.27342464666
 30
0.0
 10
60720.37497609755
 20
13739.96652159866
 30
0.0
 11
60598.40833914134
 21
13742.47831769717
 31
0.0
 11
60608.49057681482
 21
13742.30891632886
 31
0.0
 11
60619.58998399094
 21
13742.11378681436
 31
0.0
 11
60631.77511036343
 21
13741.88314252776
 31
0.0
 11
60644.95057362323
 21
13741.61334897516
 31
0.0
 11
60658.93856711451
 21
13741.31680684106
 31
0.0
 11
60673.38761361193
 21
13741.00201975946
 31
0.0
 11
60687.50542729772
 21
13740.68989649036
 31
0.0
 11
60700.16533026024
 21
13740.41034358277
 31
0.0
 11
60710.01234279454
 21
13740.19434450766
 31
0.0
 11
60716.29759572735
 21
13740.05664729836
 31
0.0
 11
60719.45446446584
 21
13739.98707894986
 31
0.0
 11
60720.37497609755
 21
13739.96652159866
 31
0.0
  0
SPLINE
  5
729D
330
200
100
AcDbEntity
  8
11111外轮廓线
 62
     7
370
     9
100
AcDbSpline
210
0.0
220
0.0
230
1.0
 70
     8
 71
     3
 72
    16
 73
    12
 74
    10
 42
0.0000000001
 43
0.0000000001
 44
0.0000000001
 12
-0.0011624489134445
 22
-0.9999993243560336
 32
0.0
 13
0.0003060137934792
 23
-0.9999999531777779
 33
0.0
 40
0.0
 40
0.0
 40
0.0
 40
0.0
 40
25.73984511488851
 40
53.47120233265096
 40
83.57416244011153
 40
116.415899732313
 40
152.3550831393487
 40
191.7382106362494
 40
234.8949098511431
 40
282.1882860491141
 40
334.0675256423355
 40
334.0675256423355
 40
334.0675256423355
 40
334.0675256423355
 10
60234.26817509165
 20
14076.48934894086
 30
0.0
 10
60234.25820133999
 20
14067.90940636622
 30
0.0
 10
60234.23952153376
 20
14050.08568185255
 30
0.0
 10
60234.21732208018
 20
14022.22763623713
 30
0.0
 10
60234.20160458133
 20
13992.00228836762
 30
0.0
 10
60234.19408162721
 20
13959.04099515321
 30
0.0
 10
60234.19616455638
 20
13922.98631203366
 30
0.0
 10
60234.20824919766
 20
13883.49331021071
 30
0.0
 10
60234.22882433973
 20
13840.21558071433
 30
0.0
 10
60234.2537138412
 20
13792.77248228743
 30
0.0
 10
60234.26776131207
 20
13759.71494646376
 30
0.0
 10
60234.27305323305
 20
13742.42186740906
 30
0.0
 11
60234.26817509165
 21
14076.48934894086
 31
0.0
 11
60234.24125456422
 21
14050.74951790366
 31
0.0
 11
60234.21917921403
 21
14023.01816947236
 31
0.0
 11
60234.20347949673
 21
13992.91521345887
 31
0.0
 11
60234.19581227364
 21
13960.07347706166
 31
0.0
 11
60234.19751707682
 21
13924.13429369506
 31
0.0
 11
60234.20892554824
 21
13884.75116785056
 31
0.0
 11
60234.22850646454
 21
13841.59447307776
 31
0.0
 11
60234.25216254633
 21
13794.30110279616
 31
0.0
 11
60234.27305323305
 21
13742.42186740906
 31
0.0
  0
SPLINE
  5
729E
330
200
100
AcDbEntity
  8
11111外轮廓线
 62
     7
370
     9
100
AcDbSpline
210
0.0
220
0.0
230
1.0
 70
     8
 71
     3
 72
    64
 73
    60
 74
    58
 42
0.0000000001
 43
0.0000000001
 44
0.0000000001
 12
-0.9999997561987187
 22
-0.0006982854022675
 32
0.0
 13
-0.9999995785806877
 23
0.0009180623328394
 33
0.0
 40
0.0
 40
0.0
 40
0.0
 40
0.0
 40
11.27841979683063
 40
21.72665906933286
 40
31.41473474546551
 40
40.40658012903805
 40
48.74795384066763
 40
56.48394911604265
 40
63.66158658834509
 40
70.32545149800937
 40
76.51103510094777
 40
82.24073546198431
 40
87.55115466303845
 40
92.4879813601103
 40
97.09356475654367
 40
101.3434248227495
 40
105.1929376275054
 40
108.7419823628918
 40
112.1227468863488
 40
115.4612786108505
 40
118.8156457373757
 40
122.1465326637332
 40
125.4343175009822
 40
128.6939174551893
 40
131.9500757210507
 40
135.2339137438676
 40
138.5502774345436
 40
141.880120132497
 40
145.231938208222
 40
148.6293183080798
 40
152.0386736996742
 40
155.409554256316
 40
158.8704810674847
 40
162.6172617124214
 40
166.6906154570121
 40
171.079645404908
 40
175.793765494734
 40
180.8745663023947
 40
186.3547580994984
 40
192.2473441267095
 40
198.5901359401143
 40
205.4192121034552
 40
212.7744384087868
 40
220.6974617964489
 40
229.2186212661986
 40
238.3904532477091
 40
248.2767750472199
 40
258.951384360794
 40
270.4052412117544
 40
282.6785480692053
 40
295.8615063607459
 40
310.0508088291727
 40
325.3373114711877
 40
341.8065392064263
 40
359.5440141386973
 40
378.5997211301867
 40
398.9951685560602
 40
420.6821364873455
 40
443.3859652437801
 40
443.3859652437801
 40
443.3859652437801
 40
443.3859652437801
 10
60677.65407689392
 20
14076.58023318376
 30
0.0
 10
60673.89460454488
 20
14076.57760799846
 30
0.0
 10
60666.65238652253
 20
14076.572691014
 30
0.0
 10
60656.18081048777
 20
14076.56588067859
 30
0.0
 10
60646.47142563377
 20
14076.55976834857
 30
0.0
 10
60637.46432907479
 20
14076.5542370582
 30
0.0
 10
60629.10792580203
 20
14076.5492009498
 30
0.0
 10
60621.35625835091
 20
14076.54459441947
 30
0.0
 10
60614.16376037619
 20
14076.54036351361
 30
0.0
 10
60607.4880661867
 20
14076.5364641417
 30
0.0
 10
60601.29501760937
 20
14076.53286260625
 30
0.0
 10
60595.55311752101
 20
14076.52953086771
 30
0.0
 10
60590.22746966378
 20
14076.52644186596
 30
0.0
 10
60585.27652740033
 20
14076.5235668892
 30
0.0
 10
60580.67910479284
 20
14076.52089043534
 30
0.0
 10
60576.44412009342
 20
14076.51841571443
 30
0.0
 10
60572.56131489382
 20
14076.51613609457
 30
0.0
 10
60568.96820816532
 20
14076.51401500986
 30
0.0
 10
60565.54542844131
 20
14076.51198201126
 30
0.0
 10
60562.18754125028
 20
14076.50997385266
 30
0.0
 10
60558.84627993135
 20
14076.50796002489
 30
0.0
 10
60555.52193424929
 20
14076.50593850605
 30
0.0
 10
60552.22917763085
 20
14076.50391641867
 30
0.0
 10
60548.96133057566
 20
14076.50188628075
 30
0.0
 10
60545.69479914428
 20
14076.49982611606
 30
0.0
 10
60542.40934649754
 20
14076.49771264494
 30
0.0
 10
60539.09933239831
 20
14076.49555290249
 30
0.0
 10
60535.76665829447
 20
14076.4933658528
 30
0.0
 10
60532.4069787274
 20
14076.49116004524
 30
0.0
 10
60529.0207949295
 20
14076.48894501649
 30
0.0
 10
60525.62825695938
 20
14076.48674605446
 30
0.0
 10
60522.2145367396
 20
14076.48455990603
 30
0.0
 10
60518.68834144272
 20
14076.48232629667
 30
0.0
 10
60514.92798844707
 20
14076.47997047375
 30
0.0
 10
60510.85826778178
 20
14076.47744988824
 30
0.0
 10
60506.46610067405
 20
14076.47476642972
 30
0.0
 10
60501.73811791361
 20
14076.47192339556
 30
0.0
 10
60496.64641456867
 20
14076.46891844462
 30
0.0
 10
60491.16188927147
 20
14076.46575276813
 30
0.0
 10
60485.25670032548
 20
14076.46243235263
 30
0.0
 10
60478.90188326848
 20
14076.45896732056
 30
0.0
 10
60472.05951945282
 20
14076.45537021435
 30
0.0
 10
60464.69041176623
 20
14076.45166218664
 30
0.0
 10
60456.75727628027
 20
14076.44787775095
 30
0.0
 10
60448.2186055176
 20
14076.44406375725
 30
0.0
 10
60439.02550187632
 20
14076.44028198076
 30
0.0
 10
60429.11458152089
 20
14076.43661237593
 30
0.0
 10
60418.44298608229
 20
14076.4331733188
 30
0.0
 10
60406.9757288082
 20
14076.43011878841
 30
0.0
 10
60394.67235504843
 20
14076.42763807698
 30
0.0
 10
60381.4571659348
 20
14076.42596181719
 30
0.0
 10
60367.23757812588
 20
14076.42538295841
 30
0.0
 10
60351.92256717486
 20
14076.4262696022
 30
0.0
 10
60335.42483227056
 20
14076.4290675439
 30
0.0
 10
60317.6706964354
 20
14076.43429070374
 30
0.0
 10
60298.60782168596
 20
14076.44248929777
 30
0.0
 10
60278.22845085045
 20
14076.45418053051
 30
0.0
 10
60256.63304165705
 20
14076.46970913777
 30
0.0
 10
60241.83611482119
 20
14076.48240109753
 30
0.0
 10
60234.26817509165
 20
14076.48934894086
 30
0.0
 11
60677.65407689392
 21
14076.58023318376
 31
0.0
 11
60666.37565970804
 21
14076.57255889016
 31
0.0
 11
60655.92742265184
 21
14076.56575353706
 31
0.0
 11
60646.23934889954
 21
14076.55964808356
 31
0.0
 11
60637.24750521423
 21
14076.55412169217
 31
0.0
 11
60628.90613301934
 21
14076.54909145616
 31
0.0
 11
60621.17013911135
 21
14076.54449187396
 31
0.0
 11
60613.99250288193
 21
14076.54026788976
 31
0.0
 11
60607.32863910994
 21
14076.53637397856
 31
0.0
 11
60601.14305655364
 21
14076.53277561986
 31
0.0
 11
60595.41335715773
 21
14076.52944999626
 31
0.0
 11
60590.10293885043
 21
14076.52636902127
 31
0.0
 11
60585.16611298614
 21
14076.52350151987
 31
0.0
 11
60580.56053037054
 21
14076.52081965876
 31
0.0
 11
60576.31067103025
 21
14076.51833568566
 31
0.0
 11
60572.46115888922
 21
14076.51607514646
 31
0.0
 11
60568.91211477244
 21
14076.51397969097
 31
0.0
 11
60565.53135084552
 21
14076.51197133576
 31
0.0
 11
60562.19281971824
 21
14076.50997441566
 31
0.0
 11
60558.83845320122
 21
14076.50795228906
 31
0.0
 11
60555.50756689094
 21
14076.50592641316
 31
0.0
 11
60552.21978267404
 21
14076.50390671736
 31
0.0
 11
60548.96018334964
 21
14076.50188043555
 31
0.0
 11
60545.70402573244
 21
14076.49982513007
 31
0.0
 11
60542.42018838784
 21
14076.49771460576
 31
0.0
 11
60539.10382540113
 21
14076.49555376156
 31
0.0
 11
60535.77398341893
 21
14076.49337048936
 31
0.0
 11
60532.42216606464
 21
14076.49117135696
 31
0.0
 11
60529.02478669033
 21
14076.48895099705
 31
0.0
 11
60525.61543201425
 21
14076.48674218496
 31
0.0
 11
60522.24455214914
 21
14076.48458299066
 31
0.0
 11
60518.78362603244
 21
14076.48239049937
 31
0.0
 11
60515.03684612294
 21
14076.48004294376
 31
0.0
 11
60510.96349315933
 21
14076.47752054077
 31
0.0
 11
60506.57446403033
 21
14076.47483943847
 31
0.0
 11
60501.86034479244
 21
14076.47200532906
 31
0.0
 11
60496.77954486914
 21
14076.46900757686
 31
0.0
 11
60491.29935398444
 21
14076.46584524076
 31
0.0
 11
60485.40676888824
 21
14076.46253284127
 31
0.0
 11
60479.06397801703
 21
14076.45907560806
 31
0.0
 11
60472.23490279653
 21
14076.45548710246
 31
0.0
 11
60464.87967742124
 21
14076.45178828027
 31
0.0
 11
60456.95665493374
 21
14076.44801150607
 31
0.0
 11
60448.43549631244
 21
14076.44420892836
 31
0.0
 11
60439.26366510512
 21
14076.44044044396
 31
0.0
 11
60429.37734398114
 21
14076.43678571806
 31
0.0
 11
60418.70273521952
 21
14076.43335296377
 31
0.0
 11
60407.24887877254
 21
14076.43031086836
 31
0.0
 11
60394.97557216246
 21
14076.42784672455
 31
0.0
 11
60381.79261397544
 21
14076.42618666076
 31
0.0
 11
60367.60331151824
 21
14076.42562234997
 31
0.0
 11
60352.31680890262
 21
14076.42652076686
 31
0.0
 11
60335.84758140615
 21
14076.42932517406
 31
0.0
 11
60318.11010724304
 21
14076.43454875647
 31
0.0
 11
60299.05440201114
 21
14076.44273780447
 31
0.0
 11
60278.65895792672
 21
14076.45441260547
 31
0.0
 11
60256.97199556494
 21
14076.46995515757
 31
0.0
 11
60234.26817509165
 21
14076.48934894086
 31
0.0
  0
SPLINE
  5
729F
330
200
100
AcDbEntity
  8
11111外轮廓线
 62
     7
370
     9
100
AcDbSpline
210
0.0
220
0.0
230
1.0
 70
     8
 71
     3
 72
    28
 73
    24
 74
    22
 42
0.0000000001
 43
0.0000000001
 44
0.0000000001
 12
0.9999999418725989
 22
-0.0003409615798532
 32
0.0
 13
0.9999990309673387
 23
0.0013921438085369
 33
0.0
 40
0.0
 40
0.0
 40
0.0
 40
0.0
 40
34.62361228512921
 40
66.20896131393357
 40
94.98392751885829
 40
121.1523066796695
 40
144.9553411474949
 40
166.6528372904458
 40
186.5140675008417
 40
204.8078253056087
 40
221.7037035796078
 40
237.2120944697746
 40
251.4652203867903
 40
264.5554127200075
 40
276.6189590450793
 40
287.7670759659212
 40
298.0218580076184
 40
307.3901598139175
 40
316.7569915984354
 40
327.0039173255303
 40
338.1959971979366
 40
350.3290211399547
 40
363.4213076246227
 40
363.4213076246227
 40
363.4213076246227
 40
363.4213076246227
 10
60234.27305323305
 20
13742.42186740906
 30
0.0
 10
60245.81425665722
 20
13742.41793230188
 30
0.0
 10
60267.88390947952
 20
13742.41136858404
 30
0.0
 10
60299.54521781817
 20
13742.40403332102
 30
0.0
 10
60328.38811550652
 20
13742.39890515877
 30
0.0
 10
60354.63690857296
 20
13742.3955014223
 30
0.0
 10
60378.52654508734
 20
13742.39349430457
 30
0.0
 10
60400.31379868548
 20
13742.39264863187
 30
0.0
 10
60420.26462674498
 20
13742.39279553569
 30
0.0
 10
60438.61491548712
 20
13742.39381820882
 30
0.0
 10
60455.51425772076
 20
13742.39563287682
 30
0.0
 10
60471.06672254965
 20
13742.39816944497
 30
0.0
 10
60485.35062524899
 20
13742.40136258546
 30
0.0
 10
60498.48624623366
 20
13742.40516723947
 30
0.0
 10
60510.58686397652
 20
13742.4095532475
 30
0.0
 10
60521.74234465869
 20
13742.41449646218
 30
0.0
 10
60531.99941012534
 20
13742.4199860598
 30
0.0
 10
60541.66271343481
 20
13742.42608685416
 30
0.0
 10
60551.32339690086
 20
13742.43373278865
 30
0.0
 10
60561.59200437081
 20
13742.4439431508
 30
0.0
 10
60572.78267265216
 20
13742.4575836198
 30
0.0
 10
60584.92179114476
 20
13742.47438375492
 30
0.0
 10
60593.3302194594
 20
13742.48633405295
 30
0.0
 10
60597.69431072535
 20
13742.49240950147
 30
0.0
 11
60234.27305323305
 21
13742.42186740906
 31
0.0
 11
60268.89666395524
 21
13742.41146408967
 31
0.0
 11
60300.48201212864
 21
13742.40411314296
 31
0.0
 11
60329.25697787793
 21
13742.39899242306
 31
0.0
 11
60355.42535681985
 21
13742.39560773116
 31
0.0
 11
60379.22839120493
 21
13742.39362295726
 31
0.0
 11
60400.92588733224
 21
13742.39279924447
 31
0.0
 11
60420.78711754193
 21
13742.39296606616
 31
0.0
 11
60439.08087531703
 21
13742.39400791266
 31
0.0
 11
60455.97675349103
 21
13742.39584615466
 31
0.0
 11
60471.48514417084
 21
13742.39840052747
 31
0.0
 11
60485.73826972584
 21
13742.40161293256
 31
0.0
 11
60498.82846150204
 21
13742.40543170996
 31
0.0
 11
60510.89200702444
 21
13742.40983241676
 31
0.0
 11
60522.04012283554
 21
13742.41480664436
 31
0.0
 11
60532.29490339733
 21
13742.42031593766
 31
0.0
 11
60541.66320326863
 21
13742.42633717966
 31
0.0
 11
60551.03003207774
 21
13742.43380311616
 31
0.0
 11
60561.27695273474
 21
13742.44399653067
 31
0.0
 11
60572.46902446494
 21
13742.45749676846
 31
0.0
 11
60584.60203716452
 21
13742.47401371046
 31
0.0
 11
60597.69431072535
 21
13742.49240950147
 31
0.0
  0
SPLINE
  5
72A0
330
200
100
AcDbEntity
  8
11111外轮廓线
 62
     7
370
     9
100
AcDbSpline
210
0.0
220
0.0
230
1.0
 70
     8
 71
     3
 72
     9
 73
     5
 74
     3
 42
0.0000000001
 43
0.0000000001
 44
0.0000000001
 12
-0.9999845842708234
 22
-0.0055525868483784
 32
0.0
 13
-0.9999631892360035
 23
-0.0085802198666853
 33
0.0
 40
0.0
 40
0.0
 40
0.0
 40
0.0
 40
0.6769099185588269
 40
1.354166266119562
 40
1.354166266119562
 40
1.354166266119562
 40
1.354166266119562
 10
60679.00820900173
 20
14076.58979997416
 30
0.0
 10
60678.78257584056
 20
14076.58854710712
 30
0.0
 10
60678.33119586905
 20
14076.58570036634
 30
0.0
 10
60677.87982072158
 20
14076.58217038425
 30
0.0
 10
60677.65407691584
 20
14076.58023338146
 30
0.0
 11
60679.00820900173
 21
14076.58979997416
 31
0.0
 11
60678.33131254854
 21
14076.58553037166
 31
0.0
 11
60677.65407691584
 21
14076.58023338146
 31
0.0
  0
SPLINE
  5
72A1
330
200
100
AcDbEntity
  8
11111外轮廓线
 62
     7
370
     9
100
AcDbSpline
210
0.0
220
0.0
230
1.0
 70
     8
 71
     3
 72
    10
 73
     6
 74
     4
 42
0.0000000001
 43
0.0000000001
 44
0.0000000001
 12
-0.9999673276030007
 22
-0.008083546654359
 32
0.0
 13
-0.9999845809551471
 23
-0.0055531839478446
 33
0.0
 40
0.0
 40
0.0
 40
0.0
 40
0.0
 40
3.393232632339924
 40
6.79730759805334
 40
10.20829683168039
 40
10.20829683168039
 40
10.20829683168039
 40
10.20829683168039
 10
60689.21626462825
 20
14076.65962482087
 30
0.0
 10
60688.08522403914
 20
14076.65048170277
 30
0.0
 10
60685.81952131903
 20
14076.63308598079
 30
0.0
 10
60682.41683534489
 20
14076.60975463431
 30
0.0
 10
60680.14518788154
 20
14076.59611392438
 30
0.0
 10
60679.00820900173
 20
14076.58979997416
 30
0.0
 11
60689.21626462825
 21
14076.65962482087
 31
0.0
 11
60685.82313197172
 21
14076.63357731767
 31
0.0
 11
60682.41913691274
 21
14076.61025328306
 31
0.0
 11
60679.00820900173
 21
14076.58979997416
 31
0.0
  0
LINE
  5
72A2
330
200
100
AcDbEntity
  8
11111外轮廓线
 62
     7
370
     9
100
AcDbLine
 10
60690.05592796194
 20
14076.66610909936
 30
0.0
 11
60689.21626462825
 21
14076.65962482087
 31
0.0
  0
LINE
  5
72A3
330
200
100
AcDbEntity
  8
11111外轮廓线
 62
     7
370
     9
100
AcDbLine
 10
60597.69431089173
 20
13742.49240994436
 30
0.0
 11
60598.40834603594
 21
13742.47833289007
 31
0.0
  0
SPLINE
  5
72A4
330
200
100
AcDbEntity
  8
11111外轮廓线
 62
     7
370
     9
100
AcDbSpline
210
0.0
220
0.0
230
1.0
 70
     8
 71
     3
 72
     9
 73
     5
 74
     3
 42
0.0000000001
 43
0.0000000001
 44
0.0000000001
 12
-0.999998704891291
 22
0.0016094147199971
 32
0.0
 13
-0.9999999958229622
 23
0.0000914006331419
 33
0.0
 40
0.0
 40
0.0
 40
0.0
 40
0.0
 40
0.7163718956943479
 40
1.433281099906931
 40
1.433281099906931
 40
1.433281099906931
 40
1.433281099906931
 10
60679.09209121193
 20
14082.10334309156
 30
0.0
 10
60678.85330088929
 20
14082.10372740471
 30
0.0
 10
60678.37554083381
 20
14082.10431594695
 30
0.0
 10
60677.89778046848
 20
14082.10454148807
 30
0.0
 10
60677.65881073474
 20
14082.10456333006
 30
0.0
 11
60679.09209121193
 21
14082.10334309156
 31
0.0
 11
60678.37571985914
 21
14082.10422504407
 31
0.0
 11
60677.65881073474
 21
14082.10456333006
 31
0.0
  0
SPLINE
  5
72A5
330
200
100
AcDbEntity
  8
11111外轮廓线
 62
     7
370
     9
100
AcDbSpline
210
0.0
220
0.0
230
1.0
 70
     8
 71
     3
 72
    10
 73
     6
 74
     4
 42
0.0000000001
 43
0.0000000001
 44
0.0000000001
 12
-0.9999999936313271
 22
0.0001128598496845
 32
0.0
 13
-0.9999986711916548
 23
0.0016302192873398
 33
0.0
 40
0.0
 40
0.0
 40
0.0
 40
0.0
 40
3.547393988116038
 40
7.106169865099325
 40
10.67121658727765
 40
10.67121658727765
 40
10.67121658727765
 40
10.67121658727765
 10
60689.76330295263
 20
14082.09416889627
 30
0.0
 10
60688.58083829745
 20
14082.09430234905
 30
0.0
 10
60686.21211504646
 20
14082.09514841554
 30
0.0
 10
60682.65504400521
 20
14082.09817408486
 30
0.0
 10
60680.28043854023
 20
14082.10140584616
 30
0.0
 10
60679.09209121193
 20
14082.10334311547
 30
0.0
 11
60689.76330295263
 21
14082.09416889627
 31
0.0
 11
60686.21590919164
 21
14082.09543832147
 31
0.0
 11
60682.65713461003
 21
14082.09847474977
 31
0.0
 11
60679.09209121193
 21
14082.10334311547
 31
0.0
  0
SPLINE
  5
72A6
330
200
100
AcDbEntity
  8
11111外轮廓线
 62
     7
370
     9
100
AcDbSpline
210
0.0
220
0.0
230
1.0
 70
     8
 71
     3
 72
    12
 73
     8
 74
     6
 42
0.0000000001
 43
0.0000000001
 44
0.0000000001
 12
-0.005204090857672
 22
-0.9999864586274881
 32
0.0
 13
-0.0002816086064349
 23
-0.9999999603482956
 33
0.0
 40
0.0
 40
0.0
 40
0.0
 40
0.0
 40
0.5365756934656067
 40
1.43950922105136
 40
2.644973652820839
 40
4.073276820316438
 40
5.627525806400074
 40
5.627525806400074
 40
5.627525806400074
 40
5.627525806400074
 10
60234.27465866124
 20
14082.11686912627
 30
0.0
 10
60234.27372786502
 20
14081.93801298377
 30
0.0
 10
60234.27258357972
 20
14081.45817701585
 30
0.0
 10
60234.27102506703
 20
14080.57652100601
 30
0.0
 10
60234.26976415159
 20
14079.39762100497
 30
0.0
 10
60234.26873691874
 20
14078.00161592786
 30
0.0
 10
60234.26832102757
 20
14077.00743192139
 30
0.0
 10
60234.26817513094
 20
14076.48934894656
 30
0.0
 11
60234.27465866124
 21
14082.11686912627
 31
0.0
 11
60234.27291593973
 21
14081.58029626287
 31
0.0
 11
60234.27129331583
 21
14080.67736419326
 31
0.0
 11
60234.26990497603
 21
14079.47190056097
 31
0.0
 11
60234.26884020304
 21
14078.04359779036
 31
0.0
 11
60234.26817513094
 21
14076.48934894656
 31
0.0
  0
SPLINE
  5
72A7
330
200
100
AcDbEntity
  8
11111外轮廓线
 62
     7
370
     9
100
AcDbSpline
210
0.0
220
0.0
230
1.0
 70
     8
 71
     3
 72
     9
 73
     5
 74
     3
 42
0.0000000001
 43
0.0000000001
 44
0.0000000001
 12
-0.9999999982456607
 22
0.0000592341019417
 32
0.0
 13
-0.9810664155018391
 23
0.1936715992972969
 33
0.0
 40
0.0
 40
0.0
 40
0.0
 40
0.0
 40
2.297766259973363
 40
4.264452261791775
 40
4.264452261791775
 40
4.264452261791775
 40
4.264452261791775
 10
60234.27305312963
 20
13742.42197664216
 30
0.0
 10
60233.50713104432
 20
13742.42202201086
 30
0.0
 10
60232.08391543701
 20
13742.47271174935
 30
0.0
 10
60230.67463037972
 20
13742.67964445666
 30
0.0
 10
60230.03148051764
 20
13742.80660819776
 30
0.0
 11
60234.27305312963
 21
13742.42197664216
 31
0.0
 11
60231.97746531444
 21
13742.52200847817
 31
0.0
 11
60230.03148051764
 21
13742.80660819776
 31
0.0
  0
SPLINE
  5
72A8
330
200
100
AcDbEntity
  8
11111外轮廓线
 62
     7
370
     9
100
AcDbSpline
210
0.0
220
0.0
230
1.0
 70
     8
 71
     3
 72
     9
 73
     5
 74
     3
 42
0.0000000001
 43
0.0000000001
 44
0.0000000001
 12
-0.98106641550313
 22
0.1936715992907578
 32
0.0
 13
-0.0000649798497095
 23
0.9999999978888096
 33
0.0
 40
0.0
 40
0.0
 40
0.0
 40
0.0
 40
1.368190623525212
 40
2.047000733199873
 40
2.047000733199873
 40
2.047000733199873
 40
2.047000733199873
 10
60230.03148051764
 20
13742.80660819776
 30
0.0
 10
60229.58405189406
 20
13742.89493475316
 30
0.0
 10
60228.97983351789
 20
13743.03801392097
 30
0.0
 10
60228.27467336203
 20
13743.50849302378
 30
0.0
 10
60228.27465865903
 20
13743.73476305986
 30
0.0
 11
60230.03148051764
 21
13742.80660819776
 31
0.0
 11
60228.73125235244
 21
13743.23246298606
 31
0.0
 11
60228.27465865903
 21
13743.73476305986
 31
0.0
  0
SPLINE
  5
72A9
330
200
100
AcDbEntity
  8
11111外轮廓线
 62
     7
370
     9
100
AcDbSpline
210
0.0
220
0.0
230
1.0
 70
     8
 71
     3
 72
    11
 73
     7
 74
     5
 42
0.0000000001
 43
0.0000000001
 44
0.0000000001
 12
-1.0
 22
-0.0000000057587779
 32
0.0
 13
-0.000000001523429
 23
1.0
 33
0.0
 40
0.0
 40
0.0
 40
0.0
 40
0.0
 40
2.338985430197423
 40
4.663329269084734
 40
6.966809076816387
 40
9.255435982305222
 40
9.255435982305222
 40
9.255435982305222
 40
9.255435982305222
 10
60234.27465865844
 20
14082.11686915687
 30
0.0
 10
60233.49499684837
 20
14082.11686915238
 30
0.0
 10
60231.92408861191
 20
14082.41936293953
 30
0.0
 10
60229.93021881345
 20
14083.71815351308
 30
0.0
 10
60228.5895350011
 20
14085.66604903626
 30
0.0
 10
60228.2746586596
 20
14087.2140305578
 30
0.0
 10
60228.27465865844
 20
14087.97690619296
 30
0.0
 11
60234.27465865844
 21
14082.11686915687
 31
0.0
 11
60231.97859893245
 21
14082.56292137056
 31
0.0
 11
60230.03206471603
 21
14083.83318859666
 31
0.0
 11
60228.73140198492
 21
14085.73431870387
 31
0.0
 11
60228.27465865844
 21
14087.97690619296
 31
0.0
  0
SPLINE
  5
72AA
330
200
100
AcDbEntity
  8
11111外轮廓线
 62
     7
370
     9
100
AcDbSpline
210
0.0
220
0.0
230
1.0
 70
     8
 71
     3
 72
    11
 73
     7
 74
     5
 42
0.0000000001
 43
0.0000000001
 44
0.0000000001
 12
-0.9999999991225465
 22
0.0000418916145947
 32
0.0
 13
0.0000001029972751
 23
0.9999999999999948
 33
0.0
 40
0.0
 40
0.0
 40
0.0
 40
0.0
 40
2.294177640888273
 40
4.239171275206833
 40
5.540322937673606
 40
6.005013233237993
 40
6.005013233237993
 40
6.005013233237993
 40
6.005013233237993
 10
60234.26817509144
 20
14076.48934874237
 30
0.0
 10
60233.50344921182
 20
14076.48938077797
 30
0.0
 10
60232.13470046717
 20
14076.52816399697
 30
0.0
 10
60230.13213662474
 20
14076.47069195348
 30
0.0
 10
60229.20577517975
 20
14076.7300113993
 30
0.0
 10
60228.27465864248
 20
14076.56697180157
 30
0.0
 10
60228.27465865844
 20
14076.72186856676
 30
0.0
 11
60234.26817509144
 21
14076.48934874237
 31
0.0
 11
60231.97406628444
 21
14076.50712033757
 31
0.0
 11
60230.02972629464
 21
14076.55754098386
 31
0.0
 11
60228.73076137204
 21
14076.63294508596
 31
0.0
 11
60228.27465865844
 21
14076.72186856676
 31
0.0
  0
LINE
  5
72AB
330
200
100
AcDbEntity
  8
11111外轮廓线
 62
     7
370
     9
100
AcDbLine
 10
59917.99993847003
 20
14088.95357906986
 30
0.0
 11
59917.99993847003
 21
14129.95357906987
 31
0.0
  0
LINE
  5
72AC
330
200
100
AcDbEntity
  8
11111外轮廓线
 62
     7
370
     9
100
AcDbLine
 10
59857.40276435554
 20
13736.95357906987
 30
0.0
 11
59830.33765503023
 21
13736.95357906987
 31
0.0
  0
LINE
  5
72AD
330
200
100
AcDbEntity
  8
11111外轮廓线
 62
     7
370
     9
100
AcDbLine
 10
59830.33765503023
 20
13736.95357906987
 30
0.0
 11
59740.49994030063
 21
13736.95357906987
 31
0.0
  0
LINE
  5
72AE
330
200
100
AcDbEntity
  8
11111外轮廓线
 62
     7
370
     9
100
AcDbLine
 10
59740.49994030063
 20
14136.95357906987
 30
0.0
 11
59880.19828245804
 21
14136.95357906987
 31
0.0
  0
LINE
  5
72AF
330
200
100
AcDbEntity
  8
11111外轮廓线
 62
     7
370
     9
100
AcDbLine
 10
59880.62972369563
 20
14136.95357906987
 30
0.0
 11
59910.99993847001
 21
14136.95357906987
 31
0.0
  0
ARC
  5
72B0
330
200
100
AcDbEntity
  8
11111外轮廓线
 62
     7
370
     9
100
AcDbCircle
 10
59910.99993847001
 20
14129.95357906987
 30
0.0
 40
7.0
100
AcDbArc
 50
0.0
 51
90.0
  0
ARC
  5
72B1
330
200
100
AcDbEntity
  8
11111外轮廓线
 62
     7
370
     9
100
AcDbCircle
 10
59910.99993847001
 20
14088.95357906986
 30
0.0
 40
7.0
100
AcDbArc
 50
282.3698527563205
 51
0.0
  0
SPLINE
  5
72B2
330
200
100
AcDbEntity
  8
11111外轮廓线
 62
     7
370
     9
100
AcDbSpline
210
0.0
220
0.0
230
1.0
 70
     8
 71
     3
 72
    14
 73
    10
 74
     8
 42
0.0000000001
 43
0.0000000001
 44
0.0000000001
 12
-0.2185171736242466
 22
-0.9758331029593488
 32
0.0
 13
-1.0
 23
0.0
 33
0.0
 40
0.0
 40
0.0
 40
0.0
 40
0.0
 40
1.350028516745956
 40
2.69911447876731
 40
4.047558872476937
 40
5.395681397503488
 40
6.743889103896677
 40
8.091805598840554
 40
9.438858110704005
 40
9.438858110704005
 40
9.438858110704005
 40
9.438858110704005
 10
59864.23359718592
 20
13742.42395908026
 30
0.0
 10
59864.13526238066
 20
13741.98482490807
 30
0.0
 10
59863.85294264326
 20
13741.12358415923
 30
0.0
 10
59863.19032587823
 20
13739.93913446107
 30
0.0
 10
59862.31307009751
 20
13738.90376271702
 30
0.0
 10
59861.25391012627
 20
13738.05609555694
 30
0.0
 10
59860.0518999887
 20
13737.42724267135
 30
0.0
 10
59858.75250299995
 20
13737.04055087855
 30
0.0
 10
59857.85178185949
 20
13736.95357906987
 30
0.0
 10
59857.40276435554
 20
13736.95357906987
 30
0.0
 11
59864.23359718592
 21
13742.42395908026
 31
0.0
 11
59863.81292963564
 21
13741.14114350186
 31
0.0
 11
59863.15437293842
 21
13739.96371579306
 31
0.0
 11
59862.28264338462
 21
13738.93493502537
 31
0.0
 11
59861.23010107232
 21
13738.09256395316
 31
0.0
 11
59860.03552170552
 21
13737.46754862856
 31
0.0
 11
59858.74356692642
 21
13737.08318977786
 31
0.0
 11
59857.40276435554
 21
13736.95357906987
 31
0.0
  0
SPLINE
  5
72B3
330
200
100
AcDbEntity
  8
11111外轮廓线
 62
     7
370
     9
100
AcDbSpline
210
0.0
220
0.0
230
1.0
 70
     8
 71
     3
 72
    13
 73
     9
 74
     7
 42
0.0000000001
 43
0.0000000001
 44
0.0000000001
 12
-0.9767851301307269
 22
-0.2142214031218613
 32
0.0
 13
-0.0399289510824812
 23
-0.999202521446705
 33
0.0
 40
0.0
 40
0.0
 40
0.0
 40
0.0
 40
1.312591770571408
 40
2.625225069981703
 40
3.937902478578224
 40
5.250626600231716
 40
6.563380972433002
 40
7.873994191595162
 40
7.873994191595162
 40
7.873994191595162
 40
7.873994191595162
 10
59912.49948829183
 20
14082.11608315897
 30
0.0
 10
59912.07211491735
 20
14082.02235474203
 30
0.0
 10
59911.23507537911
 20
14081.74000277187
 30
0.0
 10
59910.10387771347
 20
14081.05447275542
 30
0.0
 10
59909.14819629699
 20
14080.13912430935
 30
0.0
 10
59908.4145872511
 20
14079.03770979782
 30
0.0
 10
59907.9382712018
 20
14077.80438475117
 30
0.0
 10
59907.80704356082
 20
14076.9314678988
 30
0.0
 10
59907.78959975711
 20
14076.49494522106
 30
0.0
 11
59912.49948829183
 21
14082.11608315897
 31
0.0
 11
59911.25581801071
 21
14081.69634349197
 31
0.0
 11
59910.13314793482
 21
14081.01618315836
 31
0.0
 11
59909.18522277094
 21
14080.10813037205
 31
0.0
 11
59908.45743310574
 21
14079.01562553326
 31
0.0
 11
59907.98464624264
 21
14077.79096369266
 31
0.0
 11
59907.78959975711
 21
14076.49494522106
 31
0.0
  0
SPLINE
  5
72B4
330
200
100
AcDbEntity
  8
11111外轮廓线
 62
     7
370
     9
100
AcDbSpline
210
0.0
220
0.0
230
1.0
 70
     8
 71
     3
 72
     8
 73
     4
 74
     2
 42
0.0000000001
 43
0.0000000001
 44
0.0000000001
 12
-0.0399289510779288
 22
-0.9992025214468867
 32
0.0
 13
-0.2185171736246858
 23
-0.9758331029592504
 33
0.0
 40
0.0
 40
0.0
 40
0.0
 40
0.0
 40
336.8984250895247
 40
336.8984250895247
 40
336.8984250895247
 40
336.8984250895247
 10
59907.78959983684
 20
14076.49494521786
 30
0.0
 10
59903.3055995923
 20
13964.28502661088
 30
0.0
 10
59888.77295598117
 20
13852.00950539872
 30
0.0
 10
59864.23359209811
 20
13742.42396021966
 30
0.0
 11
59907.78959983684
 21
14076.49494521786
 31
0.0
 11
59864.23359209811
 21
13742.42396021966
 31
0.0
  0
LINE
  5
72B5
330
200
100
AcDbEntity
  8
11111外轮廓线
 62
     7
370
     9
100
AcDbLine
 10
59562.99994030063
 20
12947.182463787
 30
0.0
 11
59562.99994030063
 21
13392.0000598312
 31
0.0
  0
LINE
  5
72B6
330
200
100
AcDbEntity
  8
11111外轮廓线
 62
     7
370
     9
100
AcDbLine
 10
59569.99994030063
 20
12947.182463787
 30
0.0
 11
59569.99994030063
 21
13398.0000598312
 31
0.0
  0
LINE
  5
72B7
330
200
100
AcDbEntity
  8
11111外轮廓线
 62
     7
370
     9
100
AcDbLine
 10
59607.79984097154
 20
13113.55016198209
 30
0.0
 11
59607.81485268092
 21
13114.0987851591
 31
0.0
  0
LWPOLYLINE
  5
72B8
330
200
100
AcDbEntity
  8
11111外轮廓线
 62
     7
370
     9
100
AcDbPolyline
 90
        3
 70
     0
 43
0.0
 10
59607.79987429554
 20
13113.5501613078
 10
59607.21222069423
 20
13068.8179181845
 10
59607.28911339384
 20
13019.06439974459
  0
LINE
  5
72B9
330
200
100
AcDbEntity
  8
11111外轮廓线
 62
     7
370
     9
100
AcDbLine
 10
59607.79506688023
 20
12976.47833835819
 30
0.0
 11
59607.28911339384
 21
13019.06439974459
 31
0.0
  0
LINE
  5
72BA
330
200
100
AcDbEntity
  8
11111外轮廓线
 62
     7
370
     9
100
AcDbLine
 10
59608.15145045253
 20
12955.39300661339
 30
0.0
 11
59607.79506688023
 21
12976.47833835819
 31
0.0
  0
LINE
  5
72BB
330
200
100
AcDbEntity
  8
11111外轮廓线
 62
     7
370
     9
100
AcDbLine
 10
59873.20840094824
 20
12976.70756308479
 30
0.0
 11
59872.84841735063
 21
12955.3929926958
 31
0.0
  0
LWPOLYLINE
  5
72BC
330
200
100
AcDbEntity
  8
11111外轮廓线
 62
     7
370
     9
100
AcDbPolyline
 90
        4
 70
     0
 43
0.0
 10
59873.20724694052
 20
12976.6886892476
 10
59873.71084351333
 20
13019.0765307912
 10
59873.78753375954
 20
13068.83962909459
 10
59873.20006754512
 20
13113.54986761099
  0
LINE
  5
72BD
330
200
100
AcDbEntity
  8
11111外轮廓线
 62
     7
370
     9
100
AcDbLine
 10
59873.18508582483
 20
13114.0987149353
 30
0.0
 11
59873.20010049273
 21
13113.54986832639
 31
0.0
  0
LINE
  5
72BE
330
200
100
AcDbEntity
  8
11111外轮廓线
 62
     7
370
     9
100
AcDbLine
 10
59917.35891465963
 20
12935.8778534738
 30
0.0
 11
59917.99994030062
 21
12947.182463787
 31
0.0
  0
LINE
  5
72BF
330
200
100
AcDbEntity
  8
11111外轮廓线
 62
     7
370
     9
100
AcDbLine
 10
59910.99994030062
 20
12947.182463787
 30
0.0
 11
59910.99994030062
 21
13398.0000598312
 31
0.0
  0
LINE
  5
72C0
330
200
100
AcDbEntity
  8
11111外轮廓线
 62
     7
370
     9
100
AcDbLine
 10
59917.99994030062
 20
13392.0000598312
 30
0.0
 11
59917.99994030062
 21
12947.182463787
 31
0.0
  0
LINE
  5
72C1
330
200
100
AcDbEntity
  8
11111外轮廓线
 62
     7
370
     9
100
AcDbLine
 10
59562.99994030063
 20
13392.0000598312
 30
0.0
 11
59917.99994030062
 21
13392.0000598312
 31
0.0
  0
LINE
  5
72C2
330
200
100
AcDbEntity
  8
11111外轮廓线
 62
     7
370
     9
100
AcDbLine
 10
59568.99994030063
 20
13398.0000598312
 30
0.0
 11
59911.99994030063
 21
13398.0000598312
 31
0.0
  0
ARC
  5
72C3
330
200
100
AcDbEntity
  8
11111外轮廓线
 62
     7
370
     9
100
AcDbCircle
 10
59740.49994030063
 20
12956.0000598312
 30
0.0
 40
178.0
100
AcDbArc
 50
186.4909400658802
 51
353.5090599336576
  0
ARC
  5
72C4
330
200
100
AcDbEntity
  8
11111外轮廓线
 62
     7
370
     9
100
AcDbCircle
 10
59740.49994030063
 20
12956.0000598312
 30
0.0
 40
170.9999978021
100
AcDbArc
 50
186.4909400658802
 51
353.5090599336576
  0
ARC
  5
72C5
330
200
100
AcDbEntity
  8
11111外轮廓线
 62
     7
370
     9
100
AcDbCircle
 10
59662.99994030062
 20
12947.182463787
 30
0.0
 40
100.0
100
AcDbArc
 50
180.0
 51
186.4909400658802
  0
ARC
  5
72C6
330
200
100
AcDbEntity
  8
11111外轮廓线
 62
     7
370
     9
100
AcDbCircle
 10
59817.99994030063
 20
12947.182463787
 30
0.0
 40
100.0
100
AcDbArc
 50
353.5090599336576
 51
0.0
  0
ARC
  5
72C7
330
200
100
AcDbEntity
  8
11111外轮廓线
 62
     7
370
     9
100
AcDbCircle
 10
59662.99994030062
 20
12947.182463787
 30
0.0
 40
93.00000054729999
100
AcDbArc
 50
180.0
 51
186.4909400658802
  0
ARC
  5
72C8
330
200
100
AcDbEntity
  8
11111外轮廓线
 62
     7
370
     9
100
AcDbCircle
 10
59817.99994030063
 20
12947.182463787
 30
0.0
 40
93.00000054729999
100
AcDbArc
 50
353.5090599336576
 51
0.0
  0
CIRCLE
  5
72C9
330
200
100
AcDbEntity
  8
11111外轮廓线
 62
     7
370
     9
100
AcDbCircle
 10
59740.49994030063
 20
13088.1000598312
 30
0.0
 40
23.0
  0
CIRCLE
  5
72CA
330
200
100
AcDbEntity
  8
11111外轮廓线
 62
     7
370
     9
100
AcDbCircle
 10
59740.49994030063
 20
13235.0000598312
 30
0.0
 40
17.5
  0
ARC
  5
72CB
330
200
100
AcDbEntity
  8
11111外轮廓线
 62
     7
370
     9
100
AcDbCircle
 10
59911.99994030063
 20
13392.0000598312
 30
0.0
 40
6.0
100
AcDbArc
 50
0.0
 51
90.0
  0
ARC
  5
72CC
330
200
100
AcDbEntity
  8
11111外轮廓线
 62
     7
370
     9
100
AcDbCircle
 10
59568.99994030063
 20
13392.0000598312
 30
0.0
 40
6.0
100
AcDbArc
 50
90.0
 51
180.0
  0
SPLINE
  5
72CD
330
200
100
AcDbEntity
  8
11111外轮廓线
 62
     7
370
     9
100
AcDbSpline
210
0.0
220
0.0
230
1.0
 70
     8
 71
     3
 72
    34
 73
    30
 74
    28
 42
0.0000000001
 43
0.0000000001
 44
0.0000000001
 12
0.9999999925727978
 22
0.0001218786462924
 32
0.0
 13
0.0320291979588115
 23
-0.9994869336205027
 33
0.0
 40
0.0
 40
0.0
 40
0.0
 40
0.0
 40
11.4225550934378
 40
21.81228568212998
 40
31.28343700015893
 40
39.94364708827438
 40
47.89601032267877
 40
55.19681343319025
 40
61.85141161602484
 40
67.86497188751512
 40
73.33602639178953
 40
78.44349067168913
 40
83.37052482978737
 40
88.28108358388695
 40
93.18949791238171
 40
98.05391302390864
 40
102.8934248536419
 40
107.7633012626264
 40
112.7718884018293
 40
118.0462397813922
 40
123.7147807470507
 40
129.5076887490491
 40
134.8120142592444
 40
139.4581940935571
 40
143.7137838499861
 40
148.1316392335138
 40
152.6965258400425
 40
157.2331624798177
 40
161.0621430316615
 40
161.0621430316615
 40
161.0621430316615
 40
161.0621430316615
 10
59740.49994029212
 20
13175.0836120787
 30
0.0
 10
59744.30745862832
 20
13175.08407613388
 30
0.0
 10
59751.57857056472
 20
13175.00205203031
 30
0.0
 10
59762.0009510777
 20
13174.63853781938
 30
0.0
 10
59771.49283724511
 20
13174.08791878248
 30
0.0
 10
59780.16013539831
 20
13173.3903061589
 30
0.0
 10
59788.08893275411
 20
13172.5622478601
 30
0.0
 10
59795.33158429311
 20
13171.62238103339
 30
0.0
 10
59801.90905372583
 20
13170.59605041906
 30
0.0
 10
59807.85765477856
 20
13169.50903400812
 30
0.0
 10
59813.27016902732
 20
13168.36847414926
 30
0.0
 10
59818.29653440908
 20
13167.16165734658
 30
0.0
 10
59823.10493755798
 20
13165.8562198474
 30
0.0
 10
59827.80579194042
 20
13164.41702875761
 30
0.0
 10
59832.43434488691
 20
13162.82224172872
 30
0.0
 10
59836.97243841401
 20
13161.0486242699
 30
0.0
 10
59841.4086615624
 20
13159.06354951914
 30
0.0
 10
59845.77018886478
 20
13156.81077791654
 30
0.0
 10
59850.10017195485
 20
13154.2021441667
 30
0.0
 10
59854.43731766372
 20
13151.11578101022
 30
0.0
 10
59858.6730601602
 20
13147.47058967927
 30
0.0
 10
59862.4931497089
 20
13143.37393275124
 30
0.0
 10
59865.61340290495
 20
13139.14057227045
 30
0.0
 10
59868.00114550653
 20
13135.0417467074
 30
0.0
 10
59869.848184151
 20
13130.99698688469
 30
0.0
 10
59871.2883175073
 20
13126.81860223741
 30
0.0
 10
59872.3464337859
 20
13122.43106669065
 30
0.0
 10
59872.96355467396
 20
13118.15950117658
 30
0.0
 10
59873.14420150798
 20
13115.37438679831
 30
0.0
 10
59873.18508123333
 20
13114.0987147881
 30
0.0
 11
59740.49994029212
 21
13175.0836120787
 31
0.0
 11
59751.92172736114
 21
13174.9511544901
 31
0.0
 11
59762.30504237182
 21
13174.58609135249
 31
0.0
 11
59771.76017374842
 21
13174.03545722691
 31
0.0
 11
59780.39207409383
 21
13173.3357893077
 31
0.0
 11
59788.30096191623
 21
13172.50538312719
 31
0.0
 11
59795.54058572343
 21
13171.56221125069
 31
0.0
 11
59802.11515706484
 21
13170.53328528069
 31
0.0
 11
59808.03011501764
 21
13169.44876715939
 31
0.0
 11
59813.38298898803
 21
13168.31775980051
 31
0.0
 11
59818.34871476653
 21
13167.12287116001
 31
0.0
 11
59823.10295778684
 21
13165.8294884251
 31
0.0
 11
59827.79772175662
 21
13164.38977368061
 31
0.0
 11
59832.43673141312
 21
13162.7859904574
 31
0.0
 11
59836.96513039264
 21
13161.00943844309
 31
0.0
 11
59841.37998388963
 21
13159.027029971
 31
0.0
 11
59845.70366947604
 21
13156.7861731731
 31
0.0
 11
59849.99042054422
 21
13154.19586230171
 31
0.0
 11
59854.28234244344
 21
13151.1302157327
 31
0.0
 11
59858.57081088713
 21
13147.42327695699
 31
0.0
 11
59862.51479357324
 21
13143.1803082214
 31
0.0
 11
59865.65868963982
 21
13138.90809724338
 31
0.0
 11
59867.99547968583
 21
13134.8923284087
 31
0.0
 11
59869.76328244393
 21
13131.02129268379
 31
0.0
 11
59871.20601302974
 21
13126.84565205671
 31
0.0
 11
59872.27872112492
 21
13122.4085936761
 31
0.0
 11
59872.93303833894
 21
13117.91939096461
 31
0.0
 11
59873.18508123333
 21
13114.0987147881
 31
0.0
  0
SPLINE
  5
72CE
330
200
100
AcDbEntity
  8
11111外轮廓线
 62
     7
370
     9
100
AcDbSpline
210
0.0
220
0.0
230
1.0
 70
     8
 71
     3
 72
    13
 73
     9
 74
     7
 42
0.0000000001
 43
0.0000000001
 44
0.0000000001
 12
-0.9999999952837738
 22
-0.000097120813781
 32
0.0
 13
0.0535038042736056
 23
-0.9985676456446261
 33
0.0
 40
0.0
 40
0.0
 40
0.0
 40
0.0
 40
3.061630163005534
 40
5.918040605676527
 40
8.326115641825797
 40
10.0557593080093
 40
10.9965284997496
 40
11.14792262172128
 40
11.14792262172128
 40
11.14792262172128
 40
11.14792262172128
 10
59740.49994030063
 20
13174.14723256459
 30
0.0
 10
59739.47939691777
 20
13174.14713344859
 30
0.0
 10
59737.49729323841
 20
13174.12371499702
 30
0.0
 10
59734.76183402501
 20
13173.97031281392
 30
0.0
 10
59732.33385254669
 20
13173.83170480081
 30
0.0
 10
59730.89637125762
 20
13173.4289770926
 30
0.0
 10
59729.61807637569
 20
13173.40766659149
 30
0.0
 10
59729.58138978691
 20
13173.02023407227
 30
0.0
 10
59729.58408984074
 20
13172.96984164829
 30
0.0
 11
59740.49994030063
 21
13174.14723256459
 31
0.0
 11
59737.43867467121
 21
13174.0999885045
 31
0.0
 11
59734.58570186804
 21
13173.95989281819
 31
0.0
 11
59732.18816097592
 21
13173.73489715079
 31
0.0
 11
59730.48267963655
 21
13173.44679888109
 31
0.0
 11
59729.60036253173
 21
13173.12035868951
 31
0.0
 11
59729.58408984074
 21
13172.96984164829
 31
0.0
  0
SPLINE
  5
72CF
330
200
100
AcDbEntity
  8
11111外轮廓线
 62
     7
370
     9
100
AcDbSpline
210
0.0
220
0.0
230
1.0
 70
     8
 71
     3
 72
    13
 73
     9
 74
     7
 42
0.0000000001
 43
0.0000000001
 44
0.0000000001
 12
0.0459807408327519
 22
0.9989423263995131
 32
0.0
 13
-0.999999995283774
 23
-0.0000971208118308
 33
0.0
 40
0.0
 40
0.0
 40
0.0
 40
0.0
 40
0.1531905765075026
 40
1.093747632975297
 40
2.826178405532848
 40
5.235467296385338
 40
8.085191405452075
 40
11.14804982989687
 40
11.14804982989687
 40
11.14804982989687
 40
11.14804982989687
 10
59751.41600682084
 20
13172.97099208181
 30
0.0
 10
59751.41835475956
 20
13173.02200159877
 30
0.0
 10
59751.37835342294
 20
13173.40965463205
 30
0.0
 10
59750.10313411294
 20
13173.43122733438
 30
0.0
 10
59748.6614302951
 20
13173.83356825796
 30
0.0
 10
59746.23570648305
 20
13173.97161773605
 30
0.0
 10
59743.50105081382
 20
13174.12429606437
 30
0.0
 10
59741.52089310396
 20
13174.14733172036
 30
0.0
 10
59740.49994030063
 20
13174.14723256459
 30
0.0
 11
59751.41600682084
 21
13172.97099208181
 31
0.0
 11
59751.39825299684
 21
13173.1231504022
 31
0.0
 11
59750.51589096213
 21
13173.4488570435
 31
0.0
 11
59748.80757806324
 21
13173.7369254749
 31
0.0
 11
59746.40876702152
 21
13173.96137713059
 31
0.0
 11
59743.56244276354
 21
13174.1005378872
 31
0.0
 11
59740.49994030063
 21
13174.14723256459
 31
0.0
  0
SPLINE
  5
72D0
330
200
100
AcDbEntity
  8
11111外轮廓线
 62
     7
370
     9
100
AcDbSpline
210
0.0
220
0.0
230
1.0
 70
     8
 71
     3
 72
    32
 73
    28
 74
    26
 42
0.0000000001
 43
0.0000000001
 44
0.0000000001
 12
0.0321619123900317
 22
0.9994826718815168
 32
0.0
 13
0.9999999926643392
 23
0.0001211252320285
 33
0.0
 40
0.0
 40
0.0
 40
0.0
 40
0.0
 40
7.981023757218921
 40
15.43714411718431
 40
22.03157192228525
 40
27.91627817151161
 40
33.10527280629169
 40
37.82651313275442
 40
42.52150158445306
 40
47.35616785113783
 40
52.22893111052052
 40
57.10560869925634
 40
61.99584120300271
 40
66.92426782951999
 40
71.9113001679611
 40
76.91798730864324
 40
81.93144846192724
 40
87.10379934317423
 40
92.62665743939528
 40
98.6922693964898
 40
105.4160810646911
 40
112.8008268414125
 40
120.8409525370475
 40
129.5822233518321
 40
139.1233332957121
 40
149.570269973962
 40
161.0366377828399
 40
161.0366377828399
 40
161.0366377828399
 40
161.0366377828399
 10
59607.81490484084
 20
13114.09878348069
 30
0.0
 10
59607.90046650312
 20
13116.75774846376
 30
0.0
 10
59608.42033666305
 20
13121.90019554126
 30
0.0
 10
59610.30352197523
 20
13129.02987100244
 30
0.0
 10
59612.97473181823
 20
13135.14084042216
 30
0.0
 10
59616.06891567848
 20
13140.17121363304
 30
0.0
 10
59619.34476772924
 20
13144.30603870147
 30
0.0
 10
59622.74186534203
 20
13147.80304837584
 30
0.0
 10
59626.34652597945
 20
13150.90557776587
 30
0.0
 10
59630.23107812707
 20
13153.73475295825
 30
0.0
 10
59634.36321971705
 20
13156.30315688648
 30
0.0
 10
59638.67212099478
 20
13158.60043213605
 30
0.0
 10
59643.12325557195
 20
13160.65114525034
 30
0.0
 10
59647.70543023037
 20
13162.48899626235
 30
0.0
 10
59652.39825892515
 20
13164.14158636045
 30
0.0
 10
59657.17434987436
 20
13165.63242431529
 30
0.0
 10
59662.05644979523
 20
13166.98125938754
 30
0.0
 10
59667.14424104655
 20
13168.22229242364
 30
0.0
 10
59672.60838181532
 20
13169.39070152472
 30
0.0
 10
59678.61110876139
 20
13170.50254182842
 30
0.0
 10
59685.25419252212
 20
13171.55218640821
 30
0.0
 10
59692.57508931907
 20
13172.51333580214
 30
0.0
 10
59700.58680787785
 20
13173.35883965063
 30
0.0
 10
59709.33293938568
 20
13174.0693841309
 30
0.0
 10
59718.89383821094
 20
13174.62913006705
 30
0.0
 10
59729.37304911222
 20
13174.99869283436
 30
0.0
 10
59736.6778177172
 20
13175.08314912321
 30
0.0
 10
59740.49994029212
 20
13175.0836120787
 30
0.0
 11
59607.81490484084
 21
13114.09878348069
 31
0.0
 11
59608.65175112954
 21
13122.03581242749
 31
0.0
 11
59610.56914592973
 21
13129.2411804266
 31
0.0
 11
59613.21317056514
 21
13135.2823402328
 31
0.0
 11
59616.29167183484
 21
13140.29757677479
 31
0.0
 11
59619.51023552733
 21
13144.3677749367
 31
0.0
 11
59622.79613932234
 21
13147.75789978249
 31
0.0
 11
59626.34999178562
 21
13150.8259690827
 31
0.0
 11
59630.25358932584
 21
13153.6783232252
 31
0.0
 11
59634.38889670683
 21
13156.2557356188
 31
0.0
 11
59638.68898416004
 21
13158.5560034726
 31
0.0
 11
59643.12774478422
 21
13160.60826516691
 31
0.0
 11
59647.69954108362
 21
13162.44893559089
 31
0.0
 11
59652.40145033184
 21
13164.11102492851
 31
0.0
 11
59657.17993825584
 21
13165.6053372402
 31
0.0
 11
59662.01164590594
 21
13166.9430195341
 31
0.0
 11
59667.03602647214
 21
13168.1713572583
 31
0.0
 11
59672.43615479103
 21
13169.3291895823
 31
0.0
 11
59678.39963497934
 21
13170.43759043839
 31
0.0
 11
59685.04055351362
 21
13171.4901323
 31
0.0
 11
59692.36197248704
 21
13172.45516825919
 31
0.0
 11
59700.35721637023
 21
13173.3035175091
 31
0.0
 11
59709.06936924182
 21
13174.01640445631
 31
0.0
 11
59718.59403954623
 21
13174.5762567166
 31
0.0
 11
59729.03438162864
 21
13174.94739437541
 31
0.0
 11
59740.49994029212
 21
13175.0836120787
 31
0.0
  0
SPLINE
  5
72D1
330
200
100
AcDbEntity
  8
11111外轮廓线
 62
     7
370
     9
100
AcDbSpline
210
0.0
220
0.0
230
1.0
 70
     8
 71
     3
 72
    30
 73
    26
 74
    24
 42
0.0000000001
 43
0.0000000001
 44
0.0000000001
 12
-0.9999999999999737
 22
0.000000229057519
 32
0.0
 13
-0.017783887681981
 23
0.9998418541644046
 33
0.0
 40
0.0
 40
0.0
 40
0.0
 40
0.0
 40
7.031506756570068
 40
14.4539182713014
 40
22.36549764119341
 40
30.85946534436771
 40
40.00082008070893
 40
49.56517975457675
 40
59.08124522560981
 40
68.4284695377741
 40
77.73717988769215
 40
87.02965876230353
 40
96.2717285242441
 40
105.4653667081358
 40
114.6226340979314
 40
123.7513205943126
 40
132.8577737108774
 40
141.9439720040299
 40
151.0065464709881
 40
160.0380928850416
 40
169.0758213172993
 40
178.226957025992
 40
187.6049877016722
 40
197.3229954707101
 40
207.4981002740989
 40
207.4981002740989
 40
207.4981002740989
 40
207.4981002740989
 10
59740.49994030063
 20
12823.27313057189
 30
0.0
 10
59738.1561047151
 20
12823.27313110877
 30
0.0
 10
59733.33719685491
 20
12823.40206057609
 30
0.0
 10
59725.90282791142
 20
12824.00532430762
 30
0.0
 10
59718.03109864539
 20
12825.09846029375
 30
0.0
 10
59709.67783995287
 20
12826.78222762887
 30
0.0
 10
59700.92026896482
 20
12829.15661527662
 30
0.0
 10
59692.03105838942
 20
12832.26139552973
 30
0.0
 10
59683.33160993538
 20
12836.03916499327
 30
0.0
 10
59675.00137059573
 20
12840.39122154996
 30
0.0
 10
59667.06627218002
 20
12845.28737114713
 30
0.0
 10
59659.52909075098
 20
12850.71660525048
 30
0.0
 10
59652.42936476668
 20
12856.64691290182
 30
0.0
 10
59645.80412382586
 20
12863.03796552104
 30
0.0
 10
59639.67092234084
 20
12869.8515029711
 30
0.0
 10
59634.04522782224
 20
12877.0526674063
 30
0.0
 10
59628.94158057089
 20
12884.60390938999
 30
0.0
 10
59624.37211569512
 20
12892.46415934363
 30
0.0
 10
59620.35185591504
 20
12900.59106293429
 30
0.0
 10
59616.89061386495
 20
12908.95368577535
 30
0.0
 10
59613.97946615631
 20
12917.55436072918
 30
0.0
 10
59611.61075892428
 20
12926.43964992933
 30
0.0
 10
59609.79491164757
 20
12935.68596168756
 30
0.0
 10
59608.57222284728
 20
12945.37357560805
 30
0.0
 10
59608.21176809285
 20
12952.00184139575
 30
0.0
 10
59608.15145045253
 20
12955.39300661339
 30
0.0
 11
59740.49994030063
 21
12823.27313057189
 31
0.0
 11
59733.47092580073
 21
12823.46032680039
 31
0.0
 11
59726.07278212754
 21
12824.06004580519
 31
0.0
 11
59718.23638855462
 21
12825.14817442649
 31
0.0
 11
59709.90999295503
 21
12826.82705014011
 31
0.0
 11
59701.08772003474
 21
12829.2211819108
 31
0.0
 11
59692.05878582923
 21
12832.3763876226
 31
0.0
 11
59683.32952437023
 21
12836.1652524169
 31
0.0
 11
59675.04511691273
 21
12840.49413165059
 31
0.0
 11
59667.12324361204
 21
12845.3824863622
 31
0.0
 11
59659.58371220642
 21
12850.8143948499
 31
0.0
 11
59652.49082225223
 21
12856.7394911008
 31
0.0
 11
59645.87329996923
 21
12863.1216053187
 31
0.0
 11
59639.74624794482
 21
12869.92710159291
 31
0.0
 11
59634.12554062403
 21
12877.12019316491
 31
0.0
 11
59629.02507076344
 21
12884.6642435071
 31
0.0
 11
59624.45797049504
 21
12892.51921610799
 31
0.0
 11
59620.43958874054
 21
12900.64219979899
 31
0.0
 11
59616.98450369934
 21
12908.98673201999
 31
0.0
 11
59614.08599553443
 21
12917.5470582774
 31
0.0
 11
59611.72806501483
 21
12926.3891987662
 31
0.0
 11
59609.92045155693
 21
12935.5913720389
 31
0.0
 11
59608.70359865413
 21
12945.23289391109
 31
0.0
 11
59608.15145045253
 21
12955.39300661339
 31
0.0
  0
SPLINE
  5
72D2
330
200
100
AcDbEntity
  8
11111外轮廓线
 62
     7
370
     9
100
AcDbSpline
210
0.0
220
0.0
230
1.0
 70
     8
 71
     3
 72
    13
 73
     9
 74
     7
 42
0.0000000001
 43
0.0000000001
 44
0.0000000001
 12
0.0535038042732145
 22
-0.9985676456446471
 32
0.0
 13
0.9999999975654365
 23
0.0000697791315421
 33
0.0
 40
0.0
 40
0.0
 40
0.0
 40
0.0
 40
0.1779620772519586
 40
1.133323939633184
 40
2.847172991825923
 40
5.221812083740771
 40
8.044700273328857
 40
11.12593646167833
 40
11.12593646167833
 40
11.12593646167833
 40
11.12593646167833
 10
59729.58408984074
 20
13172.96984164829
 30
0.0
 10
59729.58726372345
 20
13172.91060592413
 30
0.0
 10
59729.67384501681
 20
13172.51587906169
 30
0.0
 10
59730.91118937015
 20
13172.53079885648
 30
0.0
 10
59732.38483130125
 20
13172.17131926974
 30
0.0
 10
59734.76945418689
 20
13172.08015255355
 30
0.0
 10
59737.49699715446
 20
13171.96149453853
 30
0.0
 10
59739.47286157368
 20
13171.94696535963
 30
0.0
 10
59740.49994030063
 20
13171.94703702829
 30
0.0
 11
59729.58408984074
 21
13172.96984164829
 31
0.0
 11
59729.62446444233
 21
13172.7965200037
 31
0.0
 11
59730.53286096104
 21
13172.50066184021
 31
0.0
 11
59732.22974873263
 21
13172.2601406056
 31
0.0
 11
59734.59790745353
 21
13172.0848263464
 31
0.0
 11
59737.41889373833
 21
13171.98122078729
 31
0.0
 11
59740.49994030063
 21
13171.94703702829
 31
0.0
  0
SPLINE
  5
72D3
330
200
100
AcDbEntity
  8
11111外轮廓线
 62
     7
370
     9
100
AcDbSpline
210
0.0
220
0.0
230
1.0
 70
     8
 71
     3
 72
    10
 73
     6
 74
     4
 42
0.0000000001
 43
0.0000000001
 44
0.0000000001
 12
0.0225687880529393
 22
-0.9997452924649465
 32
0.0
 13
-0.0187489987846331
 23
-0.9998242220733471
 33
0.0
 40
0.0
 40
0.0
 40
0.0
 40
0.0
 40
47.76063655972268
 40
100.395447904904
 40
158.4558594955655
 40
158.4558594955655
 40
158.4558594955655
 40
158.4558594955655
 10
59880.19828428863
 20
13113.70796399879
 30
0.0
 10
59880.55758418323
 20
13097.79180681022
 30
0.0
 10
59880.92767319533
 20
13064.32647495213
 30
0.0
 10
59880.75601659224
 20
13011.50705137381
 30
0.0
 10
59880.20125809198
 20
12974.61202495669
 30
0.0
 10
59879.83839989653
 20
12955.26195633939
 30
0.0
 11
59880.19828428863
 21
13113.70796399879
 31
0.0
 11
59880.80133520893
 21
13065.9511348099
 31
0.0
 11
59880.66357930682
 21
13013.3165037325
 31
0.0
 11
59879.83839989653
 21
12955.26195633939
 31
0.0
  0
SPLINE
  5
72D4
330
200
100
AcDbEntity
  8
11111外轮廓线
 62
     7
370
     9
100
AcDbSpline
210
0.0
220
0.0
230
1.0
 70
     8
 71
     3
 72
    30
 73
    26
 74
    24
 42
0.0000000001
 43
0.0000000001
 44
0.0000000001
 12
-0.0187466917239438
 22
-0.9998242653333672
 32
0.0
 13
-0.9999999999999214
 23
-0.0000003967037695
 33
0.0
 40
0.0
 40
0.0
 40
0.0
 40
0.0
 40
10.66058517995474
 40
20.83617405063819
 40
30.6537548918455
 40
40.23708664107589
 40
49.70990112400489
 40
59.18710783863965
 40
68.69270955284509
 40
78.19838417396373
 40
87.71584826112095
 40
97.26938792066333
 40
106.8542945455784
 40
116.4645121404541
 40
126.1183355742141
 40
135.8240835263492
 40
145.5510848569282
 40
155.3040666116175
 40
165.1853645011838
 40
175.1443621226399
 40
184.8416329539731
 40
194.0485361888194
 40
202.7168435700773
 40
210.8161215229523
 40
218.3127729502791
 40
218.3127729502791
 40
218.3127729502791
 40
218.3127729502791
 10
59879.83839989653
 20
12955.26195633939
 30
0.0
 10
59879.77178299521
 20
12951.7090524242
 30
0.0
 10
59879.38716734281
 20
12944.76695233766
 30
0.0
 10
59878.09803549948
 20
12934.62291754087
 30
0.0
 10
59876.1919306483
 20
12924.94250885162
 30
0.0
 10
59873.71054703912
 20
12915.63621304807
 30
0.0
 10
59870.6629501353
 20
12906.61945748595
 30
0.0
 10
59867.0406982309
 20
12897.84566834707
 30
0.0
 10
59862.83851354811
 20
12889.32201177191
 30
0.0
 10
59858.07040636749
 20
12881.08598202168
 30
0.0
 10
59852.75041115952
 20
12873.1756783299
 30
0.0
 10
59846.88589818806
 20
12865.62635278396
 30
0.0
 10
59840.49158500395
 20
12858.47839138931
 30
0.0
 10
59833.58829648706
 20
12851.77229193908
 30
0.0
 10
59826.19559107175
 20
12845.54689416762
 30
0.0
 10
59818.34744214448
 20
12839.84005077296
 30
0.0
 10
59810.08674099553
 20
12834.68594078832
 30
0.0
 10
59801.43011758245
 20
12830.10238239706
 30
0.0
 10
59792.39926874839
 20
12826.11259150643
 30
0.0
 10
59783.1197941689
 20
12822.79523218734
 30
0.0
 10
59773.84500535803
 20
12820.2081716721
 30
0.0
 10
59764.83997355403
 20
12818.33742997051
 30
0.0
 10
59756.26326238389
 20
12817.1134163063
 30
0.0
 10
59748.1984857541
 20
12816.44612112151
 30
0.0
 10
59742.99882411415
 20
12816.30548594671
 30
0.0
 10
59740.49994030504
 20
12816.3054849554
 30
0.0
 11
59879.83839989653
 21
12955.26195633939
 31
0.0
 11
59879.24951589803
 21
12944.6176483762
 31
0.0
 11
59877.96701379464
 21
12934.52320449751
 31
0.0
 11
59876.07005779212
 21
12924.89063207379
 31
0.0
 11
59873.60047168942
 21
12915.6309672906
 31
0.0
 11
59870.56640916374
 21
12906.6571900024
 31
0.0
 11
59866.94868923962
 21
12897.89764950859
 31
0.0
 11
59862.74523298134
 21
12889.37195778101
 31
0.0
 11
59857.98197606873
 21
12881.1458266377
 31
0.0
 11
59852.66931798833
 21
12873.24913196389
 31
0.0
 11
59846.80758104502
 21
12865.70524967201
 31
0.0
 11
59840.41647455543
 21
12858.5621276062
 31
0.0
 11
59833.52252236324
 21
12851.86662871571
 31
0.0
 11
59826.13839577863
 21
12845.64802907649
 31
0.0
 11
59818.28909823382
 21
12839.93925763569
 31
0.0
 11
59810.03681947383
 21
12834.79003923359
 31
0.0
 11
59801.41788344144
 21
12830.22554640559
 31
0.0
 11
59792.37872353382
 21
12826.233850507
 31
0.0
 11
59783.00135153673
 21
12822.88026614809
 31
0.0
 11
59773.66127465744
 21
12820.2725803033
 31
0.0
 11
59764.64698679873
 21
12818.3991658867
 31
0.0
 11
59756.06562145034
 21
12817.17453467149
 31
0.0
 11
59747.99387492794
 21
12816.5072930091
 31
0.0
 11
59740.49994030504
 21
12816.3054849554
 31
0.0
  0
SPLINE
  5
72D5
330
200
100
AcDbEntity
  8
11111外轮廓线
 62
     7
370
     9
100
AcDbSpline
210
0.0
220
0.0
230
1.0
 70
     8
 71
     3
 72
    30
 73
    26
 74
    24
 42
0.0000000001
 43
0.0000000001
 44
0.0000000001
 12
-0.9999999999999843
 22
0.0000001777725938
 32
0.0
 13
-0.0187468122031999
 23
0.9998242630743755
 33
0.0
 40
0.0
 40
0.0
 40
0.0
 40
0.0
 40
7.399841561353739
 40
15.20808166189847
 40
23.52898303443217
 40
32.46372726347508
 40
42.08553380836042
 40
52.16257407957174
 40
62.18739569475086
 40
72.03280303779552
 40
81.84024413095167
 40
91.63282756409335
 40
101.3757373258868
 40
111.065286010629
 40
120.7119951508631
 40
130.3238249681737
 40
139.9054667241703
 40
149.4602497608481
 40
158.9876241760164
 40
168.4787827345924
 40
177.971547100097
 40
187.5800918441699
 40
197.4253762878752
 40
207.6283291583785
 40
218.3126162325617
 40
218.3126162325617
 40
218.3126162325617
 40
218.3126162325617
 10
59740.49994030504
 20
12816.3054849554
 30
0.0
 10
59738.03332645125
 20
12816.30548539389
 30
0.0
 10
59732.96298402795
 20
12816.44085304626
 30
0.0
 10
59725.1417912842
 20
12817.07444395739
 30
0.0
 10
59716.86155738785
 20
12818.2227052649
 30
0.0
 10
59708.0728212884
 20
12819.99209252335
 30
0.0
 10
59698.85304860097
 20
12822.4897221358
 30
0.0
 10
59689.4900300474
 20
12825.7576219187
 30
0.0
 10
59680.32494134174
 20
12829.73598911975
 30
0.0
 10
59671.54904658899
 20
12834.31981772279
 30
0.0
 10
59663.18869210943
 20
12839.47789824996
 30
0.0
 10
59655.24588714365
 20
12845.20006994171
 30
0.0
 10
59647.76396262227
 20
12851.45184414568
 30
0.0
 10
59640.78407041987
 20
12858.18944922316
 30
0.0
 10
59634.32639118809
 20
12865.37008179248
 30
0.0
 10
59628.40754208725
 20
12872.95513348345
 30
0.0
 10
59623.04192440459
 20
12880.90384231134
 30
0.0
 10
59618.24048297305
 20
12889.17271108396
 30
0.0
 10
59614.01683713255
 20
12897.71736718959
 30
0.0
 10
59610.37947570793
 20
12906.50502973458
 30
0.0
 10
59607.31846392532
 20
12915.5380949335
 30
0.0
 10
59604.8249824595
 20
12924.86635678641
 30
0.0
 10
59602.90940323426
 20
12934.57223686315
 30
0.0
 10
59601.61436316974
 20
12944.74205071785
 30
0.0
 10
59601.22823273343
 20
12951.70116506896
 30
0.0
 10
59601.16146729233
 20
12955.2619682191
 30
0.0
 11
59740.49994030504
 21
12816.3054849554
 31
0.0
 11
59733.10271192963
 21
12816.5021254783
 31
0.0
 11
59725.31992072053
 21
12817.1320258382
 31
0.0
 11
59717.07788055963
 21
12818.27490537579
 31
0.0
 11
59708.31900169233
 21
12820.03890521319
 31
0.0
 11
59699.03247811344
 21
12822.5567695872
 31
0.0
 11
59689.51884972232
 21
12825.8790602824
 31
0.0
 11
59680.32229860523
 21
12829.869109902
 31
0.0
 11
59671.59592094954
 21
12834.4278793369
 31
0.0
 11
59663.24943926833
 21
12839.57784480679
 31
0.0
 11
59655.30449206983
 21
12845.3025722508
 31
0.0
 11
59647.82836153384
 21
12851.55011279369
 31
0.0
 11
59640.85610183942
 21
12858.27877896669
 31
0.0
 11
59634.40485669902
 21
12865.4509776097
 31
0.0
 11
59628.49081828153
 21
12873.0280101445
 31
0.0
 11
59623.12870102244
 21
12880.96876308361
 31
0.0
 11
59618.33009880312
 21
12889.23116561669
 31
0.0
 11
59614.10809249713
 21
12897.77198091729
 31
0.0
 11
59610.47704956293
 21
12906.54110960799
 31
0.0
 11
59607.42953172464
 21
12915.53139382621
 31
0.0
 11
59604.94764351333
 21
12924.81386995089
 31
0.0
 11
59603.04105958725
 21
12934.4727810443
 31
0.0
 11
59601.75252894112
 21
12944.5940426283
 31
0.0
 11
59601.16146729233
 21
12955.2619682191
 31
0.0
  0
SPLINE
  5
72D6
330
200
100
AcDbEntity
  8
11111外轮廓线
 62
     7
370
     9
100
AcDbSpline
210
0.0
220
0.0
230
1.0
 70
     8
 71
     3
 72
    10
 73
     6
 74
     4
 42
0.0000000001
 43
0.0000000001
 44
0.0000000001
 12
-0.0187511866920064
 22
0.9998241810426678
 32
0.0
 13
0.0225702135390335
 23
0.9997452602842397
 33
0.0
 40
0.0
 40
0.0
 40
0.0
 40
0.0
 40
58.0801826298883
 40
110.705656902855
 40
158.4561628499541
 40
158.4561628499541
 40
158.4561628499541
 40
158.4561628499541
 10
59601.16146729233
 20
12955.2619682191
 30
0.0
 10
59600.79844317646
 20
12974.61862523001
 30
0.0
 10
59600.24374471037
 20
13011.51713180511
 30
0.0
 10
59600.07224513807
 20
13064.33665694106
 30
0.0
 10
59600.442411114
 20
13097.7954974564
 30
0.0
 10
59600.80165748594
 20
13113.708278122
 30
0.0
 11
59601.16146729233
 21
12955.2619682191
 31
0.0
 11
59600.33611120003
 21
13013.33628613711
 31
0.0
 11
59600.19857941333
 21
13065.9615806965
 31
0.0
 11
59600.80165748594
 21
13113.708278122
 31
0.0
  0
SPLINE
  5
72D7
330
200
100
AcDbEntity
  8
11111外轮廓线
 62
     7
370
     9
100
AcDbSpline
210
0.0
220
0.0
230
1.0
 70
     8
 71
     3
 72
    32
 73
    28
 74
    26
 42
0.0000000001
 43
0.0000000001
 44
0.0000000001
 12
0.0227059572204433
 22
0.9997421865194564
 32
0.0
 13
0.9999999927500654
 23
0.000120415402947
 33
0.0
 40
0.0
 40
0.0
 40
0.0
 40
0.0
 40
9.643898240216344
 40
18.2016798059777
 40
25.81305827173718
 40
32.58595514469523
 40
38.52915733181435
 40
43.89658736859237
 40
49.18328380982076
 40
54.56130088014045
 40
59.92535749412183
 40
65.2373406552791
 40
70.50661936729082
 40
75.76084709642102
 40
81.02386108652389
 40
86.2722675656485
 40
91.50522640432711
 40
96.8817673189703
 40
102.599370328034
 40
108.8532407403612
 40
115.7612394340954
 40
123.3267432341462
 40
131.5402830546466
 40
140.4446067073376
 40
150.1465150252745
 40
160.7580635603011
 40
172.3918642627394
 40
172.3918642627394
 40
172.3918642627394
 40
172.3918642627394
 10
59600.80165748594
 20
13113.708278122
 30
0.0
 10
59600.87464879956
 20
13116.92208209308
 30
0.0
 10
59601.46342363376
 20
13122.99241776063
 30
0.0
 10
59603.68733620677
 20
13131.34072000432
 30
0.0
 10
59606.76991561865
 20
13138.36938232934
 30
0.0
 10
59610.3300467579
 20
13144.15635107188
 30
0.0
 10
59614.07621560137
 20
13148.89357898294
 30
0.0
 10
59617.9322186592
 20
13152.87187049269
 30
0.0
 10
59621.9834136534
 20
13156.3668941348
 30
0.0
 10
59626.30392363159
 20
13159.51931637559
 30
0.0
 10
59630.85097670305
 20
13162.34917995937
 30
0.0
 10
59635.54324353676
 20
13164.85311013289
 30
0.0
 10
59640.33921142429
 20
13167.06406821035
 30
0.0
 10
59645.22466614192
 20
13169.02437028423
 30
0.0
 10
59650.18261971902
 20
13170.77079534674
 30
0.0
 10
59655.19324056943
 20
13172.33514192978
 30
0.0
 10
59660.28905122886
 20
13173.74347318954
 30
0.0
 10
59665.57701897742
 20
13175.03387056567
 30
0.0
 10
59671.23245275629
 20
13176.24384527479
 30
0.0
 10
59677.42095731099
 20
13177.39090690041
 30
0.0
 10
59684.24604615412
 20
13178.47031997898
 30
0.0
 10
59691.74472244581
 20
13179.45609321147
 30
0.0
 10
59699.92776141627
 20
13180.32113628736
 30
0.0
 10
59708.83897703078
 20
13181.04684016631
 30
0.0
 10
59718.56234138074
 20
13181.61770485998
 30
0.0
 10
59729.205701787
 20
13181.99442197322
 30
0.0
 10
59736.62115918867
 20
13182.08051767737
 30
0.0
 10
59740.49909272803
 20
13182.08098464031
 30
0.0
 11
59600.80165748594
 21
13113.708278122
 31
0.0
 11
59601.77349455684
 21
13123.30308431989
 31
0.0
 11
59603.98722870892
 21
13131.56958336309
 31
0.0
 11
59607.04680024932
 21
13138.53895235449
 31
0.0
 11
59610.59086880463
 21
13144.31058211799
 31
0.0
 11
59614.27408713854
 21
13148.97486715879
 31
0.0
 11
59618.00604407073
 21
13152.8325611145
 31
0.0
 11
59622.00451019354
 21
13156.2910908493
 31
0.0
 11
59626.34453812833
 21
13159.46713007039
 31
0.0
 11
59630.89547560183
 21
13162.3065087824
 31
0.0
 11
59635.57871627912
 21
13164.8133837021
 31
0.0
 11
59640.36120445903
 21
13167.02542008379
 31
0.0
 11
59645.23509328923
 21
13168.98810108189
 31
0.0
 11
59650.19714795923
 21
13170.74233302551
 31
0.0
 11
59655.20628729294
 21
13172.30895158331
 31
0.0
 11
59660.24945456004
 21
13173.7054909216
 31
0.0
 11
59665.47208667482
 21
13174.9827168219
 31
0.0
 11
59671.06252151183
 21
13176.18189258149
 31
0.0
 11
59677.21096478304
 21
13177.3253699424
 31
0.0
 11
59684.03365771304
 21
13178.40763938
 31
0.0
 11
59691.53413308452
 21
13179.39744590168
 31
0.0
 11
59699.70167893033
 21
13180.26545007189
 31
0.0
 11
59708.57621225073
 21
13180.9932124349
 31
0.0
 11
59718.26131338644
 21
13181.5640372775
 31
0.0
 11
59728.86611904164
 21
13181.9422691199
 31
0.0
 11
59740.49909272803
 21
13182.08098464031
 31
0.0
  0
SPLINE
  5
72D8
330
200
100
AcDbEntity
  8
11111外轮廓线
 62
     7
370
     9
100
AcDbSpline
210
0.0
220
0.0
230
1.0
 70
     8
 71
     3
 72
    34
 73
    30
 74
    28
 42
0.0000000001
 43
0.0000000001
 44
0.0000000001
 12
0.9999999925614988
 22
0.0001219713182553
 32
0.0
 13
0.0225932746508997
 23
-0.9997447393912853
 33
0.0
 40
0.0
 40
0.0
 40
0.0
 40
0.0
 40
11.58933941151947
 40
22.14268154170618
 40
31.77319376584438
 40
40.59450475282159
 40
48.71754332901197
 40
56.19605422349837
 40
63.03157207094447
 40
69.22981203503926
 40
74.89149270568074
 40
80.19804225930981
 40
85.33789706675669
 40
90.48178871495858
 40
95.65405660918669
 40
100.8295864368019
 40
106.0328080739967
 40
111.3253474062763
 40
116.8278671668521
 40
122.6866322153633
 40
129.0699213607118
 40
135.6664588126682
 40
141.749725154564
 40
147.1002951632859
 40
152.0129635838118
 40
157.0984729911522
 40
162.3308581210396
 40
167.4948955313741
 40
172.4225194971156
 40
172.4225194971156
 40
172.4225194971156
 40
172.4225194971156
 10
59740.49909272803
 20
13182.08098464031
 30
0.0
 10
59744.36220583648
 20
13182.08145582931
 30
0.0
 10
59751.74345674837
 20
13181.99781883571
 30
0.0
 10
59762.32896306774
 20
13181.6272913955
 30
0.0
 10
59771.98185618861
 20
13181.06567321045
 30
0.0
 10
59780.8122192294
 20
13180.35326687384
 30
0.0
 10
59788.90979035767
 20
13179.50611364756
 30
0.0
 10
59796.32726519681
 20
13178.54229395537
 30
0.0
 10
59803.08353882245
 20
13177.48706900172
 30
0.0
 10
59809.21440545885
 20
13176.36593895863
 30
0.0
 10
59814.81416237502
 20
13175.18528121083
 30
0.0
 10
59820.03572488994
 20
13173.93106160007
 30
0.0
 10
59825.05162683842
 20
13172.56889754015
 30
0.0
 10
59829.97871317168
 20
13171.06005794507
 30
0.0
 10
59834.86198918698
 20
13169.37726804916
 30
0.0
 10
59839.69135755026
 20
13167.48906509821
 30
0.0
 10
59844.46122596874
 20
13165.35353896085
 30
0.0
 10
59849.20140648881
 20
13162.90329091762
 30
0.0
 10
59853.95868234625
 20
13160.03351406865
 30
0.0
 10
59858.78080966127
 20
13156.59650317439
 30
0.0
 10
59863.54317330117
 20
13152.48672897018
 30
0.0
 10
59867.88129110929
 20
13147.82378737965
 30
0.0
 10
59871.45144612685
 20
13142.97322229735
 30
0.0
 10
59874.20078387794
 20
13138.25809627907
 30
0.0
 10
59876.33428523483
 20
13133.59960826642
 30
0.0
 10
59878.00043546389
 20
13128.79568780525
 30
0.0
 10
59879.22011753963
 20
13123.77304964445
 30
0.0
 10
59879.95872540163
 20
13118.71192270571
 30
0.0
 10
59880.16117390142
 20
13115.35008604461
 30
0.0
 10
59880.19828428863
 20
13113.70796399879
 30
0.0
 11
59740.49909272803
 21
13182.08098464031
 31
0.0
 11
59752.08764694364
 21
13181.94608027629
 31
0.0
 11
59762.63442906102
 21
13181.5740358095
 31
0.0
 11
59772.24856123934
 21
13181.0125839797
 31
0.0
 11
59781.04091105613
 21
13180.29836256589
 31
0.0
 11
59789.11939906273
 21
13179.4487819414
 31
0.0
 11
59796.53509289333
 21
13178.48151248059
 31
0.0
 11
59803.28826931613
 21
13177.42372590229
 31
0.0
 11
59809.38475522793
 21
13176.3052277218
 31
0.0
 11
59814.92402989465
 21
13175.13430322251
 31
0.0
 11
59820.08322193454
 21
13173.8924474899
 31
0.0
 11
59825.04274681715
 21
13172.54292150629
 31
0.0
 11
59829.96053104804
 21
13171.0346047137
 31
0.0
 11
59834.84888979654
 21
13169.3445443847
 31
0.0
 11
59839.66680786962
 21
13167.4541014637
 31
0.0
 11
59844.41320666423
 21
13165.32215073999
 31
0.0
 11
59849.11159130284
 21
13162.88572828659
 31
0.0
 11
59853.81986327583
 21
13160.0379398914
 31
0.0
 11
59858.58512471113
 21
13156.62950750289
 31
0.0
 11
59863.41005608633
 21
13152.45022316971
 31
0.0
 11
59867.89665605283
 21
13147.6144474206
 31
0.0
 11
59871.50002278854
 21
13142.7132355751
 31
0.0
 11
59874.19301291175
 21
13138.0897732778
 31
0.0
 11
59876.23879384914
 21
13133.6233327077
 31
0.0
 11
59877.90763172562
 21
13128.81943990351
 31
0.0
 11
59879.14496836552
 21
13123.7354599481
 31
0.0
 11
59879.89576470662
 21
13118.62629296809
 31
0.0
 11
59880.19828428863
 21
13113.70796399879
 31
0.0
  0
SPLINE
  5
72D9
330
200
100
AcDbEntity
  8
11111外轮廓线
 62
     7
370
     9
100
AcDbSpline
210
0.0
220
0.0
230
1.0
 70
     8
 71
     3
 72
    13
 73
     9
 74
     7
 42
0.0000000001
 43
0.0000000001
 44
0.0000000001
 12
0.9999999975654359
 22
0.0000697791371522
 32
0.0
 13
0.0459807408377736
 23
0.998942326399282
 33
0.0
 40
0.0
 40
0.0
 40
0.0
 40
0.0
 40
3.095413494043313
 40
5.928946885454577
 40
8.296670830530345
 40
10.00089980313223
 40
10.95076392002497
 40
11.12625418494096
 40
11.12625418494096
 40
11.12625418494096
 40
11.12625418494096
 10
59740.49994030063
 20
13171.94703702829
 30
0.0
 10
59741.53174479614
 20
13171.94710902672
 30
0.0
 10
59743.51605773319
 20
13171.96203781163
 30
0.0
 10
59746.24892256369
 20
13172.08192629836
 30
0.0
 10
59748.63263458758
 20
13172.17423603431
 30
0.0
 10
59750.09706449941
 20
13172.53340156178
 30
0.0
 10
59751.33077312919
 20
13172.51980123987
 30
0.0
 10
59751.4133170967
 20
13172.91255719731
 30
0.0
 10
59751.41600682084
 20
13172.97099208181
 30
0.0
 11
59740.49994030063
 21
13171.94703702829
 31
0.0
 11
59743.59515655324
 21
13171.98198053549
 31
0.0
 11
59746.42674361602
 21
13172.08698618349
 31
0.0
 11
59748.78790357034
 21
13172.26316890169
 31
0.0
 11
59750.47505479682
 21
13172.50382868241
 31
0.0
 11
59751.37764839463
 21
13172.7997452885
 31
0.0
 11
59751.41600682084
 21
13172.97099208181
 31
0.0
  0
SPLINE
  5
72DA
330
200
100
AcDbEntity
  8
11111外轮廓线
 62
     7
370
     9
100
AcDbSpline
210
0.0
220
0.0
230
1.0
 70
     8
 71
     3
 72
    30
 73
    26
 74
    24
 42
0.0000000001
 43
0.0000000001
 44
0.0000000001
 12
-0.0177837194718395
 22
-0.9998418571562941
 32
0.0
 13
-0.999999999999952
 23
-0.0000003095992427
 33
0.0
 40
0.0
 40
0.0
 40
0.0
 40
0.0
 40
10.15280520899748
 40
19.84471708210154
 40
29.19635113794959
 40
38.32349048534415
 40
47.34227210608198
 40
56.36063808422242
 40
65.40250979709117
 40
74.44209334746918
 40
83.48772598460337
 40
92.5612077905105
 40
101.6599716539793
 40
110.778520929831
 40
119.9359873896915
 40
129.145873155269
 40
138.3780997403595
 40
147.6374177678458
 40
157.0176966855908
 40
166.4692838014183
 40
175.6813969588819
 40
184.4336929214138
 40
192.6755867314084
 40
200.3747638915819
 40
207.4982464294571
 40
207.4982464294571
 40
207.4982464294571
 40
207.4982464294571
 10
59872.84841735063
 20
12955.3929926958
 30
0.0
 10
59872.78823247073
 20
12952.00925949063
 30
0.0
 10
59872.42918845267
 20
12945.39711979114
 30
0.0
 10
59871.21207635056
 20
12935.73399080257
 30
0.0
 10
59869.40522775409
 20
12926.51195749646
 30
0.0
 10
59867.04803483152
 20
12917.64757523224
 30
0.0
 10
59864.14965267448
 20
12909.06237802433
 30
0.0
 10
59860.70279885247
 20
12900.71289931205
 30
0.0
 10
59856.70294617452
 20
12892.60589791762
 30
0.0
 10
59852.16515212973
 20
12884.77677177851
 30
0.0
 10
59847.10479983597
 20
12877.26189067903
 30
0.0
 10
59841.53059868597
 20
12870.09452566298
 30
0.0
 10
59835.45740464236
 20
12863.31188747937
 30
0.0
 10
59828.90475546208
 20
12856.9506903462
 30
0.0
 10
59821.88964075373
 20
12851.04549859543
 30
0.0
 10
59814.44236079315
 20
12845.6309292844
 30
0.0
 10
59806.60193963549
 20
12840.73871252005
 30
0.0
 10
59798.38485485863
 20
12836.38693363114
 30
0.0
 10
59789.81293772416
 20
12832.59846584491
 30
0.0
 10
59781.0033980095
 20
12829.44689309876
 30
0.0
 10
59772.19414205712
 20
12826.98773975319
 30
0.0
 10
59763.63572120864
 20
12825.20765320267
 30
0.0
 10
59755.48224682587
 20
12824.04243590082
 30
0.0
 10
59747.81629107353
 20
12823.40707830475
 30
0.0
 10
59742.87443447992
 20
12823.27313130703
 30
0.0
 10
59740.49994030063
 20
12823.27313057189
 30
0.0
 11
59872.84841735063
 21
12955.3929926958
 31
0.0
 11
59872.29829293193
 21
12945.25510254371
 31
0.0
 11
59871.08714470023
 21
12935.6391639147
 31
0.0
 11
59869.28867796102
 21
12926.46209592419
 31
0.0
 11
59866.94245568224
 21
12917.64166998859
 31
0.0
 11
59864.05675573723
 21
12909.0970133103
 31
0.0
 11
59860.61433626062
 21
12900.7615065433
 31
0.0
 11
59856.61361587114
 21
12892.6528888783
 31
0.0
 11
59852.08010785942
 21
12884.8323149945
 31
0.0
 11
59847.02656292414
 21
12877.329971801
 31
0.0
 11
59841.45541974684
 21
12870.16823766881
 31
0.0
 11
59835.38531671342
 21
12863.39023257831
 31
0.0
 11
59828.84192479343
 21
12857.0394874978
 31
0.0
 11
59821.83632804392
 21
12851.14196207211
 31
0.0
 11
59814.38767757613
 21
12845.72535778309
 31
0.0
 11
59806.55529162704
 21
12840.8378494135
 31
0.0
 11
59798.37300555104
 21
12836.50366380319
 31
0.0
 11
59789.79270718154
 21
12832.7131344912
 31
0.0
 11
59780.89378039843
 21
12829.52854643039
 31
0.0
 11
59772.02154357063
 21
12827.0493444424
 31
0.0
 11
59763.45276177994
 21
12825.26646384089
 31
0.0
 11
59755.29375524564
 21
12824.10051961049
 31
0.0
 11
59747.62083180452
 21
12823.46524422879
 31
0.0
 11
59740.49994030063
 21
12823.27313057189
 31
0.0
  0
CIRCLE
  5
72DB
330
200
100
AcDbEntity
  8
11111外轮廓线
 62
     7
370
     9
100
AcDbCircle
 10
59740.49994030063
 20
13088.1000598312
 30
0.0
 40
34.5
  0
LINE
  5
72DC
330
200
100
AcDbEntity
  8
11111外轮廓线
 62
     7
370
     9
100
AcDbLine
 10
59562.99994213122
 20
14088.95357906986
 30
0.0
 11
59562.99994213122
 21
14129.95357906987
 31
0.0
  0
LINE
  5
72DD
330
200
100
AcDbEntity
  8
11111外轮廓线
 62
     7
370
     9
100
AcDbLine
 10
59623.59711624572
 20
13736.95357906987
 30
0.0
 11
59650.66222557102
 21
13736.95357906987
 31
0.0
  0
LINE
  5
72DE
330
200
100
AcDbEntity
  8
11111外轮廓线
 62
     7
370
     9
100
AcDbLine
 10
59650.66222557102
 20
13736.95357906987
 30
0.0
 11
59740.49994030063
 21
13736.95357906987
 31
0.0
  0
LINE
  5
72DF
330
200
100
AcDbEntity
  8
11111外轮廓线
 62
     7
370
     9
100
AcDbLine
 10
59740.49994030063
 20
14136.95357906987
 30
0.0
 11
59600.80159814323
 21
14136.95357906987
 31
0.0
  0
LINE
  5
72E0
330
200
100
AcDbEntity
  8
11111外轮廓线
 62
     7
370
     9
100
AcDbLine
 10
59600.37015690561
 20
14136.95357906987
 30
0.0
 11
59569.99994213123
 21
14136.95357906987
 31
0.0
  0
ARC
  5
72E1
330
200
100
AcDbEntity
  8
11111外轮廓线
 62
     7
370
     9
100
AcDbCircle
 10
59569.99994213123
 20
14129.95357906987
 30
0.0
 40
7.0
100
AcDbArc
 50
90.0
 51
180.0
  0
ARC
  5
72E2
330
200
100
AcDbEntity
  8
11111外轮廓线
 62
     7
370
     9
100
AcDbCircle
 10
59569.99994213123
 20
14088.95357906986
 30
0.0
 40
7.0
100
AcDbArc
 50
180.0
 51
257.6301472436794
  0
SPLINE
  5
72E3
330
200
100
AcDbEntity
  8
11111外轮廓线
 62
     7
370
     9
100
AcDbSpline
210
0.0
220
0.0
230
1.0
 70
     8
 71
     3
 72
    14
 73
    10
 74
     8
 42
0.0000000001
 43
0.0000000001
 44
0.0000000001
 12
0.2185171736242466
 22
-0.9758331029593488
 32
0.0
 13
1.0
 23
0.0
 33
0.0
 40
0.0
 40
0.0
 40
0.0
 40
0.0
 40
1.350028516752758
 40
2.699114478770561
 40
4.047558872475484
 40
5.395681397507716
 40
6.743889103888011
 40
8.091805598838861
 40
9.438858110709555
 40
9.438858110709555
 40
9.438858110709555
 40
9.438858110709555
 10
59616.76628341532
 20
13742.42395908026
 30
0.0
 10
59616.86461822059
 20
13741.98482490806
 30
0.0
 10
59617.146937958
 20
13741.12358415924
 30
0.0
 10
59617.809554723
 20
13739.93913446107
 30
0.0
 10
59618.68681050377
 20
13738.90376271702
 30
0.0
 10
59619.74597047496
 20
13738.05609555694
 30
0.0
 10
59620.94798061256
 20
13737.42724267135
 30
0.0
 10
59622.24737760131
 20
13737.04055087855
 30
0.0
 10
59623.14809874176
 20
13736.95357906987
 30
0.0
 10
59623.59711624572
 20
13736.95357906987
 30
0.0
 11
59616.76628341532
 21
13742.42395908026
 31
0.0
 11
59617.18695096562
 21
13741.14114350186
 31
0.0
 11
59617.84550766283
 21
13739.96371579306
 31
0.0
 11
59618.71723721662
 21
13738.93493502537
 31
0.0
 11
59619.76977952893
 21
13738.09256395316
 31
0.0
 11
59620.96435889573
 21
13737.46754862856
 31
0.0
 11
59622.25631367482
 21
13737.08318977786
 31
0.0
 11
59623.59711624572
 21
13736.95357906987
 31
0.0
  0
SPLINE
  5
72E4
330
200
100
AcDbEntity
  8
11111外轮廓线
 62
     7
370
     9
100
AcDbSpline
210
0.0
220
0.0
230
1.0
 70
     8
 71
     3
 72
    13
 73
     9
 74
     7
 42
0.0000000001
 43
0.0000000001
 44
0.0000000001
 12
0.9767851301307269
 22
-0.2142214031218613
 32
0.0
 13
0.0399289510824812
 23
-0.999202521446705
 33
0.0
 40
0.0
 40
0.0
 40
0.0
 40
0.0
 40
1.312591770571408
 40
2.625225069969257
 40
3.937902478581541
 40
5.2506266002431
 40
6.563380972449627
 40
7.873994191606373
 40
7.873994191606373
 40
7.873994191606373
 40
7.873994191606373
 10
59568.50039230943
 20
14082.11608315897
 30
0.0
 10
59568.9277656839
 20
14082.02235474203
 30
0.0
 10
59569.76480522214
 20
14081.74000277187
 30
0.0
 10
59570.89600288776
 20
14081.05447275541
 30
0.0
 10
59571.85168430429
 20
14080.13912430935
 30
0.0
 10
59572.58529335013
 20
14079.03770979783
 30
0.0
 10
59573.06160939951
 20
14077.80438475117
 30
0.0
 10
59573.19283704043
 20
14076.9314678988
 30
0.0
 10
59573.21028084413
 20
14076.49494522106
 30
0.0
 11
59568.50039230943
 21
14082.11608315897
 31
0.0
 11
59569.74406259053
 21
14081.69634349197
 31
0.0
 11
59570.86673266641
 21
14081.01618315836
 31
0.0
 11
59571.81465783031
 21
14080.10813037205
 31
0.0
 11
59572.54244749553
 21
14079.01562553326
 31
0.0
 11
59573.01523435864
 21
14077.79096369266
 31
0.0
 11
59573.21028084413
 21
14076.49494522106
 31
0.0
  0
SPLINE
  5
72E5
330
200
100
AcDbEntity
  8
11111外轮廓线
 62
     7
370
     9
100
AcDbSpline
210
0.0
220
0.0
230
1.0
 70
     8
 71
     3
 72
     8
 73
     4
 74
     2
 42
0.0000000001
 43
0.0000000001
 44
0.0000000001
 12
0.0399289510779288
 22
-0.9992025214468867
 32
0.0
 13
0.2185171736246858
 23
-0.9758331029592504
 33
0.0
 40
0.0
 40
0.0
 40
0.0
 40
0.0
 40
336.8984250895228
 40
336.8984250895228
 40
336.8984250895228
 40
336.8984250895228
 10
59573.21028076442
 20
14076.49494521786
 30
0.0
 10
59577.69428100896
 20
13964.28502661088
 30
0.0
 10
59592.22692462008
 20
13852.00950539872
 30
0.0
 10
59616.76628850313
 20
13742.42396021966
 30
0.0
 11
59573.21028076442
 21
14076.49494521786
 31
0.0
 11
59616.76628850313
 21
13742.42396021966
 31
0.0
  0
LINE
  5
72E6
330
200
100
AcDbEntity
  8
11111外轮廓线
 62
     7
370
     9
100
AcDbLine
 10
59562.99994213122
 20
14088.95357906986
 30
0.0
 11
59917.99993847003
 21
14088.95357906986
 31
0.0
  0
LINE
  5
72E7
330
200
100
AcDbEntity
  8
11111外轮廓线
 62
     7
370
     9
100
AcDbLine
 10
59912.49948829183
 20
14082.11608315897
 30
0.0
 11
59568.50039230939
 21
14082.11608315895
 31
0.0
  0
LINE
  5
72E8
330
200
100
AcDbEntity
  8
11111外轮廓线
 62
     7
370
     9
100
AcDbLine
 10
59562.99994213122
 20
14129.95357906987
 30
0.0
 11
59917.99993847003
 21
14129.95357906987
 31
0.0
  0
LINE
  5
72E9
330
200
100
AcDbEntity
  8
11111外轮廓线
 62
     7
370
     9
100
AcDbLine
 10
59907.78959983684
 20
14076.49494521786
 30
0.0
 11
59573.21028076442
 21
14076.49494521786
 31
0.0
  0
ENDSEC
  0
SECTION
  2
OBJECTS
  0
DICTIONARY
  5
C
330
0
100
AcDbDictionary
281
     1
  3
ACAD_COLOR
350
31C
  3
ACAD_DETAILVIEWSTYLE
350
3E0
  3
ACAD_GROUP
350
D
  3
ACAD_LAYOUT
350
1A
  3
ACAD_MATERIAL
350
2F2
  3
ACAD_MLEADERSTYLE
350
341
  3
ACAD_MLINESTYLE
350
17
  3
ACAD_PLOTSETTINGS
350
19
  3
ACAD_PLOTSTYLENAME
350
E
  3
ACAD_SCALELIST
350
31F
  3
ACAD_SECTIONVIEWSTYLE
350
3E1
  3
ACAD_TABLESTYLE
350
31D
  3
ACAD_VISUALSTYLE
350
30B
  3
ACDB_RECOMPOSE_DATA
350
3DE
  3
ACDBHEADERROUNDTRIPXREC
350
7312
  3
AcDbVariableDictionary
350
347
  0
DICTIONARY
  5
38E
330
2
100
AcDbDictionary
280
     1
281
     1
  3
ACAD_LAYERSTATES
360
38F
  0
DICTIONARY
  5
467B
330
200
100
AcDbDictionary
280
     1
281
     1
  3
ACAD_SORTENTS
360
467C
  0
DICTIONARY
  5
31C
102
{ACAD_REACTORS
330
C
102
}
330
C
100
AcDbDictionary
281
     1
  0
DICTIONARY
  5
3E0
102
{ACAD_REACTORS
330
C
102
}
330
C
100
AcDbDictionary
281
     1
  0
DICTIONARY
  5
D
102
{ACAD_REACTORS
330
C
102
}
330
C
100
AcDbDictionary
281
     1
  0
DICTIONARY
  5
1A
102
{ACAD_REACTORS
330
C
102
}
330
C
100
AcDbDictionary
281
     1
  3
Layout1
350
2EF
  3
Model
350
2EE
  0
DICTIONARY
  5
2F2
102
{ACAD_REACTORS
330
C
102
}
330
C
100
AcDbDictionary
281
     1
  3
ByBlock
350
2FB
  3
ByLayer
350
2F3
  3
Global
350
303
  0
DICTIONARY
  5
341
102
{ACAD_REACTORS
330
C
102
}
330
C
100
AcDbDictionary
281
     1
  3
Standard
350
342
  0
DICTIONARY
  5
17
102
{ACAD_REACTORS
330
C
102
}
330
C
100
AcDbDictionary
281
     1
  3
Standard
350
18
  0
DICTIONARY
  5
19
102
{ACAD_REACTORS
330
C
102
}
330
C
100
AcDbDictionary
281
     1
  0
ACDBDICTIONARYWDFLT
  5
E
102
{ACAD_REACTORS
330
C
102
}
330
C
100
AcDbDictionary
281
     1
  3
Normal
350
F
100
AcDbDictionaryWithDefault
340
F
  0
DICTIONARY
  5
31F
102
{ACAD_REACTORS
330
C
102
}
330
C
100
AcDbDictionary
281
     1
  3
A0
350
320
  3
A1
350
321
  3
A2
350
322
  3
A3
350
323
  3
A4
350
324
  3
A5
350
325
  3
A6
350
326
  3
A7
350
327
  3
A8
350
328
  3
A9
350
329
  3
B0
350
32A
  3
B1
350
32B
  3
B2
350
32C
  3
B3
350
32D
  3
B4
350
32E
  3
B5
350
32F
  3
B6
350
330
  3
B7
350
331
  3
B8
350
332
  3
B9
350
333
  3
C0
350
334
  3
C1
350
335
  3
C2
350
336
  3
C3
350
337
  3
C4
350
338
  3
C5
350
339
  3
C6
350
33A
  3
C7
350
33B
  3
C8
350
33C
  3
C9
350
33D
  3
D0
350
33E
  3
D1
350
33F
  3
D2
350
340
  0
DICTIONARY
  5
3E1
102
{ACAD_REACTORS
330
C
102
}
330
C
100
AcDbDictionary
281
     1
  0
DICTIONARY
  5
31D
102
{ACAD_REACTORS
330
C
102
}
330
C
100
AcDbDictionary
281
     1
  3
Standard
350
31E
  0
DICTIONARY
  5
30B
102
{ACAD_REACTORS
330
C
102
}
330
C
100
AcDbDictionary
281
     1
  3
2dWireframe
350
311
  3
3D Hidden
350
313
  3
3dWireframe
350
312
  3
Basic
350
310
  3
Brighten
350
317
  3
ColorChange
350
31B
  3
Conceptual
350
314
  3
Dim
350
316
  3
EdgeColorOff
350
39F
  3
Facepattern
350
31A
  3
Flat
350
30C
  3
FlatWithEdges
350
30D
  3
Gouraud
350
30E
  3
GouraudWithEdges
350
30F
  3
Hidden
350
39C
  3
JitterOff
350
39D
  3
Linepattern
350
319
  3
OverhangOff
350
39E
  3
Realistic
350
315
  3
Shaded
350
3A4
  3
Shaded with edges
350
3A3
  3
Shades of Gray
350
3A0
  3
Sketchy
350
3A1
  3
Thicken
350
318
  3
Wireframe
350
39B
  3
X-Ray
350
3A2
  0
XRECORD
  5
3DE
102
{ACAD_REACTORS
330
C
102
}
330
C
100
AcDbXrecord
280
     1
 90
        1
330
31E
  0
DICTIONARY
  5
7312
102
{ACAD_REACTORS
330
C
102
}
330
C
100
AcDbDictionary
281
     1
  0
DICTIONARY
  5
347
102
{ACAD_REACTORS
330
C
102
}
330
C
100
AcDbDictionary
281
     1
  3
CANNOSCALE
350
34A
  3
CMLEADERSTYLE
350
349
  3
CTABLESTYLE
350
348
  3
XCLIPFRAME
350
3DF
  0
DICTIONARY
  5
38F
102
{ACAD_REACTORS
330
38E
102
}
330
38E
100
AcDbDictionary
281
     1
  0
SORTENTSTABLE
  5
467C
102
{ACAD_REACTORS
330
467B
102
}
330
467B
100
AcDbSortentsTable
330
200
331
399
  5
399
  0
LAYOUT
  5
2EF
102
{ACAD_REACTORS
330
1A
102
}
330
1A
100
AcDbPlotSettings
  1

  2
none_device
  4
ISO_A4_(297.00_x_210.00_MM)
  6

 40
0.0
 41
0.0
 42
0.0
 43
0.0
 44
297.0
 45
210.0
 46
0.0
 47
0.0
 48
0.0
 49
0.0
140
0.0
141
0.0
142
1.0
143
1.0
 70
     0
 72
     1
 73
     0
 74
     0
  7

 75
     0
147
1.0
 76
     0
 77
     2
 78
   300
148
0.0
149
0.0
100
AcDbLayout
  1
Layout1
 70
     1
 71
     1
 10
0.0
 20
0.0
 11
12.0
 21
9.0
 12
0.0
 22
0.0
 32
0.0
 14
1.000000000000000E+20
 24
1.000000000000000E+20
 34
1.000000000000000E+20
 15
-1.000000000000000E+20
 25
-1.000000000000000E+20
 35
-1.000000000000000E+20
146
0.0
 13
0.0
 23
0.0
 33
0.0
 16
1.0
 26
0.0
 36
0.0
 17
0.0
 27
1.0
 37
0.0
 76
     0
330
201
  0
LAYOUT
  5
2EE
102
{ACAD_REACTORS
330
1A
102
}
330
1A
100
AcDbPlotSettings
  1

  2
none_device
  4
ISO_A4_(297.00_x_210.00_MM)
  6

 40
0.0
 41
0.0
 42
0.0
 43
0.0
 44
297.0
 45
210.0
 46
0.0
 47
0.0
 48
0.0
 49
0.0
140
0.0
141
0.0
142
1.0
143
1.0
 70
  1024
 72
     1
 73
     0
 74
     0
  7

 75
     0
147
1.0
 76
     0
 77
     2
 78
   300
148
0.0
149
0.0
100
AcDbLayout
  1
Model
 70
     0
 71
     0
 10
0.0
 20
0.0
 11
297.0
 21
210.0
 12
0.0
 22
0.0
 32
0.0
 14
0.0
 24
0.0
 34
0.0
 15
0.0
 25
0.0
 35
0.0
146
0.0
 13
0.0
 23
0.0
 33
0.0
 16
1.0
 26
0.0
 36
0.0
 17
0.0
 27
1.0
 37
0.0
 76
     0
330
200
  0
MATERIAL
  5
2FB
102
{ACAD_REACTORS
330
2F2
102
}
330
2F2
100
AcDbMaterial
  1
ByBlock
  2

 72
     0
 73
     2
 43
0.0008202099737533
 43
0.0
 43
0.0
 43
0.0
 43
0.0
 43
0.0008202099737533
 43
0.0
 43
0.0
 43
0.0
 43
0.0
 43
1.0
 43
0.0
 43
0.0
 43
0.0
 43
0.0
 43
1.0
 77
     0
 78
     2
 47
0.0008202099737533
 47
0.0
 47
0.0
 47
0.0
 47
0.0
 47
0.0008202099737533
 47
0.0
 47
0.0
 47
0.0
 47
0.0
 47
1.0
 47
0.0
 47
0.0
 47
0.0
 47
0.0
 47
1.0
171
     0
172
     2
 49
0.0008202099737533
 49
0.0
 49
0.0
 49
0.0
 49
0.0
 49
0.0008202099737533
 49
0.0
 49
0.0
 49
0.0
 49
0.0
 49
1.0
 49
0.0
 49
0.0
 49
0.0
 49
0.0
 49
1.0
175
     0
176
     2
142
0.0008202099737533
142
0.0
142
0.0
142
0.0
142
0.0
142
0.0008202099737533
142
0.0
142
0.0
142
0.0
142
0.0
142
1.0
142
0.0
142
0.0
142
0.0
142
0.0
142
1.0
179
     0
270
     2
144
0.0008202099737533
144
0.0
144
0.0
144
0.0
144
0.0
144
0.0008202099737533
144
0.0
144
0.0
144
0.0
144
0.0
144
1.0
144
0.0
144
0.0
144
0.0
144
0.0
144
1.0
274
     2
147
0.0008202099737533
147
0.0
147
0.0
147
0.0
147
0.0
147
0.0008202099737533
147
0.0
147
0.0
147
0.0
147
0.0
147
1.0
147
0.0
147
0.0
147
0.0
147
0.0
147
1.0
  0
MATERIAL
  5
2F3
102
{ACAD_REACTORS
330
2F2
102
}
330
2F2
100
AcDbMaterial
  1
ByLayer
  2

 72
     0
 73
     2
 43
0.0008202099737533
 43
0.0
 43
0.0
 43
0.0
 43
0.0
 43
0.0008202099737533
 43
0.0
 43
0.0
 43
0.0
 43
0.0
 43
1.0
 43
0.0
 43
0.0
 43
0.0
 43
0.0
 43
1.0
 77
     0
 78
     2
 47
0.0008202099737533
 47
0.0
 47
0.0
 47
0.0
 47
0.0
 47
0.0008202099737533
 47
0.0
 47
0.0
 47
0.0
 47
0.0
 47
1.0
 47
0.0
 47
0.0
 47
0.0
 47
0.0
 47
1.0
171
     0
172
     2
 49
0.0008202099737533
 49
0.0
 49
0.0
 49
0.0
 49
0.0
 49
0.0008202099737533
 49
0.0
 49
0.0
 49
0.0
 49
0.0
 49
1.0
 49
0.0
 49
0.0
 49
0.0
 49
0.0
 49
1.0
175
     0
176
     2
142
0.0008202099737533
142
0.0
142
0.0
142
0.0
142
0.0
142
0.0008202099737533
142
0.0
142
0.0
142
0.0
142
0.0
142
1.0
142
0.0
142
0.0
142
0.0
142
0.0
142
1.0
179
     0
270
     2
144
0.0008202099737533
144
0.0
144
0.0
144
0.0
144
0.0
144
0.0008202099737533
144
0.0
144
0.0
144
0.0
144
0.0
144
1.0
144
0.0
144
0.0
144
0.0
144
0.0
144
1.0
274
     2
147
0.0008202099737533
147
0.0
147
0.0
147
0.0
147
0.0
147
0.0008202099737533
147
0.0
147
0.0
147
0.0
147
0.0
147
1.0
147
0.0
147
0.0
147
0.0
147
0.0
147
1.0
  0
MATERIAL
  5
303
102
{ACAD_REACTORS
330
2F2
102
}
330
2F2
100
AcDbMaterial
  1
Global
  2

 72
     0
 73
     2
 43
0.0008202099737533
 43
0.0
 43
0.0
 43
0.0
 43
0.0
 43
0.0008202099737533
 43
0.0
 43
0.0
 43
0.0
 43
0.0
 43
1.0
 43
0.0
 43
0.0
 43
0.0
 43
0.0
 43
1.0
 77
     0
 78
     2
 47
0.0008202099737533
 47
0.0
 47
0.0
 47
0.0
 47
0.0
 47
0.0008202099737533
 47
0.0
 47
0.0
 47
0.0
 47
0.0
 47
1.0
 47
0.0
 47
0.0
 47
0.0
 47
0.0
 47
1.0
171
     0
172
     2
 49
0.0008202099737533
 49
0.0
 49
0.0
 49
0.0
 49
0.0
 49
0.0008202099737533
 49
0.0
 49
0.0
 49
0.0
 49
0.0
 49
1.0
 49
0.0
 49
0.0
 49
0.0
 49
0.0
 49
1.0
175
     0
176
     2
142
0.0008202099737533
142
0.0
142
0.0
142
0.0
142
0.0
142
0.0008202099737533
142
0.0
142
0.0
142
0.0
142
0.0
142
1.0
142
0.0
142
0.0
142
0.0
142
0.0
142
1.0
179
     0
270
     2
144
0.0008202099737533
144
0.0
144
0.0
144
0.0
144
0.0
144
0.0008202099737533
144
0.0
144
0.0
144
0.0
144
0.0
144
1.0
144
0.0
144
0.0
144
0.0
144
0.0
144
1.0
274
     2
147
0.0008202099737533
147
0.0
147
0.0
147
0.0
147
0.0
147
0.0008202099737533
147
0.0
147
0.0
147
0.0
147
0.0
147
1.0
147
0.0
147
0.0
147
0.0
147
0.0
147
1.0
  0
MLEADERSTYLE
  5
342
102
{ACAD_REACTORS
330
341
102
}
330
341
100
AcDbMLeaderStyle
170
     2
171
     1
172
     0
 90
        2
 40
0.0
 41
0.0
173
     1
 91
-1056964608
340
14
 92
       -2
290
     1
 42
2.0
291
     1
 43
0.36
  3
Standard
341
0
 44
4.0
300

342
11
174
     1
178
     6
175
     1
176
     0
 93
-1056964608
 45
4.0
292
     0
297
     0
 46
4.0
343
0
 94
-1056964608
 47
1.0
 49
1.0
140
1.0
293
     1
141
0.0
294
     1
177
     0
142
1.0
295
     0
296
     0
143
0.125
1001
ACAD_MLEADERVER
1070
     2
  0
MLINESTYLE
  5
18
102
{ACAD_REACTORS
330
17
102
}
330
17
100
AcDbMlineStyle
  2
STANDARD
 70
     0
  3

 62
   256
 51
90.0
 52
90.0
 71
     2
 49
0.5
 62
   256
  6
BYLAYER
 49
-0.5
 62
   256
  6
BYLAYER
  0
ACDBPLACEHOLDER
  5
F
102
{ACAD_REACTORS
330
E
102
}
330
E
  0
SCALE
  5
320
102
{ACAD_REACTORS
330
31F
102
}
330
31F
100
AcDbScale
 70
     0
300
1:1
140
1.0
141
1.0
290
     1
  0
SCALE
  5
321
102
{ACAD_REACTORS
330
31F
102
}
330
31F
100
AcDbScale
 70
     0
300
1:2
140
1.0
141
2.0
290
     0
  0
SCALE
  5
322
102
{ACAD_REACTORS
330
31F
102
}
330
31F
100
AcDbScale
 70
     0
300
1:4
140
1.0
141
4.0
290
     0
  0
SCALE
  5
323
102
{ACAD_REACTORS
330
31F
102
}
330
31F
100
AcDbScale
 70
     0
300
1:5
140
1.0
141
5.0
290
     0
  0
SCALE
  5
324
102
{ACAD_REACTORS
330
31F
102
}
330
31F
100
AcDbScale
 70
     0
300
1:8
140
1.0
141
8.0
290
     0
  0
SCALE
  5
325
102
{ACAD_REACTORS
330
31F
102
}
330
31F
100
AcDbScale
 70
     0
300
1:10
140
1.0
141
10.0
290
     0
  0
SCALE
  5
326
102
{ACAD_REACTORS
330
31F
102
}
330
31F
100
AcDbScale
 70
     0
300
1:16
140
1.0
141
16.0
290
     0
  0
SCALE
  5
327
102
{ACAD_REACTORS
330
31F
102
}
330
31F
100
AcDbScale
 70
     0
300
1:20
140
1.0
141
20.0
290
     0
  0
SCALE
  5
328
102
{ACAD_REACTORS
330
31F
102
}
330
31F
100
AcDbScale
 70
     0
300
1:30
140
1.0
141
30.0
290
     0
  0
SCALE
  5
329
102
{ACAD_REACTORS
330
31F
102
}
330
31F
100
AcDbScale
 70
     0
300
1:40
140
1.0
141
40.0
290
     0
  0
SCALE
  5
32A
102
{ACAD_REACTORS
330
31F
102
}
330
31F
100
AcDbScale
 70
     0
300
1:50
140
1.0
141
50.0
290
     0
  0
SCALE
  5
32B
102
{ACAD_REACTORS
330
31F
102
}
330
31F
100
AcDbScale
 70
     0
300
1:100
140
1.0
141
100.0
290
     0
  0
SCALE
  5
32C
102
{ACAD_REACTORS
330
31F
102
}
330
31F
100
AcDbScale
 70
     0
300
2:1
140
2.0
141
1.0
290
     0
  0
SCALE
  5
32D
102
{ACAD_REACTORS
330
31F
102
}
330
31F
100
AcDbScale
 70
     0
300
4:1
140
4.0
141
1.0
290
     0
  0
SCALE
  5
32E
102
{ACAD_REACTORS
330
31F
102
}
330
31F
100
AcDbScale
 70
     0
300
8:1
140
8.0
141
1.0
290
     0
  0
SCALE
  5
32F
102
{ACAD_REACTORS
330
31F
102
}
330
31F
100
AcDbScale
 70
     0
300
10:1
140
10.0
141
1.0
290
     0
  0
SCALE
  5
330
102
{ACAD_REACTORS
330
31F
102
}
330
31F
100
AcDbScale
 70
     0
300
100:1
140
100.0
141
1.0
290
     0
  0
SCALE
  5
331
102
{ACAD_REACTORS
330
31F
102
}
330
31F
100
AcDbScale
 70
     0
300
1/128" = 1'-0"
140
0.0078125
141
12.0
290
     0
  0
SCALE
  5
332
102
{ACAD_REACTORS
330
31F
102
}
330
31F
100
AcDbScale
 70
     0
300
1/64" = 1'-0"
140
0.015625
141
12.0
290
     0
  0
SCALE
  5
333
102
{ACAD_REACTORS
330
31F
102
}
330
31F
100
AcDbScale
 70
     0
300
1/32" = 1'-0"
140
0.03125
141
12.0
290
     0
  0
SCALE
  5
334
102
{ACAD_REACTORS
330
31F
102
}
330
31F
100
AcDbScale
 70
     0
300
1/16" = 1'-0"
140
0.0625
141
12.0
290
     0
  0
SCALE
  5
335
102
{ACAD_REACTORS
330
31F
102
}
330
31F
100
AcDbScale
 70
     0
300
3/32" = 1'-0"
140
0.09375
141
12.0
290
     0
  0
SCALE
  5
336
102
{ACAD_REACTORS
330
31F
102
}
330
31F
100
AcDbScale
 70
     0
300
1/8" = 1'-0"
140
0.125
141
12.0
290
     0
  0
SCALE
  5
337
102
{ACAD_REACTORS
330
31F
102
}
330
31F
100
AcDbScale
 70
     0
300
3/16" = 1'-0"
140
0.1875
141
12.0
290
     0
  0
SCALE
  5
338
102
{ACAD_REACTORS
330
31F
102
}
330
31F
100
AcDbScale
 70
     0
300
1/4" = 1'-0"
140
0.25
141
12.0
290
     0
  0
SCALE
  5
339
102
{ACAD_REACTORS
330
31F
102
}
330
31F
100
AcDbScale
 70
     0
300
3/8" = 1'-0"
140
0.375
141
12.0
290
     0
  0
SCALE
  5
33A
102
{ACAD_REACTORS
330
31F
102
}
330
31F
100
AcDbScale
 70
     0
300
1/2" = 1'-0"
140
0.5
141
12.0
290
     0
  0
SCALE
  5
33B
102
{ACAD_REACTORS
330
31F
102
}
330
31F
100
AcDbScale
 70
     0
300
3/4" = 1'-0"
140
0.75
141
12.0
290
     0
  0
SCALE
  5
33C
102
{ACAD_REACTORS
330
31F
102
}
330
31F
100
AcDbScale
 70
     0
300
1" = 1'-0"
140
1.0
141
12.0
290
     0
  0
SCALE
  5
33D
102
{ACAD_REACTORS
330
31F
102
}
330
31F
100
AcDbScale
 70
     0
300
1-1/2" = 1'-0"
140
1.5
141
12.0
290
     0
  0
SCALE
  5
33E
102
{ACAD_REACTORS
330
31F
102
}
330
31F
100
AcDbScale
 70
     0
300
3" = 1'-0"
140
3.0
141
12.0
290
     0
  0
SCALE
  5
33F
102
{ACAD_REACTORS
330
31F
102
}
330
31F
100
AcDbScale
 70
     0
300
6" = 1'-0"
140
6.0
141
12.0
290
     0
  0
SCALE
  5
340
102
{ACAD_REACTORS
330
31F
102
}
330
31F
100
AcDbScale
 70
     0
300
1'-0" = 1'-0"
140
12.0
141
12.0
290
     0
  0
TABLESTYLE
  5
31E
102
{ACAD_XDICTIONARY
360
3A8
102
}
102
{ACAD_REACTORS
330
31D
102
}
330
31D
100
AcDbTableStyle
  3
Standard
 70
     0
 71
     0
 40
1.5
 41
1.5
280
     0
281
     0
  7
STANDARD
140
4.5
170
     2
 62
     0
 63
   257
283
     1
274
    -2
284
     1
 64
     0
275
    -2
285
     1
 65
     0
276
    -2
286
     1
 66
     0
277
    -2
287
     1
 67
     0
278
    -2
288
     1
 68
     0
279
    -2
289
     1
 69
     0
  7
STANDARD
140
6.0
170
     5
 62
     0
 63
   257
283
     1
274
    -2
284
     1
 64
     0
275
    -2
285
     1
 65
     0
276
    -2
286
     1
 66
     0
277
    -2
287
     1
 67
     0
278
    -2
288
     1
 68
     0
279
    -2
289
     1
 69
     0
  7
STANDARD
140
4.5
170
     5
 62
     0
 63
   257
283
     1
274
    -2
284
     1
 64
     0
275
    -2
285
     1
 65
     0
276
    -2
286
     1
 66
     0
277
    -2
287
     1
 67
     0
278
    -2
288
     1
 68
     0
279
    -2
289
     1
 69
     0
  0
VISUALSTYLE
  5
311
102
{ACAD_XDICTIONARY
360
731D
102
}
102
{ACAD_REACTORS
330
30B
102
}
330
30B
100
AcDbVisualStyle
  2
2dWireframe
 70
     4
 71
     0
 72
     2
 73
     0
 90
        0
 40
-0.6
 41
-30.0
 62
     5
 63
     7
421
 16777215
 74
     1
 91
        4
 64
     7
 65
   257
 75
     1
175
     1
 42
1.0
 92
        0
 66
   257
 43
1.0
 76
     1
 77
     6
 78
     2
 67
     7
 79
     5
170
     0
171
     0
290
     0
174
     0
 93
        1
 44
0.0
173
     0
291
     0
 45
0.0
1001
ACAD
1000
AcDbSavedByObjectVersion
1070
     0
  0
VISUALSTYLE
  5
313
102
{ACAD_XDICTIONARY
360
7321
102
}
102
{ACAD_REACTORS
330
30B
102
}
330
30B
100
AcDbVisualStyle
  2
3D Hidden
 70
     6
 71
     1
 72
     2
 73
     2
 90
        0
 40
-0.6
 41
-30.0
 62
     5
 63
     7
421
 16777215
 74
     2
 91
        2
 64
     7
 65
   257
 75
     2
175
     1
 42
40.0
 92
        0
 66
   257
 43
1.0
 76
     1
 77
     6
 78
     2
 67
     7
 79
     3
170
     0
171
     0
290
     0
174
     0
 93
        1
 44
0.0
173
     0
291
     0
 45
0.0
1001
ACAD
1000
AcDbSavedByObjectVersion
1070
     0
  0
VISUALSTYLE
  5
312
102
{ACAD_XDICTIONARY
360
731F
102
}
102
{ACAD_REACTORS
330
30B
102
}
330
30B
100
AcDbVisualStyle
  2
3dWireframe
 70
     5
 71
     0
 72
     2
 73
     0
 90
        0
 40
-0.6
 41
-30.0
 62
     5
 63
     7
421
 16777215
 74
     1
 91
        4
 64
     7
 65
   257
 75
     1
175
     1
 42
1.0
 92
        0
 66
   257
 43
1.0
 76
     1
 77
     6
 78
     2
 67
     7
 79
     5
170
     0
171
     0
290
     0
174
     0
 93
        1
 44
0.0
173
     0
291
     0
 45
0.0
1001
ACAD
1000
AcDbSavedByObjectVersion
1070
     0
  0
VISUALSTYLE
  5
310
102
{ACAD_XDICTIONARY
360
731B
102
}
102
{ACAD_REACTORS
330
30B
102
}
330
30B
100
AcDbVisualStyle
  2
Basic
 70
     7
 71
     1
 72
     0
 73
     1
 90
        0
 40
-0.6
 41
-30.0
 62
     5
 63
     7
421
 16777215
 74
     0
 91
        4
 64
     7
 65
   257
 75
     1
175
     1
 42
1.0
 92
        8
 66
     7
 43
1.0
 76
     1
 77
     6
 78
     2
 67
     7
 79
     5
170
     0
171
     0
290
     0
174
     0
 93
        1
 44
0.0
173
     0
291
     1
 45
0.0
1001
ACAD
1000
AcDbSavedByObjectVersion
1070
     0
  0
VISUALSTYLE
  5
317
102
{ACAD_XDICTIONARY
360
7329
102
}
102
{ACAD_REACTORS
330
30B
102
}
330
30B
100
AcDbVisualStyle
  2
Brighten
 70
    12
 71
     2
 72
     2
 73
     0
 90
        0
 40
-0.6
 41
-30.0
 62
     5
 63
     7
421
 16777215
 74
     1
 91
        4
 64
     7
 65
   257
 75
     1
175
     1
 42
1.0
 92
        8
 66
     7
 43
1.0
 76
     1
 77
     6
 78
     2
 67
     7
 79
     5
170
     0
171
     0
290
     0
174
     0
 93
        1
 44
50.0
173
     0
291
     1
 45
0.0
1001
ACAD
1000
AcDbSavedByObjectVersion
1070
     0
  0
VISUALSTYLE
  5
31B
102
{ACAD_XDICTIONARY
360
7331
102
}
102
{ACAD_REACTORS
330
30B
102
}
330
30B
100
AcDbVisualStyle
  2
ColorChange
 70
    16
 71
     2
 72
     2
 73
     3
 90
        0
 40
-0.6
 41
-30.0
 62
     5
 63
     8
421
  8421504
 74
     1
 91
        4
 64
     7
 65
   257
 75
     1
175
     1
 42
1.0
 92
        8
 66
     8
424
  8421504
 43
1.0
 76
     1
 77
     6
 78
     2
 67
     7
 79
     5
170
     0
171
     0
290
     0
174
     0
 93
        1
 44
0.0
173
     0
291
     1
 45
0.0
1001
ACAD
1000
AcDbSavedByObjectVersion
1070
     0
  0
VISUALSTYLE
  5
314
102
{ACAD_XDICTIONARY
360
7323
102
}
102
{ACAD_REACTORS
330
30B
102
}
330
30B
100
AcDbVisualStyle
  2
Conceptual
 70
     9
 71
     3
 72
     2
 73
     0
 90
        0
 40
-0.6
 41
-30.0
 62
     5
 63
     7
421
 16777215
 74
     2
 91
        2
 64
     7
 65
   257
 75
     1
175
     1
 42
40.0
 92
        8
 66
     7
 43
1.0
 76
     1
 77
     6
 78
     2
 67
     7
 79
     3
170
     0
171
     0
290
     0
174
     0
 93
        1
 44
0.0
173
     0
291
     0
 45
0.0
1001
ACAD
1000
AcDbSavedByObjectVersion
1070
     0
  0
VISUALSTYLE
  5
316
102
{ACAD_XDICTIONARY
360
7327
102
}
102
{ACAD_REACTORS
330
30B
102
}
330
30B
100
AcDbVisualStyle
  2
Dim
 70
    11
 71
     2
 72
     2
 73
     0
 90
        0
 40
-0.6
 41
-30.0
 62
     5
 63
     7
421
 16777215
 74
     1
 91
        4
 64
     7
 65
   257
 75
     1
175
     1
 42
1.0
 92
        8
 66
     7
 43
1.0
 76
     1
 77
     6
 78
     2
 67
     7
 79
     5
170
     0
171
     0
290
     0
174
     0
 93
        1
 44
-50.0
173
     0
291
     1
 45
0.0
1001
ACAD
1000
AcDbSavedByObjectVersion
1070
     0
  0
VISUALSTYLE
  5
39F
102
{ACAD_XDICTIONARY
360
733D
102
}
102
{ACAD_REACTORS
330
30B
102
}
330
30B
100
AcDbVisualStyle
  2
EdgeColorOff
 70
    22
 71
     2
 72
     2
 73
     0
 90
        0
 40
-0.6
 41
-30.0
 62
     5
 63
     7
421
 16777215
 74
     1
 91
        4
 64
     7
 65
   257
 75
     1
175
     1
 42
1.0
 92
        8
 66
     7
 43
1.0
 76
     1
 77
     6
 78
     2
 67
     7
 79
     5
170
     0
171
     0
290
     0
174
     0
 93
        1
 44
0.0
173
     0
291
     1
 45
0.0
1001
ACAD
1000
AcDbSavedByObjectVersion
1070
     0
  0
VISUALSTYLE
  5
31A
102
{ACAD_XDICTIONARY
360
732F
102
}
102
{ACAD_REACTORS
330
30B
102
}
330
30B
100
AcDbVisualStyle
  2
Facepattern
 70
    15
 71
     2
 72
     2
 73
     0
 90
        0
 40
-0.6
 41
-30.0
 62
     5
 63
     7
421
 16777215
 74
     1
 91
        4
 64
     7
 65
   257
 75
     1
175
     1
 42
1.0
 92
        8
 66
     7
 43
1.0
 76
     1
 77
     6
 78
     2
 67
     7
 79
     5
170
     0
171
     0
290
     0
174
     0
 93
        1
 44
0.0
173
     0
291
     1
 45
0.0
1001
ACAD
1000
AcDbSavedByObjectVersion
1070
     0
  0
VISUALSTYLE
  5
30C
102
{ACAD_XDICTIONARY
360
7313
102
}
102
{ACAD_REACTORS
330
30B
102
}
330
30B
100
AcDbVisualStyle
  2
Flat
 70
     0
 71
     2
 72
     1
 73
     1
 90
        2
 40
-0.6
 41
30.0
 62
     5
 63
     7
421
 16777215
 74
     0
 91
        4
 64
     7
 65
   257
 75
     1
175
     1
 42
1.0
 92
        8
 66
     7
 43
1.0
 76
     1
 77
     6
 78
     2
 67
     7
 79
     5
170
     0
171
     0
290
     0
174
     0
 93
       13
 44
0.0
173
     0
291
     1
 45
0.0
1001
ACAD
1000
AcDbSavedByObjectVersion
1070
     0
  0
VISUALSTYLE
  5
30D
102
{ACAD_XDICTIONARY
360
7315
102
}
102
{ACAD_REACTORS
330
30B
102
}
330
30B
100
AcDbVisualStyle
  2
FlatWithEdges
 70
     1
 71
     2
 72
     1
 73
     1
 90
        2
 40
-0.6
 41
30.0
 62
     5
 63
     7
421
 16777215
 74
     1
 91
        4
 64
     7
 65
   257
 75
     1
175
     1
 42
1.0
 92
        0
 66
   257
 43
1.0
 76
     1
 77
     6
 78
     2
 67
     7
 79
     5
170
     0
171
     0
290
     0
174
     0
 93
       13
 44
0.0
173
     0
291
     1
 45
0.0
1001
ACAD
1000
AcDbSavedByObjectVersion
1070
     0
  0
VISUALSTYLE
  5
30E
102
{ACAD_XDICTIONARY
360
7317
102
}
102
{ACAD_REACTORS
330
30B
102
}
330
30B
100
AcDbVisualStyle
  2
Gouraud
 70
     2
 71
     2
 72
     2
 73
     1
 90
        2
 40
-0.6
 41
30.0
 62
     5
 63
     7
421
 16777215
 74
     0
 91
        4
 64
     7
 65
   257
 75
     1
175
     1
 42
1.0
 92
        0
 66
     7
 43
1.0
 76
     1
 77
     6
 78
     2
 67
     7
 79
     5
170
     0
171
     0
290
     0
174
     0
 93
       13
 44
0.0
173
     0
291
     1
 45
0.0
1001
ACAD
1000
AcDbSavedByObjectVersion
1070
     0
  0
VISUALSTYLE
  5
30F
102
{ACAD_XDICTIONARY
360
7319
102
}
102
{ACAD_REACTORS
330
30B
102
}
330
30B
100
AcDbVisualStyle
  2
GouraudWithEdges
 70
     3
 71
     2
 72
     2
 73
     1
 90
        2
 40
-0.6
 41
30.0
 62
     5
 63
     7
421
 16777215
 74
     1
 91
        4
 64
     7
 65
   257
 75
     1
175
     1
 42
1.0
 92
        0
 66
   257
 43
1.0
 76
     1
 77
     6
 78
     2
 67
     7
 79
     5
170
     0
171
     0
290
     0
174
     0
 93
       13
 44
0.0
173
     0
291
     1
 45
0.0
1001
ACAD
1000
AcDbSavedByObjectVersion
1070
     0
  0
VISUALSTYLE
  5
39C
102
{ACAD_XDICTIONARY
360
7337
102
}
102
{ACAD_REACTORS
330
30B
102
}
330
30B
100
AcDbVisualStyle
  2
Hidden
 70
     6
 71
     1
 72
     2
 73
     2
 90
        0
 40
-0.6
 41
-30.0
 62
     5
 63
     7
421
 16777215
 74
     2
 91
        2
 64
     7
 65
   257
 75
     2
175
     1
 42
40.0
 92
        0
 66
   257
 43
1.0
 76
     1
 77
     6
 78
     2
 67
     7
 79
     3
170
     0
171
     0
290
     0
174
     0
 93
        1
 44
0.0
173
     0
291
     0
 45
0.0
1001
ACAD
1000
AcDbSavedByObjectVersion
1070
     0
  0
VISUALSTYLE
  5
39D
102
{ACAD_XDICTIONARY
360
7339
102
}
102
{ACAD_REACTORS
330
30B
102
}
330
30B
100
AcDbVisualStyle
  2
JitterOff
 70
    20
 71
     2
 72
     2
 73
     0
 90
        0
 40
-0.6
 41
-30.0
 62
     5
 63
     7
421
 16777215
 74
     1
 91
        4
 64
     7
 65
   257
 75
     1
175
     1
 42
1.0
 92
       10
 66
     7
 43
1.0
 76
     1
 77
     6
 78
     2
 67
     7
 79
     5
170
     0
171
     0
290
     0
174
     0
 93
        1
 44
0.0
173
     0
291
     1
 45
0.0
1001
ACAD
1000
AcDbSavedByObjectVersion
1070
     0
  0
VISUALSTYLE
  5
319
102
{ACAD_XDICTIONARY
360
732D
102
}
102
{ACAD_REACTORS
330
30B
102
}
330
30B
100
AcDbVisualStyle
  2
Linepattern
 70
    14
 71
     2
 72
     2
 73
     0
 90
        0
 40
-0.6
 41
-30.0
 62
     5
 63
     7
421
 16777215
 74
     1
 91
        4
 64
     7
 65
   257
 75
     7
175
     7
 42
1.0
 92
        8
 66
     7
 43
1.0
 76
     1
 77
     6
 78
     2
 67
     7
 79
     5
170
     0
171
     0
290
     0
174
     0
 93
        1
 44
0.0
173
     0
291
     1
 45
0.0
1001
ACAD
1000
AcDbSavedByObjectVersion
1070
     0
  0
VISUALSTYLE
  5
39E
102
{ACAD_XDICTIONARY
360
733B
102
}
102
{ACAD_REACTORS
330
30B
102
}
330
30B
100
AcDbVisualStyle
  2
OverhangOff
 70
    21
 71
     2
 72
     2
 73
     0
 90
        0
 40
-0.6
 41
-30.0
 62
     5
 63
     7
421
 16777215
 74
     1
 91
        4
 64
     7
 65
   257
 75
     1
175
     1
 42
1.0
 92
        9
 66
     7
 43
1.0
 76
     1
 77
     6
 78
     2
 67
     7
 79
     5
170
     0
171
     0
290
     0
174
     0
 93
        1
 44
0.0
173
     0
291
     1
 45
0.0
1001
ACAD
1000
AcDbSavedByObjectVersion
1070
     0
  0
VISUALSTYLE
  5
315
102
{ACAD_XDICTIONARY
360
7325
102
}
102
{ACAD_REACTORS
330
30B
102
}
330
30B
100
AcDbVisualStyle
  2
Realistic
 70
     8
 71
     2
 72
     2
 73
     0
 90
        0
 40
-0.6
 41
-30.0
 62
     5
 63
     7
421
 16777215
 74
     1
 91
        0
 64
     7
 65
   257
 75
     1
175
     1
 42
1.0
 92
        8
 66
     8
424
  7895160
 43
1.0
 76
     1
 77
     6
 78
     2
 67
     7
 79
     5
170
     0
171
     0
290
     0
174
     0
 93
       13
 44
0.0
173
     0
291
     0
 45
0.0
1001
ACAD
1000
AcDbSavedByObjectVersion
1070
     0
  0
VISUALSTYLE
  5
3A4
102
{ACAD_XDICTIONARY
360
7347
102
}
102
{ACAD_REACTORS
330
30B
102
}
330
30B
100
AcDbVisualStyle
  2
Shaded
 70
    27
 71
     2
 72
     2
 73
     1
 90
        2
 40
-0.6
 41
30.0
 62
     5
 63
     7
421
 16777215
 74
     0
 91
        4
 64
     7
 65
   257
 75
     1
175
     1
 42
1.0
 92
        8
 66
   257
 43
1.0
 76
     1
 77
     6
 78
     2
 67
     8
425
  7895160
 79
     3
170
     0
171
     0
290
     0
174
     0
 93
        5
 44
0.0
173
     0
291
     0
 45
0.0
1001
ACAD
1000
AcDbSavedByObjectVersion
1070
     0
  0
VISUALSTYLE
  5
3A3
102
{ACAD_XDICTIONARY
360
7345
102
}
102
{ACAD_REACTORS
330
30B
102
}
330
30B
100
AcDbVisualStyle
  2
Shaded with edges
 70
    26
 71
     2
 72
     2
 73
     1
 90
        2
 40
-0.6
 41
30.0
 62
     5
 63
     7
421
 16777215
 74
     1
 91
       10
 64
     7
 65
   257
 75
     2
175
     1
 42
1.0
 92
        8
 66
   257
 43
1.0
 76
     1
 77
     6
 78
     2
 67
     7
 79
     3
170
     0
171
     0
290
     0
174
     0
 93
        5
 44
0.0
173
     0
291
     0
 45
0.0
1001
ACAD
1000
AcDbSavedByObjectVersion
1070
     0
  0
VISUALSTYLE
  5
3A0
102
{ACAD_XDICTIONARY
360
733F
102
}
102
{ACAD_REACTORS
330
30B
102
}
330
30B
100
AcDbVisualStyle
  2
Shades of Gray
 70
    23
 71
     2
 72
     2
 73
     3
 90
        0
 40
-0.6
 41
-30.0
 62
     5
 63
     7
421
 16777215
 74
     2
 91
        2
 64
     7
 65
     7
 75
     1
175
     1
 42
40.0
 92
        8
 66
     7
 43
1.0
 76
     1
 77
     6
 78
     2
 67
     7
 79
     3
170
     0
171
     0
290
     0
174
     0
 93
        1
 44
0.0
173
     0
291
     0
 45
0.0
1001
ACAD
1000
AcDbSavedByObjectVersion
1070
     0
  0
VISUALSTYLE
  5
3A1
102
{ACAD_XDICTIONARY
360
7341
102
}
102
{ACAD_REACTORS
330
30B
102
}
330
30B
100
AcDbVisualStyle
  2
Sketchy
 70
    24
 71
     1
 72
     2
 73
     2
 90
        0
 40
-0.6
 41
-30.0
 62
     5
 63
     7
421
 16777215
 74
     2
 91
        2
 64
     7
 65
     7
 75
     1
175
     1
 42
40.0
 92
       11
 66
     7
 43
1.0
 76
     1
 77
     6
 78
     2
 67
     7
 79
     6
170
     0
171
     0
290
     0
174
     0
 93
        1
 44
0.0
173
     0
291
     0
 45
0.0
1001
ACAD
1000
AcDbSavedByObjectVersion
1070
     0
  0
VISUALSTYLE
  5
318
102
{ACAD_XDICTIONARY
360
732B
102
}
102
{ACAD_REACTORS
330
30B
102
}
330
30B
100
AcDbVisualStyle
  2
Thicken
 70
    13
 71
     2
 72
     2
 73
     0
 90
        0
 40
-0.6
 41
-30.0
 62
     5
 63
     7
421
 16777215
 74
     1
 91
        4
 64
     7
 65
   257
 75
     1
175
     1
 42
1.0
 92
       12
 66
     7
 43
1.0
 76
     1
 77
     6
 78
     2
 67
     7
 79
     5
170
     0
171
     0
290
     0
174
     0
 93
        1
 44
0.0
173
     0
291
     1
 45
0.0
1001
ACAD
1000
AcDbSavedByObjectVersion
1070
     0
  0
VISUALSTYLE
  5
39B
102
{ACAD_XDICTIONARY
360
7335
102
}
102
{ACAD_REACTORS
330
30B
102
}
330
30B
100
AcDbVisualStyle
  2
Wireframe
 70
     5
 71
     0
 72
     2
 73
     0
 90
        0
 40
-0.6
 41
-30.0
 62
     5
 63
     7
421
 16777215
 74
     1
 91
        4
 64
     7
 65
   257
 75
     1
175
     1
 42
1.0
 92
        0
 66
   257
 43
1.0
 76
     1
 77
     6
 78
     2
 67
     7
 79
     3
170
     0
171
     0
290
     0
174
     0
 93
        1
 44
0.0
173
     0
291
     0
 45
0.0
1001
ACAD
1000
AcDbSavedByObjectVersion
1070
     0
  0
VISUALSTYLE
  5
3A2
102
{ACAD_XDICTIONARY
360
7343
102
}
102
{ACAD_REACTORS
330
30B
102
}
330
30B
100
AcDbVisualStyle
  2
X-Ray
 70
    25
 71
     2
 72
     2
 73
     1
 90
        1
 40
0.5
 41
-30.0
 62
     5
 63
     7
421
 16777215
 74
     1
 91
        0
 64
     7
 65
   257
 75
     1
175
     1
 42
1.0
 92
        8
 66
     7
 43
1.0
 76
     1
 77
     6
 78
     2
 67
     7
 79
     3
170
     0
171
     0
290
     0
174
     0
 93
       13
 44
0.0
173
     0
291
     0
 45
0.0
1001
ACAD
1000
AcDbSavedByObjectVersion
1070
     0
  0
DICTIONARYVAR
  5
34A
102
{ACAD_REACTORS
330
347
102
}
330
347
100
DictionaryVariables
280
     0
  1
1:1
  0
DICTIONARYVAR
  5
349
102
{ACAD_REACTORS
330
347
102
}
330
347
100
DictionaryVariables
280
     0
  1
STANDARD
  0
DICTIONARYVAR
  5
348
102
{ACAD_REACTORS
330
347
102
}
330
347
100
DictionaryVariables
280
     0
  1
STANDARD
  0
DICTIONARYVAR
  5
3DF
102
{ACAD_REACTORS
330
347
102
}
330
347
100
DictionaryVariables
280
     0
  1
0
  0
DICTIONARY
  5
3A8
330
31E
100
AcDbDictionary
280
     1
281
     1
  3
ACAD_ROUNDTRIP_2008_TABLESTYLE_CELLSTYLEMAP
360
7334
  3
ACAD_XREC_ROUNDTRIP
360
7333
  0
DICTIONARY
  5
731D
330
311
100
AcDbDictionary
280
     1
281
     1
  3
ACAD_XREC_ROUNDTRIP
360
731E
  0
DICTIONARY
  5
7321
330
313
100
AcDbDictionary
280
     1
281
     1
  3
ACAD_XREC_ROUNDTRIP
360
7322
  0
DICTIONARY
  5
731F
330
312
100
AcDbDictionary
280
     1
281
     1
  3
ACAD_XREC_ROUNDTRIP
360
7320
  0
DICTIONARY
  5
731B
330
310
100
AcDbDictionary
280
     1
281
     1
  3
ACAD_XREC_ROUNDTRIP
360
731C
  0
DICTIONARY
  5
7329
330
317
100
AcDbDictionary
280
     1
281
     1
  3
ACAD_XREC_ROUNDTRIP
360
732A
  0
DICTIONARY
  5
7331
330
31B
100
AcDbDictionary
280
     1
281
     1
  3
ACAD_XREC_ROUNDTRIP
360
7332
  0
DICTIONARY
  5
7323
330
314
100
AcDbDictionary
280
     1
281
     1
  3
ACAD_XREC_ROUNDTRIP
360
7324
  0
DICTIONARY
  5
7327
330
316
100
AcDbDictionary
280
     1
281
     1
  3
ACAD_XREC_ROUNDTRIP
360
7328
  0
DICTIONARY
  5
733D
330
39F
100
AcDbDictionary
280
     1
281
     1
  3
ACAD_XREC_ROUNDTRIP
360
733E
  0
DICTIONARY
  5
732F
330
31A
100
AcDbDictionary
280
     1
281
     1
  3
ACAD_XREC_ROUNDTRIP
360
7330
  0
DICTIONARY
  5
7313
330
30C
100
AcDbDictionary
280
     1
281
     1
  3
ACAD_XREC_ROUNDTRIP
360
7314
  0
DICTIONARY
  5
7315
330
30D
100
AcDbDictionary
280
     1
281
     1
  3
ACAD_XREC_ROUNDTRIP
360
7316
  0
DICTIONARY
  5
7317
330
30E
100
AcDbDictionary
280
     1
281
     1
  3
ACAD_XREC_ROUNDTRIP
360
7318
  0
DICTIONARY
  5
7319
330
30F
100
AcDbDictionary
280
     1
281
     1
  3
ACAD_XREC_ROUNDTRIP
360
731A
  0
DICTIONARY
  5
7337
330
39C
100
AcDbDictionary
280
     1
281
     1
  3
ACAD_XREC_ROUNDTRIP
360
7338
  0
DICTIONARY
  5
7339
330
39D
100
AcDbDictionary
280
     1
281
     1
  3
ACAD_XREC_ROUNDTRIP
360
733A
  0
DICTIONARY
  5
732D
330
319
100
AcDbDictionary
280
     1
281
     1
  3
ACAD_XREC_ROUNDTRIP
360
732E
  0
DICTIONARY
  5
733B
330
39E
100
AcDbDictionary
280
     1
281
     1
  3
ACAD_XREC_ROUNDTRIP
360
733C
  0
DICTIONARY
  5
7325
330
315
100
AcDbDictionary
280
     1
281
     1
  3
ACAD_XREC_ROUNDTRIP
360
7326
  0
DICTIONARY
  5
7347
330
3A4
100
AcDbDictionary
280
     1
281
     1
  3
ACAD_XREC_ROUNDTRIP
360
7348
  0
DICTIONARY
  5
7345
330
3A3
100
AcDbDictionary
280
     1
281
     1
  3
ACAD_XREC_ROUNDTRIP
360
7346
  0
DICTIONARY
  5
733F
330
3A0
100
AcDbDictionary
280
     1
281
     1
  3
ACAD_XREC_ROUNDTRIP
360
7340
  0
DICTIONARY
  5
7341
330
3A1
100
AcDbDictionary
280
     1
281
     1
  3
ACAD_XREC_ROUNDTRIP
360
7342
  0
DICTIONARY
  5
732B
330
318
100
AcDbDictionary
280
     1
281
     1
  3
ACAD_XREC_ROUNDTRIP
360
732C
  0
DICTIONARY
  5
7335
330
39B
100
AcDbDictionary
280
     1
281
     1
  3
ACAD_XREC_ROUNDTRIP
360
7336
  0
DICTIONARY
  5
7343
330
3A2
100
AcDbDictionary
280
     1
281
     1
  3
ACAD_XREC_ROUNDTRIP
360
7344
  0
CELLSTYLEMAP
  5
7334
102
{ACAD_REACTORS
330
3A8
102
}
330
3A8
100
AcDbCellStyleMap
 90
        3
300
CELLSTYLE
  1
TABLEFORMAT_BEGIN
 90
        5
170
     1
 91
        0
 92
        0
 62
   257
 93
        1
300
CONTENTFORMAT
  1
CONTENTFORMAT_BEGIN
 90
        0
 91
        0
 92
        4
 93
        0
300

 40
0.0
140
1.0
 94
        5
 62
     0
340
11
144
6.0
309
CONTENTFORMAT_END
171
     1
301
MARGIN
  1
CELLMARGIN_BEGIN
 40
1.5
 40
1.5
 40
1.5
 40
1.5
 40
4.5
 40
4.5
309
CELLMARGIN_END
 94
        6
 95
        1
302
GRIDFORMAT
  1
GRIDFORMAT_BEGIN
 90
        0
 91
        1
 62
     0
 92
       -2
340
0
 93
        0
 40
0.045
309
GRIDFORMAT_END
 95
        2
302
GRIDFORMAT
  1
GRIDFORMAT_BEGIN
 90
        0
 91
        1
 62
     0
 92
       -2
340
0
 93
        0
 40
0.045
309
GRIDFORMAT_END
 95
        4
302
GRIDFORMAT
  1
GRIDFORMAT_BEGIN
 90
        0
 91
        1
 62
     0
 92
       -2
340
0
 93
        0
 40
0.045
309
GRIDFORMAT_END
 95
        8
302
GRIDFORMAT
  1
GRIDFORMAT_BEGIN
 90
        0
 91
        1
 62
     0
 92
       -2
340
0
 93
        0
 40
0.045
309
GRIDFORMAT_END
 95
       16
302
GRIDFORMAT
  1
GRIDFORMAT_BEGIN
 90
        0
 91
        1
 62
     0
 92
       -2
340
0
 93
        0
 40
0.045
309
GRIDFORMAT_END
 95
       32
302
GRIDFORMAT
  1
GRIDFORMAT_BEGIN
 90
        0
 91
        1
 62
     0
 92
       -2
340
0
 93
        0
 40
0.045
309
GRIDFORMAT_END
309
TABLEFORMAT_END
  1
CELLSTYLE_BEGIN
 90
        1
 91
        1
300
_TITLE
309
CELLSTYLE_END
300
CELLSTYLE
  1
TABLEFORMAT_BEGIN
 90
        5
170
     1
 91
        0
 92
        0
 62
   257
 93
        1
300
CONTENTFORMAT
  1
CONTENTFORMAT_BEGIN
 90
        0
 91
        0
 92
        4
 93
        0
300

 40
0.0
140
1.0
 94
        5
 62
     0
340
11
144
4.5
309
CONTENTFORMAT_END
171
     1
301
MARGIN
  1
CELLMARGIN_BEGIN
 40
1.5
 40
1.5
 40
1.5
 40
1.5
 40
4.5
 40
4.5
309
CELLMARGIN_END
 94
        6
 95
        1
302
GRIDFORMAT
  1
GRIDFORMAT_BEGIN
 90
        0
 91
        1
 62
     0
 92
       -2
340
0
 93
        0
 40
0.045
309
GRIDFORMAT_END
 95
        2
302
GRIDFORMAT
  1
GRIDFORMAT_BEGIN
 90
        0
 91
        1
 62
     0
 92
       -2
340
0
 93
        0
 40
0.045
309
GRIDFORMAT_END
 95
        4
302
GRIDFORMAT
  1
GRIDFORMAT_BEGIN
 90
        0
 91
        1
 62
     0
 92
       -2
340
0
 93
        0
 40
0.045
309
GRIDFORMAT_END
 95
        8
302
GRIDFORMAT
  1
GRIDFORMAT_BEGIN
 90
        0
 91
        1
 62
     0
 92
       -2
340
0
 93
        0
 40
0.045
309
GRIDFORMAT_END
 95
       16
302
GRIDFORMAT
  1
GRIDFORMAT_BEGIN
 90
        0
 91
        1
 62
     0
 92
       -2
340
0
 93
        0
 40
0.045
309
GRIDFORMAT_END
 95
       32
302
GRIDFORMAT
  1
GRIDFORMAT_BEGIN
 90
        0
 91
        1
 62
     0
 92
       -2
340
0
 93
        0
 40
0.045
309
GRIDFORMAT_END
309
TABLEFORMAT_END
  1
CELLSTYLE_BEGIN
 90
        2
 91
        1
300
_HEADER
309
CELLSTYLE_END
300
CELLSTYLE
  1
TABLEFORMAT_BEGIN
 90
        5
170
     1
 91
        0
 92
        0
 62
   257
 93
        1
300
CONTENTFORMAT
  1
CONTENTFORMAT_BEGIN
 90
        0
 91
        0
 92
        4
 93
        0
300

 40
0.0
140
1.0
 94
        2
 62
     0
340
11
144
4.5
309
CONTENTFORMAT_END
171
     1
301
MARGIN
  1
CELLMARGIN_BEGIN
 40
1.5
 40
1.5
 40
1.5
 40
1.5
 40
4.5
 40
4.5
309
CELLMARGIN_END
 94
        6
 95
        1
302
GRIDFORMAT
  1
GRIDFORMAT_BEGIN
 90
        0
 91
        1
 62
     0
 92
       -2
340
0
 93
        0
 40
0.045
309
GRIDFORMAT_END
 95
        2
302
GRIDFORMAT
  1
GRIDFORMAT_BEGIN
 90
        0
 91
        1
 62
     0
 92
       -2
340
0
 93
        0
 40
0.045
309
GRIDFORMAT_END
 95
        4
302
GRIDFORMAT
  1
GRIDFORMAT_BEGIN
 90
        0
 91
        1
 62
     0
 92
       -2
340
0
 93
        0
 40
0.045
309
GRIDFORMAT_END
 95
        8
302
GRIDFORMAT
  1
GRIDFORMAT_BEGIN
 90
        0
 91
        1
 62
     0
 92
       -2
340
0
 93
        0
 40
0.045
309
GRIDFORMAT_END
 95
       16
302
GRIDFORMAT
  1
GRIDFORMAT_BEGIN
 90
        0
 91
        1
 62
     0
 92
       -2
340
0
 93
        0
 40
0.045
309
GRIDFORMAT_END
 95
       32
302
GRIDFORMAT
  1
GRIDFORMAT_BEGIN
 90
        0
 91
        1
 62
     0
 92
       -2
340
0
 93
        0
 40
0.045
309
GRIDFORMAT_END
309
TABLEFORMAT_END
  1
CELLSTYLE_BEGIN
 90
        3
 91
        2
300
_DATA
309
CELLSTYLE_END
  0
XRECORD
  5
7333
102
{ACAD_REACTORS
330
3A8
102
}
330
3A8
100
AcDbXrecord
280
     1
102
ACAD_ROUNDTRIP_PRE2007_TABLESTYLE
 90
        4
 91
        0
  1

 92
        4
 93
        0
  2

 94
        4
 95
        0
  3

  0
XRECORD
  5
731E
102
{ACAD_REACTORS
330
731D
102
}
330
731D
100
AcDbXrecord
280
     1
102
RTVSPropertyOp0
 70
     1
102
RTVSPropertyOp1
 70
     1
102
RTVSPropertyOp2
 70
     1
102
RTVSPropertyOp3
 70
     1
102
RTVSPropertyOp4
 70
     1
102
RTVSPropertyOp5
 70
     1
102
RTVSPropertyOp6
 70
     1
102
RTVSPropertyOp7
 70
     1
102
RTVSPropertyOp8
 70
     1
102
RTVSPropertyOp9
 70
     1
102
RTVSPropertyOp10
 70
     1
102
RTVSPropertyOp11
 70
     1
102
RTVSPropertyOp12
 70
     1
102
RTVSPropertyOp13
 70
     1
102
RTVSPropertyOp14
 70
     1
102
RTVSPropertyOp15
 70
     1
102
RTVSPropertyOp16
 70
     1
102
RTVSPropertyOp17
 70
     1
102
RTVSPropertyOp18
 70
     1
102
RTVSPropertyOp19
 70
     1
102
RTVSPropertyOp20
 70
     1
102
RTVSPropertyOp21
 70
     1
102
RTVSPropertyOp22
 70
     1
102
RTVSPropertyOp23
 70
     1
102
RTVSPropertyOp24
 70
     1
102
RTVSPropertyOp25
 70
     1
102
RTVSPropertyOp26
 70
     1
102
RTVSPropertyOp27
 70
     1
  0
XRECORD
  5
7322
102
{ACAD_REACTORS
330
7321
102
}
330
7321
100
AcDbXrecord
280
     1
102
RTVSPropertyOp0
 70
     1
102
RTVSPropertyOp1
 70
     1
102
RTVSPropertyOp2
 70
     1
102
RTVSPropertyOp3
 70
     1
102
RTVSPropertyOp4
 70
     1
102
RTVSPropertyOp5
 70
     1
102
RTVSPropertyOp6
 70
     1
102
RTVSPropertyOp7
 70
     1
102
RTVSPropertyOp8
 70
     1
102
RTVSPropertyOp9
 70
     1
102
RTVSPropertyOp10
 70
     1
102
RTVSPropertyOp11
 70
     1
102
RTVSPropertyOp12
 70
     1
102
RTVSPropertyOp13
 70
     1
102
RTVSPropertyOp14
 70
     1
102
RTVSPropertyOp15
 70
     1
102
RTVSPropertyOp16
 70
     1
102
RTVSPropertyOp17
 70
     1
102
RTVSPropertyOp18
 70
     1
102
RTVSPropertyOp19
 70
     1
102
RTVSPropertyOp20
 70
     1
102
RTVSPropertyOp21
 70
     1
102
RTVSPropertyOp22
 70
     1
102
RTVSPropertyOp23
 70
     1
102
RTVSPropertyOp24
 70
     1
102
RTVSPropertyOp25
 70
     1
102
RTVSPropertyOp26
 70
     1
102
RTVSPropertyOp27
 70
     1
  0
XRECORD
  5
7320
102
{ACAD_REACTORS
330
731F
102
}
330
731F
100
AcDbXrecord
280
     1
102
RTVSPropertyOp0
 70
     1
102
RTVSPropertyOp1
 70
     1
102
RTVSPropertyOp2
 70
     1
102
RTVSPropertyOp3
 70
     1
102
RTVSPropertyOp4
 70
     1
102
RTVSPropertyOp5
 70
     1
102
RTVSPropertyOp6
 70
     1
102
RTVSPropertyOp7
 70
     1
102
RTVSPropertyOp8
 70
     1
102
RTVSPropertyOp9
 70
     1
102
RTVSPropertyOp10
 70
     1
102
RTVSPropertyOp11
 70
     1
102
RTVSPropertyOp12
 70
     1
102
RTVSPropertyOp13
 70
     1
102
RTVSPropertyOp14
 70
     1
102
RTVSPropertyOp15
 70
     1
102
RTVSPropertyOp16
 70
     1
102
RTVSPropertyOp17
 70
     1
102
RTVSPropertyOp18
 70
     1
102
RTVSPropertyOp19
 70
     1
102
RTVSPropertyOp20
 70
     1
102
RTVSPropertyOp21
 70
     1
102
RTVSPropertyOp22
 70
     1
102
RTVSPropertyOp23
 70
     1
102
RTVSPropertyOp24
 70
     1
102
RTVSPropertyOp25
 70
     1
102
RTVSPropertyOp26
 70
     1
102
RTVSPropertyOp27
 70
     1
  0
XRECORD
  5
731C
102
{ACAD_REACTORS
330
731B
102
}
330
731B
100
AcDbXrecord
280
     1
102
RTVSPropertyOp0
 70
     1
102
RTVSPropertyOp1
 70
     1
102
RTVSPropertyOp2
 70
     1
102
RTVSPropertyOp3
 70
     1
102
RTVSPropertyOp4
 70
     1
102
RTVSPropertyOp5
 70
     1
102
RTVSPropertyOp6
 70
     1
102
RTVSPropertyOp7
 70
     1
102
RTVSPropertyOp8
 70
     1
102
RTVSPropertyOp9
 70
     1
102
RTVSPropertyOp10
 70
     1
102
RTVSPropertyOp11
 70
     1
102
RTVSPropertyOp12
 70
     1
102
RTVSPropertyOp13
 70
     1
102
RTVSPropertyOp14
 70
     1
102
RTVSPropertyOp15
 70
     1
102
RTVSPropertyOp16
 70
     1
102
RTVSPropertyOp17
 70
     1
102
RTVSPropertyOp18
 70
     1
102
RTVSPropertyOp19
 70
     1
102
RTVSPropertyOp20
 70
     1
102
RTVSPropertyOp21
 70
     1
102
RTVSPropertyOp22
 70
     1
102
RTVSPropertyOp23
 70
     1
102
RTVSPropertyOp24
 70
     1
102
RTVSPropertyOp25
 70
     1
102
RTVSPropertyOp26
 70
     1
102
RTVSPropertyOp27
 70
     1
  0
XRECORD
  5
732A
102
{ACAD_REACTORS
330
7329
102
}
330
7329
100
AcDbXrecord
280
     1
102
RTVSPropertyOp0
 70
     1
102
RTVSPropertyOp1
 70
     1
102
RTVSPropertyOp2
 70
     1
102
RTVSPropertyOp3
 70
     1
102
RTVSPropertyOp4
 70
     1
102
RTVSPropertyOp5
 70
     1
102
RTVSPropertyOp6
 70
     1
102
RTVSPropertyOp7
 70
     1
102
RTVSPropertyOp8
 70
     1
102
RTVSPropertyOp9
 70
     1
102
RTVSPropertyOp10
 70
     1
102
RTVSPropertyOp11
 70
     1
102
RTVSPropertyOp12
 70
     1
102
RTVSPropertyOp13
 70
     1
102
RTVSPropertyOp14
 70
     1
102
RTVSPropertyOp15
 70
     1
102
RTVSPropertyOp16
 70
     1
102
RTVSPropertyOp17
 70
     1
102
RTVSPropertyOp18
 70
     1
102
RTVSPropertyOp19
 70
     1
102
RTVSPropertyOp20
 70
     1
102
RTVSPropertyOp21
 70
     1
102
RTVSPropertyOp22
 70
     1
102
RTVSPropertyOp23
 70
     1
102
RTVSPropertyOp24
 70
     1
102
RTVSPropertyOp25
 70
     1
102
RTVSPropertyOp26
 70
     1
102
RTVSPropertyOp27
 70
     1
  0
XRECORD
  5
7332
102
{ACAD_REACTORS
330
7331
102
}
330
7331
100
AcDbXrecord
280
     1
102
RTVSPropertyOp0
 70
     1
102
RTVSPropertyOp1
 70
     1
102
RTVSPropertyOp2
 70
     1
102
RTVSPropertyOp3
 70
     1
102
RTVSPropertyOp4
 70
     1
102
RTVSPropertyOp5
 70
     1
102
RTVSPropertyOp6
 70
     1
102
RTVSPropertyOp7
 70
     1
102
RTVSPropertyOp8
 70
     1
102
RTVSPropertyOp9
 70
     1
102
RTVSPropertyOp10
 70
     1
102
RTVSPropertyOp11
 70
     1
102
RTVSPropertyOp12
 70
     1
102
RTVSPropertyOp13
 70
     1
102
RTVSPropertyOp14
 70
     1
102
RTVSPropertyOp15
 70
     1
102
RTVSPropertyOp16
 70
     1
102
RTVSPropertyOp17
 70
     1
102
RTVSPropertyOp18
 70
     1
102
RTVSPropertyOp19
 70
     1
102
RTVSPropertyOp20
 70
     1
102
RTVSPropertyOp21
 70
     1
102
RTVSPropertyOp22
 70
     1
102
RTVSPropertyOp23
 70
     1
102
RTVSPropertyOp24
 70
     1
102
RTVSPropertyOp25
 70
     1
102
RTVSPropertyOp26
 70
     1
102
RTVSPropertyOp27
 70
     1
  0
XRECORD
  5
7324
102
{ACAD_REACTORS
330
7323
102
}
330
7323
100
AcDbXrecord
280
     1
102
RTVSPropertyOp0
 70
     1
102
RTVSPropertyOp1
 70
     1
102
RTVSPropertyOp2
 70
     1
102
RTVSPropertyOp3
 70
     1
102
RTVSPropertyOp4
 70
     1
102
RTVSPropertyOp5
 70
     1
102
RTVSPropertyOp6
 70
     1
102
RTVSPropertyOp7
 70
     1
102
RTVSPropertyOp8
 70
     1
102
RTVSPropertyOp9
 70
     1
102
RTVSPropertyOp10
 70
     1
102
RTVSPropertyOp11
 70
     1
102
RTVSPropertyOp12
 70
     1
102
RTVSPropertyOp13
 70
     1
102
RTVSPropertyOp14
 70
     1
102
RTVSPropertyOp15
 70
     1
102
RTVSPropertyOp16
 70
     1
102
RTVSPropertyOp17
 70
     1
102
RTVSPropertyOp18
 70
     1
102
RTVSPropertyOp19
 70
     1
102
RTVSPropertyOp20
 70
     1
102
RTVSPropertyOp21
 70
     1
102
RTVSPropertyOp22
 70
     1
102
RTVSPropertyOp23
 70
     1
102
RTVSPropertyOp24
 70
     1
102
RTVSPropertyOp25
 70
     1
102
RTVSPropertyOp26
 70
     1
102
RTVSPropertyOp27
 70
     1
  0
XRECORD
  5
7328
102
{ACAD_REACTORS
330
7327
102
}
330
7327
100
AcDbXrecord
280
     1
102
RTVSPropertyOp0
 70
     1
102
RTVSPropertyOp1
 70
     1
102
RTVSPropertyOp2
 70
     1
102
RTVSPropertyOp3
 70
     1
102
RTVSPropertyOp4
 70
     1
102
RTVSPropertyOp5
 70
     1
102
RTVSPropertyOp6
 70
     1
102
RTVSPropertyOp7
 70
     1
102
RTVSPropertyOp8
 70
     1
102
RTVSPropertyOp9
 70
     1
102
RTVSPropertyOp10
 70
     1
102
RTVSPropertyOp11
 70
     1
102
RTVSPropertyOp12
 70
     1
102
RTVSPropertyOp13
 70
     1
102
RTVSPropertyOp14
 70
     1
102
RTVSPropertyOp15
 70
     1
102
RTVSPropertyOp16
 70
     1
102
RTVSPropertyOp17
 70
     1
102
RTVSPropertyOp18
 70
     1
102
RTVSPropertyOp19
 70
     1
102
RTVSPropertyOp20
 70
     1
102
RTVSPropertyOp21
 70
     1
102
RTVSPropertyOp22
 70
     1
102
RTVSPropertyOp23
 70
     1
102
RTVSPropertyOp24
 70
     1
102
RTVSPropertyOp25
 70
     1
102
RTVSPropertyOp26
 70
     1
102
RTVSPropertyOp27
 70
     1
  0
XRECORD
  5
733E
102
{ACAD_REACTORS
330
733D
102
}
330
733D
100
AcDbXrecord
280
     1
102
RTVSPropertyOp0
 70
     0
102
RTVSPropertyOp1
 70
     0
102
RTVSPropertyOp2
 70
     0
102
RTVSPropertyOp3
 70
     0
102
RTVSPropertyOp4
 70
     0
102
RTVSPropertyOp5
 70
     0
102
RTVSPropertyOp6
 70
     0
102
RTVSPropertyOp7
 70
     0
102
RTVSPropertyOp8
 70
     0
102
RTVSPropertyOp9
 70
     0
102
RTVSPropertyOp10
 70
     0
102
RTVSPropertyOp11
 70
     0
102
RTVSPropertyOp12
 70
     0
102
RTVSPropertyOp13
 70
     0
102
RTVSPropertyOp14
 70
     2
102
RTVSPropertyOp15
 70
     0
102
RTVSPropertyOp16
 70
     0
102
RTVSPropertyOp17
 70
     0
102
RTVSPropertyOp18
 70
     0
102
RTVSPropertyOp19
 70
     0
102
RTVSPropertyOp20
 70
     0
102
RTVSPropertyOp21
 70
     0
102
RTVSPropertyOp22
 70
     0
102
RTVSPropertyOp23
 70
     0
102
RTVSPropertyOp24
 70
     0
102
RTVSPropertyOp25
 70
     0
102
RTVSPropertyOp26
 70
     0
102
RTVSPropertyOp27
 70
     0
  0
XRECORD
  5
7330
102
{ACAD_REACTORS
330
732F
102
}
330
732F
100
AcDbXrecord
280
     1
102
RTVSPropertyOp0
 70
     1
102
RTVSPropertyOp1
 70
     1
102
RTVSPropertyOp2
 70
     1
102
RTVSPropertyOp3
 70
     1
102
RTVSPropertyOp4
 70
     1
102
RTVSPropertyOp5
 70
     1
102
RTVSPropertyOp6
 70
     1
102
RTVSPropertyOp7
 70
     1
102
RTVSPropertyOp8
 70
     1
102
RTVSPropertyOp9
 70
     1
102
RTVSPropertyOp10
 70
     1
102
RTVSPropertyOp11
 70
     1
102
RTVSPropertyOp12
 70
     1
102
RTVSPropertyOp13
 70
     1
102
RTVSPropertyOp14
 70
     1
102
RTVSPropertyOp15
 70
     1
102
RTVSPropertyOp16
 70
     1
102
RTVSPropertyOp17
 70
     1
102
RTVSPropertyOp18
 70
     1
102
RTVSPropertyOp19
 70
     1
102
RTVSPropertyOp20
 70
     1
102
RTVSPropertyOp21
 70
     1
102
RTVSPropertyOp22
 70
     1
102
RTVSPropertyOp23
 70
     1
102
RTVSPropertyOp24
 70
     1
102
RTVSPropertyOp25
 70
     1
102
RTVSPropertyOp26
 70
     1
102
RTVSPropertyOp27
 70
     1
  0
XRECORD
  5
7314
102
{ACAD_REACTORS
330
7313
102
}
330
7313
100
AcDbXrecord
280
     1
102
RTVSPropertyOp0
 70
     1
102
RTVSPropertyOp1
 70
     1
102
RTVSPropertyOp2
 70
     1
102
RTVSPropertyOp3
 70
     1
102
RTVSPropertyOp4
 70
     1
102
RTVSPropertyOp5
 70
     1
102
RTVSPropertyOp6
 70
     1
102
RTVSPropertyOp7
 70
     1
102
RTVSPropertyOp8
 70
     1
102
RTVSPropertyOp9
 70
     1
102
RTVSPropertyOp10
 70
     1
102
RTVSPropertyOp11
 70
     1
102
RTVSPropertyOp12
 70
     1
102
RTVSPropertyOp13
 70
     1
102
RTVSPropertyOp14
 70
     1
102
RTVSPropertyOp15
 70
     1
102
RTVSPropertyOp16
 70
     1
102
RTVSPropertyOp17
 70
     1
102
RTVSPropertyOp18
 70
     1
102
RTVSPropertyOp19
 70
     1
102
RTVSPropertyOp20
 70
     1
102
RTVSPropertyOp21
 70
     1
102
RTVSPropertyOp22
 70
     1
102
RTVSPropertyOp23
 70
     1
102
RTVSPropertyOp24
 70
     1
102
RTVSPropertyOp25
 70
     1
102
RTVSPropertyOp26
 70
     1
102
RTVSPropertyOp27
 70
     1
  0
XRECORD
  5
7316
102
{ACAD_REACTORS
330
7315
102
}
330
7315
100
AcDbXrecord
280
     1
102
RTVSPropertyOp0
 70
     1
102
RTVSPropertyOp1
 70
     1
102
RTVSPropertyOp2
 70
     1
102
RTVSPropertyOp3
 70
     1
102
RTVSPropertyOp4
 70
     1
102
RTVSPropertyOp5
 70
     1
102
RTVSPropertyOp6
 70
     1
102
RTVSPropertyOp7
 70
     1
102
RTVSPropertyOp8
 70
     1
102
RTVSPropertyOp9
 70
     1
102
RTVSPropertyOp10
 70
     1
102
RTVSPropertyOp11
 70
     1
102
RTVSPropertyOp12
 70
     1
102
RTVSPropertyOp13
 70
     1
102
RTVSPropertyOp14
 70
     1
102
RTVSPropertyOp15
 70
     1
102
RTVSPropertyOp16
 70
     1
102
RTVSPropertyOp17
 70
     1
102
RTVSPropertyOp18
 70
     1
102
RTVSPropertyOp19
 70
     1
102
RTVSPropertyOp20
 70
     1
102
RTVSPropertyOp21
 70
     1
102
RTVSPropertyOp22
 70
     1
102
RTVSPropertyOp23
 70
     1
102
RTVSPropertyOp24
 70
     1
102
RTVSPropertyOp25
 70
     1
102
RTVSPropertyOp26
 70
     1
102
RTVSPropertyOp27
 70
     1
  0
XRECORD
  5
7318
102
{ACAD_REACTORS
330
7317
102
}
330
7317
100
AcDbXrecord
280
     1
102
RTVSPropertyOp0
 70
     1
102
RTVSPropertyOp1
 70
     1
102
RTVSPropertyOp2
 70
     1
102
RTVSPropertyOp3
 70
     1
102
RTVSPropertyOp4
 70
     1
102
RTVSPropertyOp5
 70
     1
102
RTVSPropertyOp6
 70
     1
102
RTVSPropertyOp7
 70
     1
102
RTVSPropertyOp8
 70
     1
102
RTVSPropertyOp9
 70
     1
102
RTVSPropertyOp10
 70
     1
102
RTVSPropertyOp11
 70
     1
102
RTVSPropertyOp12
 70
     1
102
RTVSPropertyOp13
 70
     1
102
RTVSPropertyOp14
 70
     1
102
RTVSPropertyOp15
 70
     1
102
RTVSPropertyOp16
 70
     1
102
RTVSPropertyOp17
 70
     1
102
RTVSPropertyOp18
 70
     1
102
RTVSPropertyOp19
 70
     1
102
RTVSPropertyOp20
 70
     1
102
RTVSPropertyOp21
 70
     1
102
RTVSPropertyOp22
 70
     1
102
RTVSPropertyOp23
 70
     1
102
RTVSPropertyOp24
 70
     1
102
RTVSPropertyOp25
 70
     1
102
RTVSPropertyOp26
 70
     1
102
RTVSPropertyOp27
 70
     1
  0
XRECORD
  5
731A
102
{ACAD_REACTORS
330
7319
102
}
330
7319
100
AcDbXrecord
280
     1
102
RTVSPropertyOp0
 70
     1
102
RTVSPropertyOp1
 70
     1
102
RTVSPropertyOp2
 70
     1
102
RTVSPropertyOp3
 70
     1
102
RTVSPropertyOp4
 70
     1
102
RTVSPropertyOp5
 70
     1
102
RTVSPropertyOp6
 70
     1
102
RTVSPropertyOp7
 70
     1
102
RTVSPropertyOp8
 70
     1
102
RTVSPropertyOp9
 70
     1
102
RTVSPropertyOp10
 70
     1
102
RTVSPropertyOp11
 70
     1
102
RTVSPropertyOp12
 70
     1
102
RTVSPropertyOp13
 70
     1
102
RTVSPropertyOp14
 70
     1
102
RTVSPropertyOp15
 70
     1
102
RTVSPropertyOp16
 70
     1
102
RTVSPropertyOp17
 70
     1
102
RTVSPropertyOp18
 70
     1
102
RTVSPropertyOp19
 70
     1
102
RTVSPropertyOp20
 70
     1
102
RTVSPropertyOp21
 70
     1
102
RTVSPropertyOp22
 70
     1
102
RTVSPropertyOp23
 70
     1
102
RTVSPropertyOp24
 70
     1
102
RTVSPropertyOp25
 70
     1
102
RTVSPropertyOp26
 70
     1
102
RTVSPropertyOp27
 70
     1
  0
XRECORD
  5
7338
102
{ACAD_REACTORS
330
7337
102
}
330
7337
100
AcDbXrecord
280
     1
102
RTVSPropertyOp0
 70
     1
102
RTVSPropertyOp1
 70
     1
102
RTVSPropertyOp2
 70
     1
102
RTVSPropertyOp3
 70
     1
102
RTVSPropertyOp4
 70
     1
102
RTVSPropertyOp5
 70
     1
102
RTVSPropertyOp6
 70
     1
102
RTVSPropertyOp7
 70
     1
102
RTVSPropertyOp8
 70
     1
102
RTVSPropertyOp9
 70
     1
102
RTVSPropertyOp10
 70
     1
102
RTVSPropertyOp11
 70
     1
102
RTVSPropertyOp12
 70
     1
102
RTVSPropertyOp13
 70
     1
102
RTVSPropertyOp14
 70
     1
102
RTVSPropertyOp15
 70
     1
102
RTVSPropertyOp16
 70
     1
102
RTVSPropertyOp17
 70
     1
102
RTVSPropertyOp18
 70
     1
102
RTVSPropertyOp19
 70
     1
102
RTVSPropertyOp20
 70
     1
102
RTVSPropertyOp21
 70
     1
102
RTVSPropertyOp22
 70
     1
102
RTVSPropertyOp23
 70
     1
102
RTVSPropertyOp24
 70
     1
102
RTVSPropertyOp25
 70
     1
102
RTVSPropertyOp26
 70
     1
102
RTVSPropertyOp27
 70
     1
  0
XRECORD
  5
733A
102
{ACAD_REACTORS
330
7339
102
}
330
7339
100
AcDbXrecord
280
     1
102
RTVSPropertyOp0
 70
     0
102
RTVSPropertyOp1
 70
     0
102
RTVSPropertyOp2
 70
     0
102
RTVSPropertyOp3
 70
     0
102
RTVSPropertyOp4
 70
     0
102
RTVSPropertyOp5
 70
     0
102
RTVSPropertyOp6
 70
     0
102
RTVSPropertyOp7
 70
     0
102
RTVSPropertyOp8
 70
     0
102
RTVSPropertyOp9
 70
     0
102
RTVSPropertyOp10
 70
     0
102
RTVSPropertyOp11
 70
     0
102
RTVSPropertyOp12
 70
     0
102
RTVSPropertyOp13
 70
     0
102
RTVSPropertyOp14
 70
     2
102
RTVSPropertyOp15
 70
     0
102
RTVSPropertyOp16
 70
     0
102
RTVSPropertyOp17
 70
     0
102
RTVSPropertyOp18
 70
     0
102
RTVSPropertyOp19
 70
     0
102
RTVSPropertyOp20
 70
     0
102
RTVSPropertyOp21
 70
     0
102
RTVSPropertyOp22
 70
     0
102
RTVSPropertyOp23
 70
     0
102
RTVSPropertyOp24
 70
     0
102
RTVSPropertyOp25
 70
     0
102
RTVSPropertyOp26
 70
     0
102
RTVSPropertyOp27
 70
     0
  0
XRECORD
  5
732E
102
{ACAD_REACTORS
330
732D
102
}
330
732D
100
AcDbXrecord
280
     1
102
RTVSPropertyOp0
 70
     1
102
RTVSPropertyOp1
 70
     1
102
RTVSPropertyOp2
 70
     1
102
RTVSPropertyOp3
 70
     1
102
RTVSPropertyOp4
 70
     1
102
RTVSPropertyOp5
 70
     1
102
RTVSPropertyOp6
 70
     1
102
RTVSPropertyOp7
 70
     1
102
RTVSPropertyOp8
 70
     1
102
RTVSPropertyOp9
 70
     1
102
RTVSPropertyOp10
 70
     1
102
RTVSPropertyOp11
 70
     1
102
RTVSPropertyOp12
 70
     1
102
RTVSPropertyOp13
 70
     1
102
RTVSPropertyOp14
 70
     1
102
RTVSPropertyOp15
 70
     1
102
RTVSPropertyOp16
 70
     1
102
RTVSPropertyOp17
 70
     1
102
RTVSPropertyOp18
 70
     1
102
RTVSPropertyOp19
 70
     1
102
RTVSPropertyOp20
 70
     1
102
RTVSPropertyOp21
 70
     1
102
RTVSPropertyOp22
 70
     1
102
RTVSPropertyOp23
 70
     1
102
RTVSPropertyOp24
 70
     1
102
RTVSPropertyOp25
 70
     1
102
RTVSPropertyOp26
 70
     1
102
RTVSPropertyOp27
 70
     1
  0
XRECORD
  5
733C
102
{ACAD_REACTORS
330
733B
102
}
330
733B
100
AcDbXrecord
280
     1
102
RTVSPropertyOp0
 70
     0
102
RTVSPropertyOp1
 70
     0
102
RTVSPropertyOp2
 70
     0
102
RTVSPropertyOp3
 70
     0
102
RTVSPropertyOp4
 70
     0
102
RTVSPropertyOp5
 70
     0
102
RTVSPropertyOp6
 70
     0
102
RTVSPropertyOp7
 70
     0
102
RTVSPropertyOp8
 70
     0
102
RTVSPropertyOp9
 70
     0
102
RTVSPropertyOp10
 70
     0
102
RTVSPropertyOp11
 70
     0
102
RTVSPropertyOp12
 70
     0
102
RTVSPropertyOp13
 70
     0
102
RTVSPropertyOp14
 70
     2
102
RTVSPropertyOp15
 70
     0
102
RTVSPropertyOp16
 70
     0
102
RTVSPropertyOp17
 70
     0
102
RTVSPropertyOp18
 70
     0
102
RTVSPropertyOp19
 70
     0
102
RTVSPropertyOp20
 70
     0
102
RTVSPropertyOp21
 70
     0
102
RTVSPropertyOp22
 70
     0
102
RTVSPropertyOp23
 70
     0
102
RTVSPropertyOp24
 70
     0
102
RTVSPropertyOp25
 70
     0
102
RTVSPropertyOp26
 70
     0
102
RTVSPropertyOp27
 70
     0
  0
XRECORD
  5
7326
102
{ACAD_REACTORS
330
7325
102
}
330
7325
100
AcDbXrecord
280
     1
102
RTVSPropertyOp0
 70
     1
102
RTVSPropertyOp1
 70
     1
102
RTVSPropertyOp2
 70
     1
102
RTVSPropertyOp3
 70
     1
102
RTVSPropertyOp4
 70
     1
102
RTVSPropertyOp5
 70
     1
102
RTVSPropertyOp6
 70
     1
102
RTVSPropertyOp7
 70
     1
102
RTVSPropertyOp8
 70
     1
102
RTVSPropertyOp9
 70
     1
102
RTVSPropertyOp10
 70
     1
102
RTVSPropertyOp11
 70
     1
102
RTVSPropertyOp12
 70
     1
102
RTVSPropertyOp13
 70
     1
102
RTVSPropertyOp14
 70
     1
102
RTVSPropertyOp15
 70
     1
102
RTVSPropertyOp16
 70
     1
102
RTVSPropertyOp17
 70
     1
102
RTVSPropertyOp18
 70
     1
102
RTVSPropertyOp19
 70
     1
102
RTVSPropertyOp20
 70
     1
102
RTVSPropertyOp21
 70
     1
102
RTVSPropertyOp22
 70
     1
102
RTVSPropertyOp23
 70
     1
102
RTVSPropertyOp24
 70
     1
102
RTVSPropertyOp25
 70
     1
102
RTVSPropertyOp26
 70
     1
102
RTVSPropertyOp27
 70
     1
  0
XRECORD
  5
7348
102
{ACAD_REACTORS
330
7347
102
}
330
7347
100
AcDbXrecord
280
     1
102
RTVSPropertyOp0
 70
     1
102
RTVSPropertyOp1
 70
     1
102
RTVSPropertyOp2
 70
     1
102
RTVSPropertyOp3
 70
     1
102
RTVSPropertyOp4
 70
     1
102
RTVSPropertyOp5
 70
     1
102
RTVSPropertyOp6
 70
     1
102
RTVSPropertyOp7
 70
     1
102
RTVSPropertyOp8
 70
     1
102
RTVSPropertyOp9
 70
     1
102
RTVSPropertyOp10
 70
     1
102
RTVSPropertyOp11
 70
     1
102
RTVSPropertyOp12
 70
     1
102
RTVSPropertyOp13
 70
     1
102
RTVSPropertyOp14
 70
     1
102
RTVSPropertyOp15
 70
     1
102
RTVSPropertyOp16
 70
     1
102
RTVSPropertyOp17
 70
     1
102
RTVSPropertyOp18
 70
     1
102
RTVSPropertyOp19
 70
     1
102
RTVSPropertyOp20
 70
     1
102
RTVSPropertyOp21
 70
     1
102
RTVSPropertyOp22
 70
     1
102
RTVSPropertyOp23
 70
     1
102
RTVSPropertyOp24
 70
     1
102
RTVSPropertyOp25
 70
     1
102
RTVSPropertyOp26
 70
     1
102
RTVSPropertyOp27
 70
     1
  0
XRECORD
  5
7346
102
{ACAD_REACTORS
330
7345
102
}
330
7345
100
AcDbXrecord
280
     1
102
RTVSPropertyOp0
 70
     1
102
RTVSPropertyOp1
 70
     1
102
RTVSPropertyOp2
 70
     1
102
RTVSPropertyOp3
 70
     1
102
RTVSPropertyOp4
 70
     1
102
RTVSPropertyOp5
 70
     1
102
RTVSPropertyOp6
 70
     1
102
RTVSPropertyOp7
 70
     1
102
RTVSPropertyOp8
 70
     1
102
RTVSPropertyOp9
 70
     1
102
RTVSPropertyOp10
 70
     1
102
RTVSPropertyOp11
 70
     1
102
RTVSPropertyOp12
 70
     1
102
RTVSPropertyOp13
 70
     1
102
RTVSPropertyOp14
 70
     1
102
RTVSPropertyOp15
 70
     1
102
RTVSPropertyOp16
 70
     1
102
RTVSPropertyOp17
 70
     1
102
RTVSPropertyOp18
 70
     1
102
RTVSPropertyOp19
 70
     1
102
RTVSPropertyOp20
 70
     1
102
RTVSPropertyOp21
 70
     1
102
RTVSPropertyOp22
 70
     1
102
RTVSPropertyOp23
 70
     1
102
RTVSPropertyOp24
 70
     1
102
RTVSPropertyOp25
 70
     1
102
RTVSPropertyOp26
 70
     1
102
RTVSPropertyOp27
 70
     1
  0
XRECORD
  5
7340
102
{ACAD_REACTORS
330
733F
102
}
330
733F
100
AcDbXrecord
280
     1
102
RTVSPropertyOp0
 70
     1
102
RTVSPropertyOp1
 70
     1
102
RTVSPropertyOp2
 70
     1
102
RTVSPropertyOp3
 70
     1
102
RTVSPropertyOp4
 70
     1
102
RTVSPropertyOp5
 70
     1
102
RTVSPropertyOp6
 70
     1
102
RTVSPropertyOp7
 70
     1
102
RTVSPropertyOp8
 70
     1
102
RTVSPropertyOp9
 70
     1
102
RTVSPropertyOp10
 70
     1
102
RTVSPropertyOp11
 70
     1
102
RTVSPropertyOp12
 70
     1
102
RTVSPropertyOp13
 70
     1
102
RTVSPropertyOp14
 70
     1
102
RTVSPropertyOp15
 70
     1
102
RTVSPropertyOp16
 70
     1
102
RTVSPropertyOp17
 70
     1
102
RTVSPropertyOp18
 70
     1
102
RTVSPropertyOp19
 70
     1
102
RTVSPropertyOp20
 70
     1
102
RTVSPropertyOp21
 70
     1
102
RTVSPropertyOp22
 70
     1
102
RTVSPropertyOp23
 70
     1
102
RTVSPropertyOp24
 70
     1
102
RTVSPropertyOp25
 70
     1
102
RTVSPropertyOp26
 70
     1
102
RTVSPropertyOp27
 70
     1
  0
XRECORD
  5
7342
102
{ACAD_REACTORS
330
7341
102
}
330
7341
100
AcDbXrecord
280
     1
102
RTVSPropertyOp0
 70
     1
102
RTVSPropertyOp1
 70
     1
102
RTVSPropertyOp2
 70
     1
102
RTVSPropertyOp3
 70
     1
102
RTVSPropertyOp4
 70
     1
102
RTVSPropertyOp5
 70
     1
102
RTVSPropertyOp6
 70
     1
102
RTVSPropertyOp7
 70
     1
102
RTVSPropertyOp8
 70
     1
102
RTVSPropertyOp9
 70
     1
102
RTVSPropertyOp10
 70
     1
102
RTVSPropertyOp11
 70
     1
102
RTVSPropertyOp12
 70
     1
102
RTVSPropertyOp13
 70
     1
102
RTVSPropertyOp14
 70
     1
102
RTVSPropertyOp15
 70
     1
102
RTVSPropertyOp16
 70
     1
102
RTVSPropertyOp17
 70
     1
102
RTVSPropertyOp18
 70
     1
102
RTVSPropertyOp19
 70
     1
102
RTVSPropertyOp20
 70
     1
102
RTVSPropertyOp21
 70
     1
102
RTVSPropertyOp22
 70
     1
102
RTVSPropertyOp23
 70
     1
102
RTVSPropertyOp24
 70
     1
102
RTVSPropertyOp25
 70
     1
102
RTVSPropertyOp26
 70
     1
102
RTVSPropertyOp27
 70
     1
  0
XRECORD
  5
732C
102
{ACAD_REACTORS
330
732B
102
}
330
732B
100
AcDbXrecord
280
     1
102
RTVSPropertyOp0
 70
     1
102
RTVSPropertyOp1
 70
     1
102
RTVSPropertyOp2
 70
     1
102
RTVSPropertyOp3
 70
     1
102
RTVSPropertyOp4
 70
     1
102
RTVSPropertyOp5
 70
     1
102
RTVSPropertyOp6
 70
     1
102
RTVSPropertyOp7
 70
     1
102
RTVSPropertyOp8
 70
     1
102
RTVSPropertyOp9
 70
     1
102
RTVSPropertyOp10
 70
     1
102
RTVSPropertyOp11
 70
     1
102
RTVSPropertyOp12
 70
     1
102
RTVSPropertyOp13
 70
     1
102
RTVSPropertyOp14
 70
     1
102
RTVSPropertyOp15
 70
     1
102
RTVSPropertyOp16
 70
     1
102
RTVSPropertyOp17
 70
     1
102
RTVSPropertyOp18
 70
     1
102
RTVSPropertyOp19
 70
     1
102
RTVSPropertyOp20
 70
     1
102
RTVSPropertyOp21
 70
     1
102
RTVSPropertyOp22
 70
     1
102
RTVSPropertyOp23
 70
     1
102
RTVSPropertyOp24
 70
     1
102
RTVSPropertyOp25
 70
     1
102
RTVSPropertyOp26
 70
     1
102
RTVSPropertyOp27
 70
     1
  0
XRECORD
  5
7336
102
{ACAD_REACTORS
330
7335
102
}
330
7335
100
AcDbXrecord
280
     1
102
RTVSPropertyOp0
 70
     1
102
RTVSPropertyOp1
 70
     1
102
RTVSPropertyOp2
 70
     1
102
RTVSPropertyOp3
 70
     1
102
RTVSPropertyOp4
 70
     1
102
RTVSPropertyOp5
 70
     1
102
RTVSPropertyOp6
 70
     1
102
RTVSPropertyOp7
 70
     1
102
RTVSPropertyOp8
 70
     1
102
RTVSPropertyOp9
 70
     1
102
RTVSPropertyOp10
 70
     1
102
RTVSPropertyOp11
 70
     1
102
RTVSPropertyOp12
 70
     1
102
RTVSPropertyOp13
 70
     1
102
RTVSPropertyOp14
 70
     1
102
RTVSPropertyOp15
 70
     1
102
RTVSPropertyOp16
 70
     1
102
RTVSPropertyOp17
 70
     1
102
RTVSPropertyOp18
 70
     1
102
RTVSPropertyOp19
 70
     1
102
RTVSPropertyOp20
 70
     1
102
RTVSPropertyOp21
 70
     1
102
RTVSPropertyOp22
 70
     1
102
RTVSPropertyOp23
 70
     1
102
RTVSPropertyOp24
 70
     1
102
RTVSPropertyOp25
 70
     1
102
RTVSPropertyOp26
 70
     1
102
RTVSPropertyOp27
 70
     1
  0
XRECORD
  5
7344
102
{ACAD_REACTORS
330
7343
102
}
330
7343
100
AcDbXrecord
280
     1
102
RTVSPropertyOp0
 70
     1
102
RTVSPropertyOp1
 70
     1
102
RTVSPropertyOp2
 70
     1
102
RTVSPropertyOp3
 70
     1
102
RTVSPropertyOp4
 70
     1
102
RTVSPropertyOp5
 70
     1
102
RTVSPropertyOp6
 70
     1
102
RTVSPropertyOp7
 70
     1
102
RTVSPropertyOp8
 70
     1
102
RTVSPropertyOp9
 70
     1
102
RTVSPropertyOp10
 70
     1
102
RTVSPropertyOp11
 70
     1
102
RTVSPropertyOp12
 70
     1
102
RTVSPropertyOp13
 70
     1
102
RTVSPropertyOp14
 70
     1
102
RTVSPropertyOp15
 70
     1
102
RTVSPropertyOp16
 70
     1
102
RTVSPropertyOp17
 70
     1
102
RTVSPropertyOp18
 70
     1
102
RTVSPropertyOp19
 70
     1
102
RTVSPropertyOp20
 70
     1
102
RTVSPropertyOp21
 70
     1
102
RTVSPropertyOp22
 70
     1
102
RTVSPropertyOp23
 70
     1
102
RTVSPropertyOp24
 70
     1
102
RTVSPropertyOp25
 70
     1
102
RTVSPropertyOp26
 70
     1
102
RTVSPropertyOp27
 70
     1
  0
ENDSEC
  0
EOF
