  0
SECTION
  2
HEADER
  9
$ACADVER
  1
AC1018
  9
$ACADMAINTVER
 70
   104
  9
$DWGCODEPAGE
  3
ANSI_936
  9
$LASTSAVEDBY
  1
chaxiu.zhu
  9
$INSBASE
 10
0.0
 20
0.0
 30
0.0
  9
$EXTMIN
 10
22994.50819294917
 20
-27540.88321464434
 30
-0.00000001
  9
$EXTMAX
 10
24813.32001436184
 20
-25418.79473478415
 30
0.00000001
  9
$LIMMIN
 10
0.0
 20
0.0
  9
$LIMMAX
 10
420.0
 20
297.0
  9
$ORTHOMODE
 70
     1
  9
$REGENMODE
 70
     1
  9
$FILLMODE
 70
     1
  9
$QTEXTMODE
 70
     0
  9
$MIRRTEXT
 70
     0
  9
$LTSCALE
 40
1.0
  9
$ATTMODE
 70
     1
  9
$TEXTSIZE
 40
1.418
  9
$TRACEWID
 40
1.0
  9
$TEXTSTYLE
  7
Standard
  9
$CLAYER
  8
11111尺寸标注
  9
$CELTYPE
  6
ByLayer
  9
$CECOLOR
 62
   256
  9
$CELTSCALE
 40
1.0
  9
$DISPSILH
 70
     0
  9
$DIMSCALE
 40
12.0
  9
$DIMASZ
 40
1.8
  9
$DIMEXO
 40
1.0
  9
$DIMDLI
 40
3.75
  9
$DIMRND
 40
0.0
  9
$DIMDLE
 40
0.0
  9
$DIMEXE
 40
1.0
  9
$DIMTP
 40
0.0
  9
$DIMTM
 40
0.0
  9
$DIMTXT
 40
2.5
  9
$DIMCEN
 40
1.0
  9
$DIMTSZ
 40
0.0
  9
$DIMTOL
 70
     0
  9
$DIMLIM
 70
     0
  9
$DIMTIH
 70
     0
  9
$DIMTOH
 70
     0
  9
$DIMSE1
 70
     0
  9
$DIMSE2
 70
     0
  9
$DIMTAD
 70
     1
  9
$DIMZIN
 70
     8
  9
$DIMBLK
  1

  9
$DIMASO
 70
     1
  9
$DIMSHO
 70
     1
  9
$DIMPOST
  1

  9
$DIMAPOST
  1

  9
$DIMALT
 70
     0
  9
$DIMALTD
 70
     3
  9
$DIMALTF
 40
0.03937007874016
  9
$DIMLFAC
 40
1.0
  9
$DIMTOFL
 70
     1
  9
$DIMTVP
 40
0.0
  9
$DIMTIX
 70
     0
  9
$DIMSOXD
 70
     0
  9
$DIMSAH
 70
     0
  9
$DIMBLK1
  1

  9
$DIMBLK2
  1

  9
$DIMSTYLE
  2
新标注1比10
  9
$DIMCLRD
 70
   256
  9
$DIMCLRE
 70
   256
  9
$DIMCLRT
 70
     3
  9
$DIMTFAC
 40
1.0
  9
$DIMGAP
 40
1.0
  9
$DIMJUST
 70
     0
  9
$DIMSD1
 70
     0
  9
$DIMSD2
 70
     0
  9
$DIMTOLJ
 70
     1
  9
$DIMTZIN
 70
     8
  9
$DIMALTZ
 70
     0
  9
$DIMALTTZ
 70
     0
  9
$DIMUPT
 70
     0
  9
$DIMDEC
 70
     0
  9
$DIMTDEC
 70
     0
  9
$DIMALTU
 70
     2
  9
$DIMALTTD
 70
     3
  9
$DIMTXSTY
  7
TT宋体
  9
$DIMAUNIT
 70
     0
  9
$DIMADEC
 70
     0
  9
$DIMALTRND
 40
0.0
  9
$DIMAZIN
 70
     0
  9
$DIMDSEP
 70
    46
  9
$DIMATFIT
 70
     3
  9
$DIMFRAC
 70
     0
  9
$DIMLDRBLK
  1

  9
$DIMLUNIT
 70
     2
  9
$DIMLWD
 70
    -2
  9
$DIMLWE
 70
    -2
  9
$DIMTMOVE
 70
     0
  9
$LUNITS
 70
     2
  9
$LUPREC
 70
     4
  9
$SKETCHINC
 40
1.0
  9
$FILLETRAD
 40
5.0
  9
$AUNITS
 70
     0
  9
$AUPREC
 70
     0
  9
$MENU
  1
.
  9
$ELEVATION
 40
0.0
  9
$PELEVATION
 40
0.0
  9
$THICKNESS
 40
0.0
  9
$LIMCHECK
 70
     0
  9
$CHAMFERA
 40
0.0
  9
$CHAMFERB
 40
0.0
  9
$CHAMFERC
 40
0.0
  9
$CHAMFERD
 40
0.0
  9
$SKPOLY
 70
     0
  9
$TDCREATE
 40
2455289.395106007
  9
$TDUCREATE
 40
2455289.061772674
  9
$TDUPDATE
 40
2458925.662522558
  9
$TDUUPDATE
 40
2458925.329189225
  9
$TDINDWG
 40
23.7300912500
  9
$TDUSRTIMER
 40
23.7300909491
  9
$USRTIMER
 70
     1
  9
$ANGBASE
 50
0.0
  9
$ANGDIR
 70
     0
  9
$PDMODE
 70
    35
  9
$PDSIZE
 40
0.0
  9
$PLINEWID
 40
0.0
  9
$SPLFRAME
 70
     0
  9
$SPLINETYPE
 70
     6
  9
$SPLINESEGS
 70
     8
  9
$HANDSEED
  5
D1F
  9
$SURFTAB1
 70
     6
  9
$SURFTAB2
 70
     6
  9
$SURFTYPE
 70
     6
  9
$SURFU
 70
     6
  9
$SURFV
 70
     6
  9
$UCSBASE
  2

  9
$UCSNAME
  2

  9
$UCSORG
 10
0.0
 20
0.0
 30
0.0
  9
$UCSXDIR
 10
1.0
 20
0.0
 30
0.0
  9
$UCSYDIR
 10
0.0
 20
1.0
 30
0.0
  9
$UCSORTHOREF
  2

  9
$UCSORTHOVIEW
 70
     0
  9
$UCSORGTOP
 10
0.0
 20
0.0
 30
0.0
  9
$UCSORGBOTTOM
 10
0.0
 20
0.0
 30
0.0
  9
$UCSORGLEFT
 10
0.0
 20
0.0
 30
0.0
  9
$UCSORGRIGHT
 10
0.0
 20
0.0
 30
0.0
  9
$UCSORGFRONT
 10
0.0
 20
0.0
 30
0.0
  9
$UCSORGBACK
 10
0.0
 20
0.0
 30
0.0
  9
$PUCSBASE
  2

  9
$PUCSNAME
  2

  9
$PUCSORG
 10
0.0
 20
0.0
 30
0.0
  9
$PUCSXDIR
 10
1.0
 20
0.0
 30
0.0
  9
$PUCSYDIR
 10
0.0
 20
1.0
 30
0.0
  9
$PUCSORTHOREF
  2

  9
$PUCSORTHOVIEW
 70
     0
  9
$PUCSORGTOP
 10
0.0
 20
0.0
 30
0.0
  9
$PUCSORGBOTTOM
 10
0.0
 20
0.0
 30
0.0
  9
$PUCSORGLEFT
 10
0.0
 20
0.0
 30
0.0
  9
$PUCSORGRIGHT
 10
0.0
 20
0.0
 30
0.0
  9
$PUCSORGFRONT
 10
0.0
 20
0.0
 30
0.0
  9
$PUCSORGBACK
 10
0.0
 20
0.0
 30
0.0
  9
$USERI1
 70
     0
  9
$USERI2
 70
     0
  9
$USERI3
 70
     0
  9
$USERI4
 70
     0
  9
$USERI5
 70
     0
  9
$USERR1
 40
0.0
  9
$USERR2
 40
0.0
  9
$USERR3
 40
0.0
  9
$USERR4
 40
0.0
  9
$USERR5
 40
0.0
  9
$WORLDVIEW
 70
     1
  9
$SHADEDGE
 70
     3
  9
$SHADEDIF
 70
    70
  9
$TILEMODE
 70
     1
  9
$MAXACTVP
 70
    64
  9
$PINSBASE
 10
0.0
 20
0.0
 30
0.0
  9
$PLIMCHECK
 70
     0
  9
$PEXTMIN
 10
25.69999999999999
 20
19.5
 30
0.0
  9
$PEXTMAX
 10
231.3
 20
175.5
 30
0.0
  9
$PLIMMIN
 10
-20.0
 20
-7.5
  9
$PLIMMAX
 10
277.0
 20
202.5
  9
$UNITMODE
 70
     0
  9
$VISRETAIN
 70
     1
  9
$PLINEGEN
 70
     0
  9
$PSLTSCALE
 70
     1
  9
$TREEDEPTH
 70
  3020
  9
$CMLSTYLE
  2
Standard
  9
$CMLJUST
 70
     0
  9
$CMLSCALE
 40
20.0
  9
$PROXYGRAPHICS
 70
     1
  9
$MEASUREMENT
 70
     1
  9
$CELWEIGHT
370
    -1
  9
$ENDCAPS
280
     0
  9
$JOINSTYLE
280
     0
  9
$LWDISPLAY
290
     0
  9
$INSUNITS
 70
     4
  9
$HYPERLINKBASE
  1

  9
$STYLESHEET
  1

  9
$XEDIT
290
     1
  9
$CEPSNTYPE
380
     0
  9
$PSTYLEMODE
290
     1
  9
$FINGERPRINTGUID
  2
{63DB674D-59A7-4EB2-93C7-F7E13558FE6A}
  9
$VERSIONGUID
  2
{D353B221-4CE2-4776-AE54-C5817F26B4D4}
  9
$EXTNAMES
290
     1
  9
$PSVPSCALE
 40
0.0
  9
$OLESTARTUP
290
     0
  9
$SORTENTS
280
   127
  9
$INDEXCTL
280
     0
  9
$HIDETEXT
280
     1
  9
$XCLIPFRAME
290
     0
  9
$HALOGAP
280
     0
  9
$OBSCOLOR
 70
   257
  9
$OBSLTYPE
280
     0
  9
$INTERSECTIONDISPLAY
280
     0
  9
$INTERSECTIONCOLOR
 70
   257
  9
$DIMASSOC
280
     2
  9
$PROJECTNAME
  1

  0
ENDSEC
  0
SECTION
  2
CLASSES
  0
CLASS
  1
ACDBDICTIONARYWDFLT
  2
AcDbDictionaryWithDefault
  3
ObjectDBX Classes
 90
        0
 91
        1
280
     0
281
     0
  0
CLASS
  1
DICTIONARYVAR
  2
AcDbDictionaryVar
  3
ObjectDBX Classes
 90
        0
 91
        6
280
     0
281
     0
  0
CLASS
  1
TABLESTYLE
  2
AcDbTableStyle
  3
ObjectDBX Classes
 90
     4095
 91
        1
280
     0
281
     0
  0
CLASS
  1
MATERIAL
  2
AcDbMaterial
  3
ObjectDBX Classes
 90
        0
 91
        3
280
     0
281
     0
  0
CLASS
  1
VISUALSTYLE
  2
AcDbVisualStyle
  3
ObjectDBX Classes
 90
     4095
 91
       16
280
     0
281
     0
  0
CLASS
  1
SORTENTSTABLE
  2
AcDbSortentsTable
  3
ObjectDBX Classes
 90
        0
 91
        1
280
     0
281
     0
  0
CLASS
  1
DIMASSOC
  2
AcDbDimAssoc
  3
"ZcDbDimAssoc|Product Desc:     ZwDim ZRX App For Dimension|Company:          ZwSoft.|WEB Address:      www.zwsoft.com"
 90
        0
 91
        0
280
     0
281
     0
  0
CLASS
  1
EXACXREFPANELOBJECT
  2
ExAcXREFPanelObject
  3
EXAC_ESW
 90
     1025
 91
        0
280
     1
281
     0
  0
CLASS
  1
NPOCOLLECTION
  2
AcDbImpNonPersistentObjectsCollection
  3
ObjectDBX Classes
 90
     1153
 91
        0
280
     0
281
     0
  0
CLASS
  1
RASTERVARIABLES
  2
AcDbRasterVariables
  3
ISM
 90
        0
 91
        0
280
     0
281
     0
  0
CLASS
  1
IMAGEDEF
  2
AcDbRasterImageDef
  3
ISM
 90
        0
 91
        0
280
     0
281
     0
  0
CLASS
  1
IMAGEDEF_REACTOR
  2
AcDbRasterImageDefReactor
  3
ISM
 90
        1
 91
        0
280
     0
281
     0
  0
CLASS
  1
IMAGE
  2
AcDbRasterImage
  3
ISM
 90
     2175
 91
        0
280
     0
281
     1
  0
CLASS
  1
SCALE
  2
AcDbScale
  3
ObjectDBX Classes
 90
     1153
 91
       33
280
     1
281
     0
  0
CLASS
  1
MLEADERSTYLE
  2
AcDbMLeaderStyle
  3
ACDB_MLEADERSTYLE_CLASS
 90
     4095
 91
        1
280
     1
281
     0
  0
CLASS
  1
CELLSTYLEMAP
  2
AcDbCellStyleMap
  3
ObjectDBX Classes
 90
     1152
 91
        2
280
     1
281
     0
  0
CLASS
  1
SOLID_BACKGROUND
  2
AcDbSolidBackground
  3
SCENEOE
 90
     4095
 91
        0
280
     0
281
     0
  0
CLASS
  1
MULTILEADER
  2
AcDbMLeader
  3
ACDB_MLEADER_CLASS
 90
     1025
 91
        0
280
     1
281
     1
  0
CLASS
  1
ACDB_ALDIMOBJECTCONTEXTDATA_CLASS
  2
AcDbAlignedDimensionObjectContextData
  3
ObjectDBX Classes
 90
     1153
 91
        0
280
     1
281
     0
  0
CLASS
  1
SUN
  2
AcDbSun
  3
SCENEOE
 90
     1024
 91
        0
280
     0
281
     0
  0
CLASS
  1
ACAD_EVALUATION_GRAPH
  2
AcDbEvalGraph
  3
ObjectDBX Classes
 90
     1153
 91
        0
280
     0
281
     0
  0
CLASS
  1
ACAECUSTOBJ
  2
AcAeEditorObj
  3
AcAeEditorObj
 90
     1024
 91
        0
280
     1
281
     0
  0
ENDSEC
  0
SECTION
  2
TABLES
  0
TABLE
  2
VPORT
  5
27
102
{ACAD_XDICTIONARY
360
2E
102
}
330
0
100
AcDbSymbolTable
 70
     2
  0
VPORT
  5
CFF
330
27
100
AcDbSymbolTableRecord
100
AcDbViewportTableRecord
  2
*Active
 70
     0
 10
0.0
 20
0.0
 11
1.0
 21
1.0
 12
25032.51422681272
 22
-26303.11416888425
 13
0.0
 23
0.0
 14
10.0
 24
10.0
 15
10.0
 25
10.0
 16
0.0
 26
0.0
 36
1.0
 17
0.0
 27
0.0
 37
0.0
 40
3907.039555072188
 41
2.393442622950819
 42
50.0
 43
0.0
 44
0.0
 50
0.0
 51
0.0
 71
     0
 72
 20000
 73
     1
 74
     3
 75
     0
 76
     0
 77
     0
 78
     0
281
     0
 65
     1
110
0.0
120
0.0
130
0.0
111
1.0
121
0.0
131
0.0
112
0.0
122
1.0
132
0.0
 79
     0
146
0.0
  0
ENDTAB
  0
TABLE
  2
LTYPE
  5
22
330
0
100
AcDbSymbolTable
 70
     4
  0
LTYPE
  5
23
330
22
100
AcDbSymbolTableRecord
100
AcDbLinetypeTableRecord
  2
ByBlock
 70
     0
  3

 72
    65
 73
     0
 40
0.0
  0
LTYPE
  5
24
330
22
100
AcDbSymbolTableRecord
100
AcDbLinetypeTableRecord
  2
ByLayer
 70
     0
  3

 72
    65
 73
     0
 40
0.0
  0
LTYPE
  5
E
330
22
100
AcDbSymbolTableRecord
100
AcDbLinetypeTableRecord
  2
Continuous
 70
     0
  3
Solid line
 72
    65
 73
     0
 40
0.0
  0
LTYPE
  5
135
330
22
100
AcDbSymbolTableRecord
100
AcDbLinetypeTableRecord
  2
HIDDEN
 70
     0
  3
- - - - - - - - - - - - - - - - - - - -
 72
    65
 73
     2
 40
0.2
 49
0.1
 74
     0
 49
-0.1
 74
     0
  0
LTYPE
  5
8E
330
22
100
AcDbSymbolTableRecord
100
AcDbLinetypeTableRecord
  2
CENTER
 70
     0
  3
Center ____ _ ____ _ ____ _ ____ _ ____ _ ____
 72
    65
 73
     4
 40
50.8
 49
31.75
 74
     0
 49
-6.349999999999998
 74
     0
 49
6.349999999999998
 74
     0
 49
-6.349999999999998
 74
     0
  0
LTYPE
  5
321
330
22
100
AcDbSymbolTableRecord
100
AcDbLinetypeTableRecord
  2
CENTER2
 70
     0
  3
Center (.5x) ___ _ ___ _ ___ _ ___ _ ___ _ ___
 72
    65
 73
     4
 40
28.575
 49
19.05
 74
     0
 49
-3.174999999999999
 74
     0
 49
3.174999999999999
 74
     0
 49
-3.174999999999999
 74
     0
  0
ENDTAB
  0
TABLE
  2
LAYER
  5
19
102
{ACAD_XDICTIONARY
360
1A
102
}
330
0
100
AcDbSymbolTable
 70
    18
  0
LAYER
  5
6
102
{ACAD_XDICTIONARY
360
7
102
}
330
19
100
AcDbSymbolTableRecord
100
AcDbLayerTableRecord
  2
0
 70
     0
 62
     7
  6
Continuous
370
    20
390
9
  0
LAYER
  5
C2
330
19
100
AcDbSymbolTableRecord
100
AcDbLayerTableRecord
  2
Defpoints
 70
     0
 62
     9
  6
Continuous
290
     0
370
    18
390
9
  0
LAYER
  5
1B1
330
19
100
AcDbSymbolTableRecord
100
AcDbLayerTableRecord
  2
11111地面
 70
     0
 62
     4
  6
Continuous
370
     5
390
9
1001
AcAecLayerStandard
1000

1000

  0
LAYER
  5
8D
330
19
100
AcDbSymbolTableRecord
100
AcDbLayerTableRecord
  2
11111中心线
 70
     0
 62
     1
  6
CENTER
370
     5
390
9
1001
AcAecLayerStandard
1000

1000

  0
LAYER
  5
4A
330
19
100
AcDbSymbolTableRecord
100
AcDbLayerTableRecord
  2
11111外轮廓线
 70
     0
 62
   255
  6
Continuous
370
     5
390
9
1001
AcAecLayerStandard
1000

1000

  0
LAYER
  5
134
330
19
100
AcDbSymbolTableRecord
100
AcDbLayerTableRecord
  2
11111虚线
 70
     0
 62
     6
  6
HIDDEN
370
     5
390
9
1001
AcAecLayerStandard
1000

1000

  0
LAYER
  5
3D
330
19
100
AcDbSymbolTableRecord
100
AcDbLayerTableRecord
  2
11111尺寸标注
 70
     0
 62
     3
  6
Continuous
370
     5
390
9
1001
AcAecLayerStandard
1000

1000

  0
LAYER
  5
322
330
19
100
AcDbSymbolTableRecord
100
AcDbLayerTableRecord
  2
轮廓线.
 70
     0
 62
   255
  6
Continuous
370
    30
390
9
1001
AcAecLayerStandard
1000

1000

  0
LAYER
  5
323
330
19
100
AcDbSymbolTableRecord
100
AcDbLayerTableRecord
  2
不打印层
 70
     0
 62
    30
  6
Continuous
290
     0
370
    35
390
9
1001
AcAecLayerStandard
1000

1000

  0
LAYER
  5
324
330
19
100
AcDbSymbolTableRecord
100
AcDbLayerTableRecord
  2
图框层
 70
     0
 62
   255
  6
Continuous
370
    35
390
9
1001
AcAecLayerStandard
1000

1000

  0
LAYER
  5
325
330
19
100
AcDbSymbolTableRecord
100
AcDbLayerTableRecord
  2
细实线
 70
     0
 62
   210
  6
Continuous
370
    18
390
9
1001
AcAecLayerStandard
1000

1000

  0
LAYER
  5
326
330
19
100
AcDbSymbolTableRecord
100
AcDbLayerTableRecord
  2
图层1
 70
     0
 62
     3
  6
Continuous
370
    -3
390
9
1001
AcAecLayerStandard
1000

1000

  0
LAYER
  5
327
330
19
100
AcDbSymbolTableRecord
100
AcDbLayerTableRecord
  2
02___PRT_ALL_AXES
 70
     0
 62
     7
  6
Continuous
370
    -3
390
9
  0
LAYER
  5
328
330
19
100
AcDbSymbolTableRecord
100
AcDbLayerTableRecord
  2
06___PRT_ALL_SURFS
 70
     0
 62
     7
  6
Continuous
370
    -3
390
9
  0
LAYER
  5
329
330
19
100
AcDbSymbolTableRecord
100
AcDbLayerTableRecord
  2
图层 1
 70
     0
 62
     7
  6
Continuous
370
    -3
390
9
  0
LAYER
  5
32A
330
19
100
AcDbSymbolTableRecord
100
AcDbLayerTableRecord
  2
尺寸标注
 70
     0
 62
    80
  6
Continuous
370
    18
390
9
1001
AcAecLayerStandard
1000

1000

  0
LAYER
  5
32B
330
19
100
AcDbSymbolTableRecord
100
AcDbLayerTableRecord
  2
中心线－圆
 70
     0
 62
    10
  6
Continuous
370
    18
390
9
1001
AcAecLayerStandard
1000

1000

  0
LAYER
  5
32C
330
19
100
AcDbSymbolTableRecord
100
AcDbLayerTableRecord
  2
图层2
 70
     0
 62
     1
  6
Continuous
370
    -3
390
9
1001
AcAecLayerStandard
1000

1000

  0
ENDTAB
  0
TABLE
  2
STYLE
  5
1F
330
0
100
AcDbSymbolTable
 70
     3
  0
STYLE
  5
20
330
1F
100
AcDbSymbolTableRecord
100
AcDbTextStyleTableRecord
  2
Standard
 70
     0
 40
0.0
 41
1.0
 50
0.0
 71
     0
 42
1.418
  3
simplex.shx
  4
gbcbig.shx
  0
STYLE
  5
32
330
1F
100
AcDbSymbolTableRecord
100
AcDbTextStyleTableRecord
  2
TT宋体
 70
     0
 40
0.0
 41
1.0
 50
0.0
 71
     0
 42
2.5
  3
arial.ttf
  4

1001
ACAD
1000
Arial
1071
       34
  0
STYLE
  5
32D
330
1F
100
AcDbSymbolTableRecord
100
AcDbTextStyleTableRecord
  2
Arial
 70
     0
 40
0.0
 41
1.0
 50
0.0
 71
     0
 42
2.5
  3
arial.ttf
  4

1001
ACAD
1000
Arial
1071
       34
  0
ENDTAB
  0
TABLE
  2
VIEW
  5
25
330
0
100
AcDbSymbolTable
 70
     0
  0
ENDTAB
  0
TABLE
  2
UCS
  5
26
330
0
100
AcDbSymbolTable
 70
     0
  0
ENDTAB
  0
TABLE
  2
APPID
  5
2F
330
0
100
AcDbSymbolTable
 70
     8
  0
APPID
  5
1E
330
2F
100
AcDbSymbolTableRecord
100
AcDbRegAppTableRecord
  2
ACAD
 70
     0
  0
APPID
  5
12
330
2F
100
AcDbSymbolTableRecord
100
AcDbRegAppTableRecord
  2
ACAD_PSEXT
 70
     0
  0
APPID
  5
3E
330
2F
100
AcDbSymbolTableRecord
100
AcDbRegAppTableRecord
  2
AcAecLayerStandard
 70
     0
  0
APPID
  5
34
330
2F
100
AcDbSymbolTableRecord
100
AcDbRegAppTableRecord
  2
ACAD_DSTYLE_DIMTALN
 70
     0
  0
APPID
  5
33
330
2F
100
AcDbSymbolTableRecord
100
AcDbRegAppTableRecord
  2
ACAD_DSTYLE_DIMJAG
 70
     0
  0
APPID
  5
181
330
2F
100
AcDbSymbolTableRecord
100
AcDbRegAppTableRecord
  2
AcDbBlockRepETag
 70
     0
  0
APPID
  5
25F
330
2F
100
AcDbSymbolTableRecord
100
AcDbRegAppTableRecord
  2
ACAD_DSTYLE_DIMJOGGED_JOGANGLE_SYMBOL
 70
     0
  0
APPID
  5
D1E
330
2F
100
AcDbSymbolTableRecord
100
AcDbRegAppTableRecord
  2
ACAD_MLEADERVER
 70
     0
  0
ENDTAB
  0
TABLE
  2
DIMSTYLE
  5
30
330
0
100
AcDbSymbolTable
 70
     4
100
AcDbDimStyleTable
 71
     1
340
31
  0
DIMSTYLE
105
31
330
30
100
AcDbSymbolTableRecord
100
AcDbDimStyleTableRecord
  2
新标注1比10
 70
     0
 40
12.0
 41
1.8
 42
1.0
 43
3.75
 44
1.0
 73
     0
 74
     0
 77
     1
 78
     8
140
2.5
141
1.0
143
0.03937007874016
147
1.0
171
     3
172
     1
176
   256
177
   256
178
     3
271
     0
272
     0
274
     3
284
     8
340
32
1001
ACAD_DSTYLE_DIMJAG
1070
   388
1040
1.5
1001
ACAD_DSTYLE_DIMJOGGED_JOGANGLE_SYMBOL
1070
   384
1040
1.570796326794896
  0
DIMSTYLE
105
32E
330
30
100
AcDbSymbolTableRecord
100
AcDbDimStyleTableRecord
  2
STANDARD
 70
     0
 41
0.1875
 47
0.01
 48
0.01
 78
     8
140
0.15625
271
     2
272
     2
284
     8
340
20
  0
DIMSTYLE
105
32F
330
30
100
AcDbSymbolTableRecord
100
AcDbDimStyleTableRecord
  2
ISO-25
 70
     0
 40
7.0
 41
1.5
 42
0.625
 43
3.75
 44
0.5
 73
     0
 74
     0
 77
     1
 78
     8
140
2.5
141
2.5
143
0.03937007874016
147
0.3
171
     3
172
     1
271
     0
272
     0
274
     3
283
     0
284
     8
340
20
  0
DIMSTYLE
105
330
330
30
100
AcDbSymbolTableRecord
100
AcDbDimStyleTableRecord
  2
副本 ISO-25
 70
     0
 40
7.0
 41
1.5
 42
0.625
 43
3.75
 44
0.5
 73
     0
 77
     1
 78
     8
140
2.5
141
2.5
143
0.03937007874016
147
0.3
171
     3
172
     1
271
     0
272
     0
274
     3
283
     0
284
     8
340
20
  0
ENDTAB
  0
TABLE
  2
BLOCK_RECORD
  5
1
330
0
100
AcDbSymbolTable
 70
    13
  0
BLOCK_RECORD
  5
2
102
{ACAD_XDICTIONARY
360
3
102
}
330
1
100
AcDbSymbolTableRecord
100
AcDbBlockTableRecord
  2
*Model_Space
340
10
  0
BLOCK_RECORD
  5
13
330
1
100
AcDbSymbolTableRecord
100
AcDbBlockTableRecord
  2
*Paper_Space
340
16
  0
BLOCK_RECORD
  5
A8F
330
1
100
AcDbSymbolTableRecord
100
AcDbBlockTableRecord
  2
dsgfdf
340
0
310
2800000020000000200000000100080000000000000400000000000000000000000000000000000000000000000080000080000000808000800000008000800080800000C0C0C000C0DCC000F0CAA6000020400000206000002080000020A0000020C0000020E00000400000004020000040400000406000004080000040A0
310
000040C0000040E00000600000006020000060400000606000006080000060A0000060C0000060E00000800000008020000080400000806000008080000080A0000080C0000080E00000A0000000A0200000A0400000A0600000A0800000A0A00000A0C00000A0E00000C0000000C0200000C0400000C0600000C0800000C0
310
A00000C0C00000C0E00000E0000000E0200000E0400000E0600000E0800000E0A00000E0C00000E0E00040000000400020004000400040006000400080004000A0004000C0004000E00040200000402020004020400040206000402080004020A0004020C0004020E000404000004040200040404000404060004040800040
310
40A0004040C0004040E00040600000406020004060400040606000406080004060A0004060C0004060E00040800000408020004080400040806000408080004080A0004080C0004080E00040A0000040A0200040A0400040A0600040A0800040A0A00040A0C00040A0E00040C0000040C0200040C0400040C0600040C08000
310
40C0A00040C0C00040C0E00040E0000040E0200040E0400040E0600040E0800040E0A00040E0C00040E0E00080000000800020008000400080006000800080008000A0008000C0008000E00080200000802020008020400080206000802080008020A0008020C0008020E00080400000804020008040400080406000804080
310
008040A0008040C0008040E00080600000806020008060400080606000806080008060A0008060C0008060E00080800000808020008080400080806000808080008080A0008080C0008080E00080A0000080A0200080A0400080A0600080A0800080A0A00080A0C00080A0E00080C0000080C0200080C0400080C0600080C0
310
800080C0A00080C0C00080C0E00080E0000080E0200080E0400080E0600080E0800080E0A00080E0C00080E0E000C0000000C0002000C0004000C0006000C0008000C000A000C000C000C000E000C0200000C0202000C0204000C0206000C0208000C020A000C020C000C020E000C0400000C0402000C0404000C0406000C0
310
408000C040A000C040C000C040E000C0600000C0602000C0604000C0606000C0608000C060A000C060C000C060E000C0800000C0802000C0804000C0806000C0808000C080A000C080C000C080E000C0A00000C0A02000C0A04000C0A06000C0A08000C0A0A000C0A0C000C0A0E000C0C00000C0C02000C0C04000C0C06000
310
C0C08000C0C0A000F0FBFF00A4A0A000808080000000FF0000FF000000FFFF00FF000000FF00FF00FFFF0000FFFFFF0000000000000000000000000000000000000000000000000000000000000000000000000000000000000000000000000000000000000000000000000000000000000000000000000000000000000000
310
00000000000000000000000000000000000000000000000000000000000000000000000000000000000000000000000000000000000000000000000000000000000000000000000000000000000000000000000000000000000000000000000000000000000000000000000000000000000000000000000000000000000000
310
00000000000000000000000000000000000000000000000000000000000000000000000000000000000000000000000000000000000000000000000000000000000000000000000000000000000000000000000000000000000000FFFFFFFFFFFF0000000000000000000000000000000000000000FFFFFFFFFFFFFFFF0000
310
00FF0000000000000000000000000000000000000000FFFF0000FFFFFFFFFFFFFFFF0000000000000000000000000000000000000000FFFFFFFFFFFFFDFFFFFFFFFDFFFFFFFFFF000000000000000000000000000000FFFFFF000000FFFFFF00000000000000FFFFFFFFFFFFFFFF0000000000000000FFFF00000000000000
310
0000000000000000000000000000FF0000000000000000FFFF000000000000000000000000000000000000000000FF0000000000000000FFFF000000000000000000000000000000000000000000FF00000000000000FFFFFF00000000000000000000000000000000000000000000FF000000000000FFFFFF000000000000
310
00000000000000000000000000000000FF000000000000FFFFFF00000000000000000000000000000000000000000000FF000000000000FFFFFF00000000000000000000000000000000000000000000FF0000000000FFFFFFFFFFFFFFFFFFFFFFFFFFFFFFFFFFFFFFFFFFFFFFFFFFFFFFFFFFFF0000FFFFFFFFFFFFFFFFFF
310
FFFFFFFFFFFFFFFFFFFFFFFFFFFFFFFFFFFFFFFFFF00000000000000000000000000000000000000000000000000000000000000000000000000000000000000000000000000000000000000000000000000000000000000000000000000000000000000000000000000000000000000000000000000000000000000000000
310
00000000000000000000000000000000000000000000000000000000000000000000000000000000000000000000000000000000000000000000000000000000000000000000000000000000000000000000000000000000000000000000000000000000000000000000000000000000000000000000000000000000000000
310
0000000000000000000000000000000000000000000000000000000000000000000000000000000000000000000000000000000000000000
1001
ACAD
1000
DesignCenter Data
1002
{
1070
     1
1070
     4
1002
}
  0
BLOCK_RECORD
  5
C22
330
1
100
AcDbSymbolTableRecord
100
AcDbBlockTableRecord
  2
dfgdfg
340
0
310
2800000020000000200000000100080000000000000400000000000000000000000000000000000000000000000080000080000000808000800000008000800080800000C0C0C000C0DCC000F0CAA6000020400000206000002080000020A0000020C0000020E00000400000004020000040400000406000004080000040A0
310
000040C0000040E00000600000006020000060400000606000006080000060A0000060C0000060E00000800000008020000080400000806000008080000080A0000080C0000080E00000A0000000A0200000A0400000A0600000A0800000A0A00000A0C00000A0E00000C0000000C0200000C0400000C0600000C0800000C0
310
A00000C0C00000C0E00000E0000000E0200000E0400000E0600000E0800000E0A00000E0C00000E0E00040000000400020004000400040006000400080004000A0004000C0004000E00040200000402020004020400040206000402080004020A0004020C0004020E000404000004040200040404000404060004040800040
310
40A0004040C0004040E00040600000406020004060400040606000406080004060A0004060C0004060E00040800000408020004080400040806000408080004080A0004080C0004080E00040A0000040A0200040A0400040A0600040A0800040A0A00040A0C00040A0E00040C0000040C0200040C0400040C0600040C08000
310
40C0A00040C0C00040C0E00040E0000040E0200040E0400040E0600040E0800040E0A00040E0C00040E0E00080000000800020008000400080006000800080008000A0008000C0008000E00080200000802020008020400080206000802080008020A0008020C0008020E00080400000804020008040400080406000804080
310
008040A0008040C0008040E00080600000806020008060400080606000806080008060A0008060C0008060E00080800000808020008080400080806000808080008080A0008080C0008080E00080A0000080A0200080A0400080A0600080A0800080A0A00080A0C00080A0E00080C0000080C0200080C0400080C0600080C0
310
800080C0A00080C0C00080C0E00080E0000080E0200080E0400080E0600080E0800080E0A00080E0C00080E0E000C0000000C0002000C0004000C0006000C0008000C000A000C000C000C000E000C0200000C0202000C0204000C0206000C0208000C020A000C020C000C020E000C0400000C0402000C0404000C0406000C0
310
408000C040A000C040C000C040E000C0600000C0602000C0604000C0606000C0608000C060A000C060C000C060E000C0800000C0802000C0804000C0806000C0808000C080A000C080C000C080E000C0A00000C0A02000C0A04000C0A06000C0A08000C0A0A000C0A0C000C0A0E000C0C00000C0C02000C0C04000C0C06000
310
C0C08000C0C0A000F0FBFF00A4A0A000808080000000FF0000FF000000FFFF00FF000000FF00FF00FFFF0000FFFFFF0000000000000000000000000000000000000000000000000000000000000000000000000000000000000000000000000000000000000000000000000000000000000000000000000000000000000000
310
0000000000000000000000000000000000000000000000000000000000000000000000000000000000000000000000000000000000000000000000000000000000000000000000000000000000000000000000FFFFFFFFFFFFFFFFFFFFFFFFFFFFFFFFFFFFFFFFFFFFFFFFFFFFFFFF000000FFFFFFFFFFFFFFFFFFFFFFFFFF
310
FFFFFFFFFFFFFFFFFFFFFFFFFFFFFFFFFF0000FFFFFFFFFFFFFFFFFFFFFFFFFFFFFFFFFFFFFFFFFFFFFFFFFFFFFFFFFFFF0000FFFFFFFFFFFFFFFFFFFFFFFFFFFFFFFFFFFFFFFFFFFFFFFFFFFFFFFFFFFF0000FFFFFFFF00000000000000000000000000000000000000000000FFFFFFFF0000FFFFFFFF0000000000000000
310
0000000000000000000000000000FFFFFFFF0000FFFFFFFF00000000000000000000000000000000000000000000FFFFFFFF0000FFFFFFFF00000000000000000000000000000000000000000000FFFFFFFF0000FFFFFFFF00000000000000000000000000000000000000000000FFFFFFFF0000FFFFFFFF00000000000000
310
000000000000000000000000000000FFFFFFFF0000FFFFFFFF00000000000000000000000000000000000000000000FFFFFFFF0000FFFFFFFF00000000000000000000000000000000000000000000FFFFFFFF0000FFFFFFFF00000000000000000000FFFF00000000000000000000FFFFFFFF0000FFFFFFFF000000000000
310
000000FF00FFFF000000000000000000FFFFFFFF0000FFFFFFFF000000000000000000FF00FFFF000000000000000000FFFFFFFF0000FFFFFFFF00000000000000000000FFFF00000000000000000000FFFFFFFF0000FFFFFFFF00000000000000000000000000000000000000000000FFFFFFFF0000FFFFFFFF0000000000
310
0000000000000000000000000000000000FFFFFFFF0000FFFFFFFFFFFFFFFFFFFFFFFFFFFFFFFFFFFFFFFFFFFFFFFFFFFFFFFFFFFF0000FFFFFFFFFFFFFFFFFFFFFFFFFFFFFFFFFFFFFFFFFFFFFFFFFFFFFFFFFFFF0000FFFFFFFFFFFFFFFFFFFFFFFFFFFFFFFFFFFFFFFFFFFFFFFFFFFFFFFFFFFF000000FFFFFFFFFFFFFF
310
FFFFFFFFFFFFFFFFFFFFFFFFFFFFFFFFFFFFFFFFFF00000000000000000000000000000000000000000000000000000000000000000000000000000000000000000000000000000000000000000000000000000000000000000000000000000000000000000000000000000000000000000000000000000000000000000000
310
0000000000000000000000000000000000000000000000000000000000000000000000000000000000000000000000000000000000000000
1001
ACAD
1000
DesignCenter Data
1002
{
1070
     1
1070
     4
1002
}
  0
BLOCK_RECORD
  5
C8C
330
1
100
AcDbSymbolTableRecord
100
AcDbBlockTableRecord
  2
dfsgfd
340
0
310
2800000020000000200000000100080000000000000400000000000000000000000000000000000000000000000080000080000000808000800000008000800080800000C0C0C000C0DCC000F0CAA6000020400000206000002080000020A0000020C0000020E00000400000004020000040400000406000004080000040A0
310
000040C0000040E00000600000006020000060400000606000006080000060A0000060C0000060E00000800000008020000080400000806000008080000080A0000080C0000080E00000A0000000A0200000A0400000A0600000A0800000A0A00000A0C00000A0E00000C0000000C0200000C0400000C0600000C0800000C0
310
A00000C0C00000C0E00000E0000000E0200000E0400000E0600000E0800000E0A00000E0C00000E0E00040000000400020004000400040006000400080004000A0004000C0004000E00040200000402020004020400040206000402080004020A0004020C0004020E000404000004040200040404000404060004040800040
310
40A0004040C0004040E00040600000406020004060400040606000406080004060A0004060C0004060E00040800000408020004080400040806000408080004080A0004080C0004080E00040A0000040A0200040A0400040A0600040A0800040A0A00040A0C00040A0E00040C0000040C0200040C0400040C0600040C08000
310
40C0A00040C0C00040C0E00040E0000040E0200040E0400040E0600040E0800040E0A00040E0C00040E0E00080000000800020008000400080006000800080008000A0008000C0008000E00080200000802020008020400080206000802080008020A0008020C0008020E00080400000804020008040400080406000804080
310
008040A0008040C0008040E00080600000806020008060400080606000806080008060A0008060C0008060E00080800000808020008080400080806000808080008080A0008080C0008080E00080A0000080A0200080A0400080A0600080A0800080A0A00080A0C00080A0E00080C0000080C0200080C0400080C0600080C0
310
800080C0A00080C0C00080C0E00080E0000080E0200080E0400080E0600080E0800080E0A00080E0C00080E0E000C0000000C0002000C0004000C0006000C0008000C000A000C000C000C000E000C0200000C0202000C0204000C0206000C0208000C020A000C020C000C020E000C0400000C0402000C0404000C0406000C0
310
408000C040A000C040C000C040E000C0600000C0602000C0604000C0606000C0608000C060A000C060C000C060E000C0800000C0802000C0804000C0806000C0808000C080A000C080C000C080E000C0A00000C0A02000C0A04000C0A06000C0A08000C0A0A000C0A0C000C0A0E000C0C00000C0C02000C0C04000C0C06000
310
C0C08000C0C0A000F0FBFF00A4A0A000808080000000FF0000FF000000FFFF00FF000000FF00FF00FFFF0000FFFFFF0000000000000000000000000000000000000000000000000000000000000000000000000000000000000000000000000000000000000000000000000000000000000000000000000000000000000000
310
00000000000000000000000000000000000000000000000000000000000000000000000000000000000000000000000000000000000000000000000000000000000000000000000000000000000000000000000000000000000000000000000000000000000000000000000000000000000000000000000000000000000000
310
00000000000000000000000000000000000000000000000000000000000000000000000000000000000000000000000000000000000000000000000000000000000000000000000000000000000000000000000000000000000000000000000000000000000000000000000000000000000000000000000000000000000000
310
000000000000000000000000000000000000000000000000000000000000000000FFFFFFFF00000000000000000000000000000000000000000000000000000000FFFFFFFF0000000000000000000000000000000000000000000000FFFFFFFFFFFFFFFFFFFFFFFFFFFF00000000000000000000000000FFFFFFFFFFFFFFFF
310
FFFFFFFFFFFFFFFFFFFFFFFFFFFFFFFF0000000000000000FF00000000000000000000000000000000000000000000FF0000000000000000FF00000000000000000000000000000000000000000000FF00000000000000FF000000000000000000000000000000000000000000000000FF000000000000FF00000000000000
310
0000000000000000000000000000000000FF0000000000FFFFFFFFFFFFFFFFFFFFFFFFFFFFFFFFFFFFFFFFFFFFFFFFFFFFFFFF000000FFFFFFFFFFFFFFFFFFFFFFFFFFFFFFFFFFFFFFFFFFFFFFFFFFFFFFFFFFFF00000000000000000000000000000000000000000000000000000000000000000000000000000000000000
310
00000000000000000000000000000000000000000000000000000000000000000000000000000000000000000000000000000000000000000000000000000000000000000000000000000000000000000000000000000000000000000000000000000000000000000000000000000000000000000000000000000000000000
310
00000000000000000000000000000000000000000000000000000000000000000000000000000000000000000000000000000000000000000000000000000000000000000000000000000000000000000000000000000000000000000000000000000000000000000000000000000000000000000000000000000000000000
310
0000000000000000000000000000000000000000000000000000000000000000000000000000000000000000000000000000000000000000
1001
ACAD
1000
DesignCenter Data
1002
{
1070
     1
1070
     4
1002
}
  0
ENDTAB
  0
ENDSEC
  0
SECTION
  2
BLOCKS
  0
BLOCK
  5
5
330
2
100
AcDbEntity
  8
0
100
AcDbBlockBegin
  2
*Model_Space
 70
     0
 10
0.0
 20
0.0
 30
0.0
  3
*Model_Space
  1

  0
ENDBLK
  5
F
330
2
100
AcDbEntity
  8
0
100
AcDbBlockEnd
  0
BLOCK
  5
14
330
13
100
AcDbEntity
 67
     1
  8
0
100
AcDbBlockBegin
  2
*Paper_Space
 70
     0
 10
0.0
 20
0.0
 30
0.0
  3
*Paper_Space
  1

  0
ENDBLK
  5
15
330
13
100
AcDbEntity
 67
     1
  8
0
100
AcDbBlockEnd
  0
BLOCK
  5
A90
330
A8F
100
AcDbEntity
  8
0
100
AcDbBlockBegin
  2
dsgfdf
 70
     0
 10
0.0
 20
0.0
 30
0.0
  3
dsgfdf
  1

  0
LINE
  5
A92
330
A8F
100
AcDbEntity
  8
11111外轮廓线
 62
     7
370
     9
100
AcDbLine
 10
24443.32001434974
 20
-25418.79473479415
 30
0.0
 11
24807.32001435184
 21
-25418.79473479415
 31
0.0
  0
LINE
  5
A93
330
A8F
100
AcDbEntity
  8
11111外轮廓线
 62
     7
370
     9
100
AcDbLine
 10
24437.32001435078
 20
-25430.79473479207
 30
0.0
 11
24437.32001435078
 21
-25424.79473479311
 31
0.0
  0
LINE
  5
A94
330
A8F
100
AcDbEntity
  8
11111外轮廓线
 62
     7
370
     9
100
AcDbLine
 10
24453.51844883726
 20
-25554.01303055209
 30
0.0
 11
24449.42143959924
 21
-25436.69003630344
 31
0.0
  0
LINE
  5
A95
330
A8F
100
AcDbEntity
  8
11111外轮廓线
 62
     7
370
     9
100
AcDbLine
 10
24461.51357545302
 20
-25554.70878932566
 30
0.0
 11
24457.34598515728
 21
-25435.36495900441
 31
0.0
  0
LINE
  5
A96
330
A8F
100
AcDbEntity
  8
11111外轮廓线
 62
     7
370
     9
100
AcDbLine
 10
24477.65621804447
 20
-25543.2566251485
 30
0.0
 11
24465.5655952306
 21
-25438.87424820121
 31
0.0
  0
LINE
  5
A97
330
A8F
100
AcDbEntity
  8
11111外轮廓线
 62
     7
370
     9
100
AcDbLine
 10
24536.06261667469
 20
-25591.19805202899
 30
0.0
 11
24536.1004723343
 21
-25591.60350946039
 31
0.0
  0
LINE
  5
A98
330
A8F
100
AcDbEntity
  8
11111外轮廓线
 62
     7
370
     9
100
AcDbLine
 10
24600.52415608256
 20
-25595.79473479395
 30
0.0
 11
24540.11587261692
 21
-25595.79473479395
 31
0.0
  0
LINE
  5
A99
330
A8F
100
AcDbEntity
  8
11111外轮廓线
 62
     7
370
     9
100
AcDbLine
 10
24604.51867422254
 20
-25592.00407861861
 30
0.0
 11
24536.12135447694
 21
-25592.00407861861
 31
0.0
  0
LWPOLYLINE
  5
A9A
330
A8F
100
AcDbEntity
  8
11111外轮廓线
 62
     7
370
     9
100
AcDbPolyline
 90
        5
 70
     0
 43
0.0
 10
24531.2261799239
 20
-25586.86663535783
 10
24532.9483203074
 20
-25587.21648185651
 10
24534.44304885972
 20
-25588.14057062301
 10
24535.52572917848
 20
-25589.52475547973
 10
24536.06261667469
 20
-25591.19805202899
  0
LINE
  5
A9B
330
A8F
100
AcDbEntity
  8
11111外轮廓线
 62
     7
370
     9
100
AcDbLine
 10
24536.1003618443
 20
-25591.60351528714
 30
0.0
 11
24536.12135447694
 21
-25592.00407861861
 31
0.0
  0
LINE
  5
A9C
330
A8F
100
AcDbEntity
  8
11111外轮廓线
 62
     7
370
     9
100
AcDbLine
 10
24539.4369900326
 20
-25587.06154286742
 30
0.0
 11
24485.6468199525
 21
-25585.78451384414
 31
0.0
  0
LINE
  5
A9D
330
A8F
100
AcDbEntity
  8
11111外轮廓线
 62
     7
370
     9
100
AcDbLine
 10
24555.33654223394
 20
-25580.41215569633
 30
0.0
 11
24485.8366939441
 21
-25578.76172216713
 31
0.0
  0
LINE
  5
A9E
330
A8F
100
AcDbEntity
  8
11111外轮廓线
 62
     7
370
     9
100
AcDbLine
 10
24570.32001434974
 20
-25564.80790639943
 30
0.0
 11
24559.8120645859
 21
-25564.81020654723
 31
0.0
  0
LINE
  5
A9F
330
A8F
100
AcDbEntity
  8
11111外轮廓线
 62
     7
370
     9
100
AcDbLine
 10
24610.36244001784
 20
-25560.08034688073
 30
0.0
 11
24760.90501482744
 21
-25542.62613530967
 31
0.0
  0
LINE
  5
AA0
330
A8F
100
AcDbEntity
  8
11111外轮廓线
 62
     7
370
     9
100
AcDbLine
 10
24605.94514494592
 20
-25564.78539577897
 30
0.0
 11
24604.51867422254
 21
-25592.00407861861
 31
0.0
  0
LINE
  5
AA1
330
A8F
100
AcDbEntity
  8
11111外轮廓线
 62
     7
370
     9
100
AcDbLine
 10
24440.32001435025
 20
-25433.79473479409
 30
0.0
 11
24810.32001435132
 21
-25433.79473479409
 31
0.0
  0
LINE
  5
AA2
330
A8F
100
AcDbEntity
  8
11111外轮廓线
 62
     7
370
     9
100
AcDbLine
 10
24769.63614267885
 20
-25534.21898421189
 30
0.0
 11
24784.40761672232
 21
-25438.57368978277
 31
0.0
  0
LINE
  5
AA3
330
A8F
100
AcDbEntity
  8
11111外轮廓线
 62
     7
370
     9
100
AcDbLine
 10
24813.3200143508
 20
-25430.79473479207
 30
0.0
 11
24813.3200143508
 21
-25424.79473479311
 31
0.0
  0
ARC
  5
AA4
330
A8F
100
AcDbEntity
  8
11111外轮廓线
 62
     7
370
     9
100
AcDbCircle
 10
24486.42838877036
 20
-25552.86379012515
 30
0.0
 40
32.92999999966
100
AcDbArc
 50
181.9999999962461
 51
268.6399999998686
  0
ARC
  5
AA5
330
A8F
100
AcDbEntity
  8
11111外轮廓线
 62
     7
370
     9
100
AcDbCircle
 10
24759.76487694516
 20
-25532.61777954537
 30
0.0
 40
9.999999999959998
100
AcDbArc
 50
276.3708262759075
 51
351.2207049574572
  0
ARC
  5
AA6
330
A8F
100
AcDbEntity
  8
11111外轮廓线
 62
     7
370
     9
100
AcDbCircle
 10
24759.7533096353
 20
-25532.69267788173
 30
0.0
 40
9.999999999959998
100
AcDbArc
 50
276.6134603790373
 51
351.2205935003791
  0
ARC
  5
AA7
330
A8F
100
AcDbEntity
  8
11111外轮廓线
 62
     7
370
     9
100
AcDbCircle
 10
24457.61919349834
 20
-25439.79473479305
 30
0.0
 40
7.999794330579998
100
AcDbArc
 50
6.607517215816511
 51
49.27549451512127
  0
ARC
  5
AA8
330
A8F
100
AcDbEntity
  8
11111外轮廓线
 62
     7
370
     9
100
AcDbCircle
 10
24792.31341365136
 20
-25439.79473479305
 30
0.0
 40
7.999793771779999
100
AcDbArc
 50
131.2886388429337
 51
171.220080613861
  0
ARC
  5
AA9
330
A8F
100
AcDbEntity
  8
11111外轮廓线
 62
     7
370
     9
100
AcDbCircle
 10
24443.32001434974
 20
-25424.79473479311
 30
0.0
 40
5.999999998959999
100
AcDbArc
 50
90.0
 51
180.0
  0
ARC
  5
AAA
330
A8F
100
AcDbEntity
  8
11111外轮廓线
 62
     7
370
     9
100
AcDbCircle
 10
24807.3200143493
 20
-25424.79473479311
 30
0.0
 40
5.999999998959999
100
AcDbArc
 50
0.0
 51
90.0
  0
ARC
  5
AAB
330
A8F
100
AcDbEntity
  8
11111外轮廓线
 62
     7
370
     9
100
AcDbCircle
 10
24610.9382921402
 20
-25565.04707556549
 30
0.0
 40
4.999999941559998
100
AcDbArc
 50
96.61345503322593
 51
176.9999996551743
  0
ARC
  5
AAC
330
A8F
100
AcDbEntity
  8
11111外轮廓线
 62
     7
370
     9
100
AcDbCircle
 10
24600.52415608256
 20
-25591.79473479294
 30
0.0
 40
4.000000001
100
AcDbArc
 50
270.0
 51
356.9999999903897
  0
ARC
  5
AAD
330
A8F
100
AcDbEntity
  8
11111外轮廓线
 62
     7
370
     9
100
AcDbCircle
 10
24540.11587261692
 20
-25591.79473479294
 30
0.0
 40
4.000000001
100
AcDbArc
 50
183.0000000052303
 51
270.0
  0
ARC
  5
AAE
330
A8F
100
AcDbEntity
  8
11111外轮廓线
 62
     7
370
     9
100
AcDbCircle
 10
24810.32001435132
 20
-25430.79473479207
 30
0.0
 40
2.999999999479998
100
AcDbArc
 50
270.0
 51
0.0
  0
ARC
  5
AAF
330
A8F
100
AcDbEntity
  8
11111外轮廓线
 62
     7
370
     9
100
AcDbCircle
 10
24440.32001435025
 20
-25430.79473479207
 30
0.0
 40
2.999999999479998
100
AcDbArc
 50
180.0
 51
270.0
  0
ARC
  5
AB0
330
A8F
100
AcDbEntity
  8
11111外轮廓线
 62
     7
370
     9
100
AcDbCircle
 10
24446.43008493426
 20
-25436.7876747391
 30
0.0
 40
2.992939945019998
100
AcDbArc
 50
1.869482389562283
 51
90.13051761075876
  0
LINE
  5
AB1
330
A8F
100
AcDbEntity
  8
11111外轮廓线
 62
     7
370
     9
100
AcDbLine
 10
24760.87450424838
 20
-25542.55601856903
 30
0.0
 11
24760.90492204632
 21
-25542.62617553565
 31
0.0
  0
SPLINE
  5
AB2
330
A8F
100
AcDbEntity
  8
11111外轮廓线
 62
     7
370
     9
100
AcDbSpline
210
0.0
220
0.0
230
1.0
 70
     8
 71
     3
 72
     8
 73
     4
 74
     2
 42
0.0000000001
 43
0.0000000001
 44
0.0000000001
 12
-0.9866199687288606
 22
0.1630369200686215
 32
0.0
 13
-0.9714738174907571
 23
0.2371468362216432
 33
0.0
 40
0.0
 40
0.0
 40
0.0
 40
0.0
 40
0.7549461162262226
 40
0.7549461162262226
 40
0.7549461162262226
 40
0.7549461162262226
 10
24485.9659949047
 20
-25551.99499397603
 30
0.0
 10
24485.71771326684
 20
-25551.95396594617
 30
0.0
 10
24485.47080889505
 20
-25551.90350144945
 30
0.0
 10
24485.22633876654
 20
-25551.84382375512
 30
0.0
 11
24485.9659949047
 21
-25551.99499397603
 31
0.0
 11
24485.22633876654
 21
-25551.84382375512
 31
0.0
  0
SPLINE
  5
AB3
330
A8F
100
AcDbEntity
  8
11111外轮廓线
 62
     7
370
     9
100
AcDbSpline
210
0.0
220
0.0
230
1.0
 70
     8
 71
     3
 72
    23
 73
    19
 74
    17
 42
0.0000000001
 43
0.0000000001
 44
0.0000000001
 12
-0.9714738179718766
 22
0.2371468342507348
 32
0.0
 13
-0.1150618643366433
 23
0.9933583277827674
 33
0.0
 40
0.0
 40
0.0
 40
0.0
 40
0.0
 40
0.7573681145358017
 40
1.515608767382042
 40
2.273637989125705
 40
3.032104494224107
 40
3.791734466251524
 40
4.551548638219259
 40
5.310819010530615
 40
6.07056044818906
 40
6.831737866735225
 40
7.594729897829415
 40
8.358919946092965
 40
9.123385167194696
 40
9.88710698115083
 40
10.65070070180065
 40
11.41535532550538
 40
12.18152855660235
 40
12.18152855660235
 40
12.18152855660235
 40
12.18152855660235
 10
24485.22633876654
 20
-25551.84382375512
 30
0.0
 10
24484.98108433526
 20
-25551.78395460488
 30
0.0
 10
24484.49463997926
 20
-25551.64545621984
 30
0.0
 10
24483.78291881315
 20
-25551.38299532066
 30
0.0
 10
24483.09277796824
 20
-25551.06714624534
 30
0.0
 10
24482.42817615036
 20
-25550.69966093844
 30
0.0
 10
24481.79286403061
 20
-25550.28248977436
 30
0.0
 10
24481.19082962869
 20
-25549.8181476246
 30
0.0
 10
24480.62571042987
 20
-25549.30946988929
 30
0.0
 10
24480.10044820823
 20
-25548.75910242895
 30
0.0
 10
24479.61764424525
 20
-25548.16952712516
 30
0.0
 10
24479.18016044206
 20
-25547.54376727115
 30
0.0
 10
24478.79097962958
 20
-25546.88559996983
 30
0.0
 10
24478.45290339853
 20
-25546.19950673755
 30
0.0
 10
24478.16805166796
 20
-25545.4898826254
 30
0.0
 10
24477.93791249375
 20
-25544.76059755903
 30
0.0
 10
24477.76367656195
 20
-25544.01518013237
 30
0.0
 10
24477.68560381539
 20
-25543.51031998395
 30
0.0
 10
24477.65621804193
 20
-25543.25662513073
 30
0.0
 11
24485.22633876654
 21
-25551.84382375512
 31
0.0
 11
24484.49791919468
 21
-25551.6364318839
 31
0.0
 11
24483.78650714024
 21
-25551.37409283531
 31
0.0
 11
24483.09723227292
 21
-25551.05864322237
 31
0.0
 11
24482.43347506856
 21
-25550.69163121574
 31
0.0
 11
24481.79849880994
 21
-25550.27468656066
 31
0.0
 11
24481.19684727004
 21
-25549.8106466912
 31
0.0
 11
24480.63251735984
 21
-25549.30268680033
 31
0.0
 11
24480.10797664616
 21
-25548.75308322339
 31
0.0
 11
24479.6257125129
 21
-25548.16417544769
 31
0.0
 11
24479.18852883812
 21
-25547.53885371129
 31
0.0
 11
24478.79956362926
 21
-25546.88106005355
 31
0.0
 11
24478.46166040616
 21
-25546.19532797315
 31
0.0
 11
24478.17715599168
 21
-25545.48657678461
 31
0.0
 11
24477.94735591788
 21
-25544.75838223897
 31
0.0
 11
24477.77331712956
 21
-25544.01379698951
 31
0.0
 11
24477.65621804193
 21
-25543.25662513073
 31
0.0
  0
SPLINE
  5
AB4
330
A8F
100
AcDbEntity
  8
11111外轮廓线
 62
     7
370
     9
100
AcDbSpline
210
0.0
220
0.0
230
1.0
 70
     8
 71
     3
 72
    17
 73
    13
 74
    11
 42
0.0000000001
 43
0.0000000001
 44
0.0000000001
 12
-0.9999939306564892
 22
-0.0034840565702709
 32
0.0
 13
-0.9999989852097654
 23
0.0014246330894821
 33
0.0
 40
0.0
 40
0.0
 40
0.0
 40
0.0
 40
1.206276057794482
 40
2.526066467510086
 40
3.953195323196159
 40
5.480614974788951
 40
7.103084549247828
 40
8.813798199528886
 40
10.60639268600413
 40
12.47560784130303
 40
14.41306797459402
 40
16.4123495886508
 40
16.4123495886508
 40
16.4123495886508
 40
16.4123495886508
 10
24604.61863648896
 20
-25560.10081809962
 30
0.0
 10
24604.21654691013
 20
-25560.10221901096
 30
0.0
 10
24603.37452850564
 20
-25560.10476989891
 30
0.0
 10
24602.05680001227
 20
-25560.10775639454
 30
0.0
 10
24600.63202210438
 20
-25560.11003629593
 30
0.0
 10
24599.10635014257
 20
-25560.11160272622
 30
0.0
 10
24597.48614934091
 20
-25560.11244587519
 30
0.0
 10
24595.77755672292
 20
-25560.11256050763
 30
0.0
 10
24593.98671568205
 20
-25560.11196534841
 30
0.0
 10
24592.12029283433
 20
-25560.11067269468
 30
0.0
 10
24590.18497484137
 20
-25560.10870157254
 30
0.0
 10
24588.87272868945
 20
-25560.10699095784
 30
0.0
 10
24588.20630216104
 20
-25560.10604154359
 30
0.0
 11
24604.61863648896
 21
-25560.10081809962
 31
0.0
 11
24603.41236607702
 21
-25560.10450874757
 31
0.0
 11
24602.0925791357
 21
-25560.107534487
 31
0.0
 11
24600.66545216014
 21
-25560.10985103051
 31
0.0
 11
24599.13803334046
 21
-25560.11144519292
 31
0.0
 11
24597.51556399714
 21
-25560.11231123386
 31
0.0
 11
24595.80485035228
 21
-25560.11244745407
 31
0.0
 11
24594.01225595931
 21
-25560.11186845852
 31
0.0
 11
24592.14304124208
 21
-25560.1105887354
 31
0.0
 11
24590.20558209694
 21
-25560.10863195242
 31
0.0
 11
24588.20630216104
 21
-25560.10604154359
 31
0.0
  0
SPLINE
  5
AB5
330
A8F
100
AcDbEntity
  8
11111外轮廓线
 62
     7
370
     9
100
AcDbSpline
210
0.0
220
0.0
230
1.0
 70
     8
 71
     3
 72
    15
 73
    11
 74
     9
 42
0.0000000001
 43
0.0000000001
 44
0.0000000001
 12
0.9999997537497268
 22
0.0007017837884912
 32
0.0
 13
0.997857298348703
 23
0.0654279155424323
 33
0.0
 40
0.0
 40
0.0
 40
0.0
 40
0.0
 40
7.976584753838925
 40
16.80491018850539
 40
26.53205705661946
 40
37.21738071503725
 40
48.97360439552502
 40
61.91448059859727
 40
76.21894180012406
 40
92.15293784340607
 40
92.15293784340607
 40
92.15293784340607
 40
92.15293784340607
 10
24668.7190262483
 20
-25543.62141826195
 30
0.0
 10
24671.37788717817
 20
-25543.61955231599
 30
0.0
 10
24676.97952649384
 20
-25543.58941418517
 30
0.0
 10
24685.82279227925
 20
-25543.46686507441
 30
0.0
 10
24695.56746283476
 20
-25543.25194792976
 30
0.0
 10
24706.2856208037
 20
-25542.92932964277
 30
0.0
 10
24718.07134106202
 20
-25542.48053008034
 30
0.0
 10
24731.05835744929
 20
-25541.8853012374
 30
0.0
 10
24745.43097599427
 20
-25541.1148838877
 30
0.0
 10
24755.49148063014
 20
-25540.49443747631
 30
0.0
 10
24760.79143204469
 20
-25540.14692809385
 30
0.0
 11
24668.7190262483
 21
-25543.62141826195
 31
0.0
 11
24676.6955047327
 21
-25543.58024396024
 31
0.0
 11
24685.52300505074
 21
-25543.45954551228
 31
0.0
 11
24695.24782014514
 21
-25543.24657233651
 31
0.0
 11
24705.92835074746
 21
-25542.92656024603
 31
0.0
 11
24717.67613307862
 21
-25542.48113289457
 31
0.0
 11
24730.60351232414
 21
-25541.89024987262
 31
0.0
 11
24744.88753493714
 21
-25541.12584928561
 31
0.0
 11
24760.79143204469
 21
-25540.14692809385
 31
0.0
  0
SPLINE
  5
AB6
330
A8F
100
AcDbEntity
  8
11111外轮廓线
 62
     7
370
     9
100
AcDbSpline
210
0.0
220
0.0
230
1.0
 70
     8
 71
     3
 72
    13
 73
     9
 74
     7
 42
0.0000000001
 43
0.0000000001
 44
0.0000000001
 12
-0.0717360869219834
 22
-0.9974236481220614
 32
0.0
 13
0.9999945502215572
 23
-0.0033014431973597
 33
0.0
 40
0.0
 40
0.0
 40
0.0
 40
0.0
 40
0.6922465289352701
 40
1.31084182713878
 40
1.801203151140719
 40
2.144032674870734
 40
2.349980067243594
 40
2.453629130717923
 40
2.453629130717923
 40
2.453629130717923
 40
2.453629130717923
 10
24760.79143204469
 20
-25540.14692809385
 30
0.0
 10
24760.77487902563
 20
-25540.37708244661
 30
0.0
 10
24760.74583423194
 20
-25540.8129367424
 30
0.0
 10
24760.72019896868
 20
-25541.413451341
 30
0.0
 10
24760.71273681313
 20
-25541.89585329261
 30
0.0
 10
24760.74123249778
 20
-25542.2458400336
 30
0.0
 10
24760.76391278969
 20
-25542.45382628219
 30
0.0
 10
24760.83999734211
 20
-25542.5558620364
 30
0.0
 10
24760.87454684164
 20
-25542.55597610023
 30
0.0
 11
24760.79143204469
 21
-25540.14692809385
 31
0.0
 11
24760.74709948413
 21
-25540.83775360068
 31
0.0
 11
24760.72151132856
 21
-25541.45581944609
 31
0.0
 11
24760.72137582971
 21
-25541.94618075137
 31
0.0
 11
24760.74655827872
 21
-25542.28808413919
 31
0.0
 11
24760.79637448338
 21
-25542.48791575375
 31
0.0
 11
24760.87454684164
 21
-25542.55597610023
 31
0.0
  0
SPLINE
  5
AB7
330
A8F
100
AcDbEntity
  8
11111外轮廓线
 62
     7
370
     9
100
AcDbSpline
210
0.0
220
0.0
230
1.0
 70
     8
 71
     3
 72
    15
 73
    11
 74
     9
 42
0.0000000001
 43
0.0000000001
 44
0.0000000001
 12
-0.999998988449696
 22
0.001422357052556
 32
0.0
 13
-0.9999999999998061
 23
0.0000006225641087
 33
0.0
 40
0.0
 40
0.0
 40
0.0
 40
0.0
 40
2.099718062596058
 40
4.252767774875669
 40
6.452074486479354
 40
8.690919227823028
 40
10.96166263186061
 40
13.25625004750057
 40
15.56710895560712
 40
17.88628648113015
 40
17.88628648113015
 40
17.88628648113015
 40
17.88628648113015
 10
24588.2062947417
 20
-25560.10603735004
 30
0.0
 10
24587.50638942883
 20
-25560.10504183378
 30
0.0
 10
24586.08880154078
 20
-25560.1030688607
 30
0.0
 10
24583.93811169935
 20
-25560.10039229809
 30
0.0
 10
24581.74104581315
 20
-25560.09810821174
 30
0.0
 10
24579.50474823041
 20
-25560.09630806828
 30
0.0
 10
24577.23669005317
 20
-25560.09502377232
 30
0.0
 10
24574.94462693231
 20
-25560.09422993304
 30
0.0
 10
24572.6364190046
 20
-25560.09384942781
 30
0.0
 10
24571.09307352492
 20
-25560.09379621497
 30
0.0
 10
24570.32001434974
 20
-25560.09379573369
 30
0.0
 11
24588.2062947417
 21
-25560.10603735004
 31
0.0
 11
24586.1065786719
 21
-25560.10314449324
 31
0.0
 11
24583.9535306031
 21
-25560.1004842344
 31
0.0
 11
24581.7542250703
 21
-25560.09820715489
 31
0.0
 11
24579.51538105422
 21
-25560.09640507061
 31
0.0
 11
24577.24463801888
 21
-25560.09511106506
 31
0.0
 11
24574.95005074624
 21
-25560.09430097525
 31
0.0
 11
24572.63919187292
 21
-25560.09390000577
 31
0.0
 11
24570.32001434974
 21
-25560.09379573369
 31
0.0
  0
SPLINE
  5
AB8
330
A8F
100
AcDbEntity
  8
11111外轮廓线
 62
     7
370
     9
100
AcDbSpline
210
0.0
220
0.0
230
1.0
 70
     8
 71
     3
 72
    15
 73
    11
 74
     9
 42
0.0000000001
 43
0.0000000001
 44
0.0000000001
 12
-0.9904958291431118
 22
0.1375427658951913
 32
0.0
 13
-0.9866430969901966
 23
0.1628968973356881
 33
0.0
 40
0.0
 40
0.0
 40
0.0
 40
0.0
 40
3.046342336782482
 40
6.230553359591272
 40
9.565310589358556
 40
13.07228316082985
 40
16.77287296053435
 40
20.68856009920737
 40
24.84324621080238
 40
29.26668631138581
 40
29.26668631138581
 40
29.26668631138581
 40
29.26668631138581
 10
24514.07371763759
 20
-25560.79900422929
 30
0.0
 10
24513.06792117801
 20
-25560.65933677901
 30
0.0
 10
24511.01137401263
 20
-25560.36957586739
 30
0.0
 10
24507.85638443413
 20
-25559.90888290158
 30
0.0
 10
24504.55131641364
 20
-25559.41350096185
 30
0.0
 10
24501.07789923078
 20
-25558.88024168464
 30
0.0
 10
24497.414851382
 20
-25558.30619687456
 30
0.0
 10
24493.54019376611
 20
-25557.68803249615
 30
0.0
 10
24489.42920971295
 20
-25557.02187371853
 30
0.0
 10
24486.60758489215
 20
-25556.55876113088
 30
0.0
 10
24485.15279934542
 20
-25556.31857290823
 30
0.0
 11
24514.07371763759
 21
-25560.79900422929
 31
0.0
 11
24511.05723538506
 21
-25560.37352044221
 31
0.0
 11
24507.90632773971
 21
-25559.91419392627
 31
0.0
 11
24504.6083767207
 21
-25559.42010399751
 31
0.0
 11
24501.14196261976
 21
-25558.88828645561
 31
0.0
 11
24497.48594447842
 21
-25558.31566422773
 31
0.0
 11
24493.61911080748
 21
-25557.69905808985
 31
0.0
 11
24489.51786036636
 21
-25557.03485819142
 31
0.0
 11
24485.15279934542
 21
-25556.31857290823
 31
0.0
  0
SPLINE
  5
AB9
330
A8F
100
AcDbEntity
  8
11111外轮廓线
 62
     7
370
     9
100
AcDbSpline
210
0.0
220
0.0
230
1.0
 70
     8
 71
     3
 72
    25
 73
    21
 74
    19
 42
0.0000000001
 43
0.0000000001
 44
0.0000000001
 12
-0.9995782440802885
 22
0.0290402128326727
 32
0.0
 13
-0.9905133931742106
 23
0.1374162215406599
 33
0.0
 40
0.0
 40
0.0
 40
0.0
 40
0.0
 40
2.399051637426861
 40
4.746058644053288
 40
7.048987507624176
 40
9.317666120125473
 40
11.56359025031091
 40
13.80519670399623
 40
16.06233960920645
 40
18.34578658031929
 40
20.66366142589356
 40
23.02369934022934
 40
25.43374041437723
 40
27.90201275269204
 40
30.43724241104022
 40
33.04814077279655
 40
35.74400491361711
 40
38.53492773387637
 40
41.4303122592403
 40
44.43888088264357
 40
44.43888088264357
 40
44.43888088264357
 40
44.43888088264357
 10
24558.3392351592
 20
-25564.46259192623
 30
0.0
 10
24557.53988855147
 20
-25564.43936893618
 30
0.0
 10
24555.95865944704
 20
-25564.38906610476
 30
0.0
 10
24553.61061581177
 20
-25564.30156734481
 30
0.0
 10
24551.30649654024
 20
-25564.20324568705
 30
0.0
 10
24549.03659470904
 20
-25564.09416249261
 30
0.0
 10
24546.78772413133
 20
-25563.9739600429
 30
0.0
 10
24544.54337983493
 20
-25563.84173929177
 30
0.0
 10
24542.28731269608
 20
-25563.69640401157
 30
0.0
 10
24540.00672375188
 20
-25563.53680307344
 30
0.0
 10
24537.69286779735
 20
-25563.36178370718
 30
0.0
 10
24535.33799593096
 20
-25563.1700484944
 30
0.0
 10
24532.9343513176
 20
-25562.96007860641
 30
0.0
 10
24530.47388020046
 20
-25562.73008976215
 30
0.0
 10
24527.94827442374
 20
-25562.47805135388
 30
0.0
 10
24525.34890859471
 20
-25562.20168433516
 30
0.0
 10
24522.66675545587
 20
-25561.89837420411
 30
0.0
 10
24519.89258767301
 20
-25561.56537804915
 30
0.0
 10
24517.01753520658
 20
-25561.19891602788
 30
0.0
 10
24515.06706014284
 20
-25560.93681294012
 30
0.0
 10
24514.07371763759
 20
-25560.79900422929
 30
0.0
 11
24558.3392351592
 21
-25564.46259192623
 31
0.0
 11
24555.94139643952
 21
-25564.38631458069
 31
0.0
 11
24553.596018255
 21
-25564.29888998033
 31
0.0
 11
24551.29518431971
 21
-25564.20068329587
 31
0.0
 11
24549.0291221818
 21
-25564.09175655919
 31
0.0
 11
24546.78640136118
 21
-25563.97184609543
 31
0.0
 11
24544.54867539976
 21
-25563.84000522627
 31
0.0
 11
24542.29620144396
 21
-25563.69490121879
 31
0.0
 11
24540.01832605814
 21
-25563.53548416653
 31
0.0
 11
24537.7070543002
 21
-25563.3606509297
 31
0.0
 11
24535.35480148885
 21
-25563.16911589749
 31
0.0
 11
24532.95390495714
 21
-25562.95936885191
 31
0.0
 11
24530.49634685728
 21
-25562.72963743939
 31
0.0
 11
24527.97364827302
 21
-25562.47788106203
 31
0.0
 11
24525.37738396848
 21
-25562.20183411602
 31
0.0
 11
24522.69859112949
 21
-25561.89892754379
 31
0.0
 11
24519.92757127148
 21
-25561.56621274821
 31
0.0
 11
24517.05537663741
 21
-25561.20049491474
 31
0.0
 11
24514.07371763759
 21
-25560.79900422929
 31
0.0
  0
SPLINE
  5
ABA
330
A8F
100
AcDbEntity
  8
11111外轮廓线
 62
     7
370
     9
100
AcDbSpline
210
0.0
220
0.0
230
1.0
 70
     8
 71
     3
 72
    10
 73
     6
 74
     4
 42
0.0000000001
 43
0.0000000001
 44
0.0000000001
 12
0.1607073404562463
 22
0.9870021026945588
 32
0.0
 13
0.2148160161972888
 23
0.9766545342059934
 33
0.0
 40
0.0
 40
0.0
 40
0.0
 40
0.0
 40
5.535823619850443
 40
10.94793105209682
 40
16.23153984475071
 40
16.23153984475071
 40
16.23153984475071
 40
16.23153984475071
 10
24555.33654223394
 20
-25580.41215569633
 30
0.0
 10
24555.63309139767
 20
-25578.59086584535
 30
0.0
 10
24556.24445832847
 20
-25574.99296437647
 30
0.0
 10
24557.2374832485
 20
-25569.67410752704
 30
0.0
 10
24557.96090056187
 20
-25566.18267875434
 30
0.0
 10
24558.3392351592
 20
-25564.46259192623
 30
0.0
 11
24555.33654223394
 21
-25580.41215569633
 31
0.0
 11
24556.26630232768
 21
-25574.95496875449
 31
0.0
 11
24557.26302876704
 21
-25569.63543463361
 31
0.0
 11
24558.3392351592
 21
-25564.46259192623
 31
0.0
  0
SPLINE
  5
ABB
330
A8F
100
AcDbEntity
  8
11111外轮廓线
 62
     7
370
     9
100
AcDbSpline
210
0.0
220
0.0
230
1.0
 70
     8
 71
     3
 72
    15
 73
    11
 74
     9
 42
0.0000000001
 43
0.0000000001
 44
0.0000000001
 12
-0.9997150291591038
 22
0.0238717505309517
 32
0.0
 13
-0.0350318131894184
 23
0.9993861976556718
 33
0.0
 40
0.0
 40
0.0
 40
0.0
 40
0.0
 40
4.683307219686413
 40
9.381527925861075
 40
14.08330924630271
 40
18.78978172583255
 40
23.50103316984911
 40
28.2161702964019
 40
32.93430684797704
 40
37.64188219019676
 40
37.64188219019676
 40
37.64188219019676
 40
37.64188219019676
 10
24485.8366939441
 20
-25578.76172216713
 30
0.0
 10
24484.27603640621
 20
-25578.72445591992
 30
0.0
 10
24481.14879305762
 20
-25578.35503146183
 30
0.0
 10
24476.64749698246
 20
-25576.93113637795
 30
0.0
 10
24472.48478365628
 20
-25574.68404651189
 30
0.0
 10
24468.81538314627
 20
-25571.69210860136
 30
0.0
 10
24465.77095909193
 20
-25568.06021711545
 30
0.0
 10
24463.46273655802
 20
-25563.91628614476
 30
0.0
 10
24461.97635531476
 20
-25559.41467860052
 30
0.0
 10
24461.56854708634
 20
-25556.27701793281
 30
0.0
 10
24461.51357545302
 20
-25554.70878932566
 30
0.0
 11
24485.8366939441
 21
-25578.76172216713
 31
0.0
 11
24481.1858438097
 21
-25578.21130456083
 31
0.0
 11
24476.70622938058
 21
-25576.79485393679
 31
0.0
 11
24472.5689032839
 21
-25574.56118423091
 31
0.0
 11
24468.92121360952
 21
-25571.58708886594
 31
0.0
 11
24465.89477068096
 21
-25567.97647487813
 31
0.0
 11
24463.60010022078
 21
-25563.85737235435
 31
0.0
 11
24462.1213101583
 21
-25559.37697142693
 31
0.0
 11
24461.51357545302
 21
-25554.70878932566
 31
0.0
  0
SPLINE
  5
ABC
330
A8F
100
AcDbEntity
  8
11111外轮廓线
 62
     7
370
     9
100
AcDbSpline
210
0.0
220
0.0
230
1.0
 70
     8
 71
     3
 72
    10
 73
     6
 74
     4
 42
0.0000000001
 43
0.0000000001
 44
0.0000000001
 12
-0.9803860930010429
 22
0.1970865511650923
 32
0.0
 13
-0.9982884673090739
 23
0.0584819291550863
 33
0.0
 40
0.0
 40
0.0
 40
0.0
 40
0.0
 40
0.0914359727141709
 40
0.1826977305667298
 40
0.2744561009911231
 40
0.2744561009911231
 40
0.2744561009911231
 40
0.2744561009911231
 10
24457.61872764456
 20
-25435.39366457819
 30
0.0
 10
24457.58884679254
 20
-25435.38765764468
 30
0.0
 10
24457.52863530293
 20
-25435.37790050621
 30
0.0
 10
24457.43735750978
 20
-25435.37119703441
 30
0.0
 10
24457.37651893161
 20
-25435.36674773991
 30
0.0
 10
24457.34598515728
 20
-25435.36495900441
 30
0.0
 11
24457.61872764456
 21
-25435.39366457819
 31
0.0
 11
24457.52844023052
 21
-25435.37921743411
 31
0.0
 11
24457.43753005928
 21
-25435.37121435893
 31
0.0
 11
24457.34598515728
 21
-25435.36495900441
 31
0.0
  0
SPLINE
  5
ABD
330
A8F
100
AcDbEntity
  8
11111外轮廓线
 62
     7
370
     9
100
AcDbSpline
210
0.0
220
0.0
230
1.0
 70
     8
 71
     3
 72
    23
 73
    19
 74
    17
 42
0.0000000001
 43
0.0000000001
 44
0.0000000001
 12
-0.1150630431525198
 22
0.9933581912384282
 32
0.0
 13
-0.9780095905808277
 23
0.2085599212023296
 33
0.0
 40
0.0
 40
0.0
 40
0.0
 40
0.0
 40
0.2715492753193556
 40
0.5434173713470512
 40
0.8167819896038261
 40
1.092736557083102
 40
1.372256886422257
 40
1.656236389899214
 40
1.945479070307813
 40
2.240710652956211
 40
2.542579904457554
 40
2.85166010027801
 40
3.168449698826355
 40
3.493369022803362
 40
3.826763168315746
 40
4.168879315345842
 40
4.519898791464533
 40
4.879893881269038
 40
4.879893881269038
 40
4.879893881269038
 40
4.879893881269038
 10
24460.6029601343
 20
-25438.84023409601
 30
0.0
 10
24460.59254503898
 20
-25438.75031886369
 30
0.0
 10
24460.56686131916
 20
-25438.57090037142
 30
0.0
 10
24460.51297199614
 20
-25438.30387411714
 30
0.0
 10
24460.44271464421
 20
-25438.0391321919
 30
0.0
 10
24460.35493450936
 20
-25437.77696104192
 30
0.0
 10
24460.24841580482
 20
-25437.51797157763
 30
0.0
 10
24460.12194437853
 20
-25437.26313505173
 30
0.0
 10
24459.97436803507
 20
-25437.01377413832
 30
0.0
 10
24459.80465986508
 20
-25436.77156176519
 30
0.0
 10
24459.61198090737
 20
-25436.53850565932
 30
0.0
 10
24459.39574386125
 20
-25436.31692509281
 30
0.0
 10
24459.15567491974
 20
-25436.10941820587
 30
0.0
 10
24458.89186971033
 20
-25435.91881775239
 30
0.0
 10
24458.60485344619
 20
-25435.74814540347
 30
0.0
 10
24458.29560919909
 20
-25435.60053653578
 30
0.0
 10
24457.96568151672
 20
-25435.47919726714
 30
0.0
 10
24457.73608719469
 20
-25435.41869142738
 30
0.0
 10
24457.61872764456
 20
-25435.39366457819
 30
0.0
 11
24460.6029601343
 21
-25438.84023409601
 31
0.0
 11
24460.56433695526
 21
-25438.57144559371
 31
0.0
 11
24460.51041669226
 21
-25438.30497820945
 31
0.0
 11
24460.4401676608
 21
-25438.04079401595
 31
0.0
 11
24460.3524355401
 21
-25437.77915686586
 31
0.0
 11
24460.2460115213
 21
-25437.52068918367
 31
0.0
 11
24460.11968353164
 21
-25437.26635554959
 31
0.0
 11
24459.97230250814
 21
-25437.01747774407
 31
0.0
 11
24459.80284232128
 21
-25436.77572387654
 31
0.0
 11
24459.61046364838
 21
-25436.54309651097
 31
0.0
 11
24459.39457735676
 21
-25436.32190953907
 31
0.0
 11
24459.15490538246
 21
-25436.11475502069
 31
0.0
 11
24458.89154012814
 21
-25435.92446232532
 31
0.0
 11
24458.60499301518
 21
-25435.75404399204
 31
0.0
 11
24458.29625984042
 21
-25435.60664221166
 31
0.0
 11
24457.96682492652
 21
-25435.48545099862
 31
0.0
 11
24457.61872764456
 21
-25435.39366457819
 31
0.0
  0
LINE
  5
ABE
330
A8F
100
AcDbEntity
  8
11111外轮廓线
 62
     7
370
     9
100
AcDbLine
 10
24472.68942822954
 20
-25543.22260349189
 30
0.0
 11
24460.6029601343
 21
-25438.84023409601
 31
0.0
  0
SPLINE
  5
ABF
330
A8F
100
AcDbEntity
  8
11111外轮廓线
 62
     7
370
     9
100
AcDbSpline
210
0.0
220
0.0
230
1.0
 70
     8
 71
     3
 72
    24
 73
    20
 74
    18
 42
0.0000000001
 43
0.0000000001
 44
0.0000000001
 12
-0.9866433747023421
 22
0.1628952152642106
 32
0.0
 13
-0.1150646336870167
 23
0.9933580070017418
 33
0.0
 40
0.0
 40
0.0
 40
0.0
 40
0.0
 40
1.132353276570474
 40
2.268268600117065
 40
3.405440039633764
 40
4.542235029613705
 40
5.67962091737967
 40
6.818681752660995
 40
7.957951830548193
 40
9.096339513436005
 40
10.23536622147318
 40
11.376481985068
 40
12.52026075099498
 40
13.66578579919231
 40
14.81168206969099
 40
15.95642479866964
 40
17.10091525409669
 40
18.24694435119201
 40
19.39517819955549
 40
19.39517819955549
 40
19.39517819955549
 40
19.39517819955549
 10
24485.15279934542
 20
-25556.31857290823
 30
0.0
 10
24484.78038972603
 20
-25556.25708793132
 30
0.0
 10
24484.03871573115
 20
-25556.10582656702
 30
0.0
 10
24482.94590751409
 20
-25555.79486981086
 30
0.0
 10
24481.87832882715
 20
-25555.40154355717
 30
0.0
 10
24480.84321393351
 20
-25554.92820519983
 30
0.0
 10
24479.84638823503
 20
-25554.37748392943
 30
0.0
 10
24478.8935044568
 20
-25553.75230047173
 30
0.0
 10
24477.99053399914
 20
-25553.05642153024
 30
0.0
 10
24477.14293354454
 20
-25552.29409343623
 30
0.0
 10
24476.35511509358
 20
-25551.46927933812
 30
0.0
 10
24475.63098076799
 20
-25550.58569592903
 30
0.0
 10
24474.97482342398
 20
-25549.64787030892
 30
0.0
 10
24474.39111845195
 20
-25548.66145912978
 30
0.0
 10
24473.88407168181
 20
-25547.63317771995
 30
0.0
 10
24473.45687072401
 20
-25546.56962283841
 30
0.0
 10
24473.11175197352
 20
-25545.47660714113
 30
0.0
 10
24472.85050395103
 20
-25544.35944082426
 30
0.0
 10
24472.73346859859
 20
-25543.60280592095
 30
0.0
 10
24472.68942822954
 20
-25543.22260349189
 30
0.0
 11
24485.15279934542
 21
-25556.31857290823
 31
0.0
 11
24484.04331585954
 21
-25556.09214336616
 31
0.0
 11
24482.95074784656
 21
-25555.7813399568
 31
0.0
 11
24481.88369950314
 21
-25555.38819021985
 31
0.0
 11
24480.84986321166
 21
-25554.91544782523
 31
0.0
 11
24479.8543082965
 21
-25554.36543230855
 31
0.0
 11
24478.90192866202
 21
-25553.74058623287
 31
0.0
 11
24477.99953424635
 21
-25553.04515785487
 31
0.0
 11
24477.15311934786
 21
-25552.28390340583
 31
0.0
 11
24476.3663861004
 21
-25551.46023318119
 31
0.0
 11
24475.64306525596
 21
-25550.57765052675
 31
0.0
 11
24474.98736217062
 21
-25549.64048281003
 31
0.0
 11
24474.4039846531
 21
-25548.65463378097
 31
0.0
 11
24473.89720024376
 21
-25547.62689459947
 31
0.0
 11
24473.47051986014
 21
-25546.56464238564
 31
0.0
 11
24473.12591248484
 21
-25545.47326520086
 31
0.0
 11
24472.86495988762
 21
-25544.35734117415
 31
0.0
 11
24472.68942822954
 21
-25543.22260349189
 31
0.0
  0
LINE
  5
AC0
330
A8F
100
AcDbEntity
  8
11111外轮廓线
 62
     7
370
     9
100
AcDbLine
 10
24570.32001434974
 20
-25560.09379573369
 30
0.0
 11
24564.94339225058
 21
-25560.09476345083
 31
0.0
  0
LINE
  5
AC1
330
A8F
100
AcDbEntity
  8
11111外轮廓线
 62
     7
370
     9
100
AcDbLine
 10
24543.37962511658
 20
-25543.68029129889
 30
0.0
 11
24570.32001434974
 21
-25543.68593114283
 31
0.0
  0
LINE
  5
AC2
330
A8F
100
AcDbEntity
  8
11111外轮廓线
 62
     7
370
     9
100
AcDbLine
 10
24564.94339246648
 20
-25560.09476312063
 30
0.0
 11
24558.4822385816
 21
-25560.09523263963
 31
0.0
  0
SPLINE
  5
AC3
330
A8F
100
AcDbEntity
  8
11111外轮廓线
 62
     7
370
     9
100
AcDbSpline
210
0.0
220
0.0
230
1.0
 70
     8
 71
     3
 72
     9
 73
     5
 74
     3
 42
0.0000000001
 43
0.0000000001
 44
0.0000000001
 12
-0.0973937740688685
 22
-0.9952459257754448
 32
0.0
 13
-0.211565190511322
 23
-0.9773638883056342
 33
0.0
 40
0.0
 40
0.0
 40
0.0
 40
0.0
 40
0.2030622164100716
 40
1.620584007192741
 40
1.620584007192741
 40
1.620584007192741
 40
1.620584007192741
 10
24457.88439872865
 20
-25433.79540006581
 30
0.0
 10
24457.87780639678
 20
-25433.86276568033
 30
0.0
 10
24457.82054010758
 20
-25434.39996089135
 30
0.0
 10
24457.7186937338
 20
-25434.93185304179
 30
0.0
 10
24457.61872764456
 20
-25435.39366457819
 30
0.0
 11
24457.88439872865
 21
-25433.79540006581
 31
0.0
 11
24457.86275531754
 21
-25433.99730555481
 31
0.0
 11
24457.61872764456
 21
-25435.39366457819
 31
0.0
  0
SPLINE
  5
AC4
330
A8F
100
AcDbEntity
  8
11111外轮廓线
 62
     7
370
     9
100
AcDbSpline
210
0.0
220
0.0
230
1.0
 70
     8
 71
     3
 72
    25
 73
    21
 74
    19
 42
0.0000000001
 43
0.0000000001
 44
0.0000000001
 12
-0.9995695123726649
 22
0.029339221787102
 32
0.0
 13
-0.9904587881042164
 23
0.137809248844651
 33
0.0
 40
0.0
 40
0.0
 40
0.0
 40
0.0
 40
2.371962022202186
 40
4.692225549363628
 40
6.968605105281168
 40
9.210757636532417
 40
11.42999100297349
 40
13.64461617956283
 40
15.87450229738412
 40
18.13030701571214
 40
20.41999079330241
 40
22.75114743419663
 40
25.13146277483501
 40
27.56904898157229
 40
30.07256161434525
 40
32.6506551997327
 40
35.31255387079881
 40
38.06822743692378
 40
40.92695689211129
 40
43.89723889616155
 40
43.89723889616155
 40
43.89723889616155
 40
43.89723889616155
 10
24558.4822385816
 20
-25560.09523263963
 30
0.0
 10
24557.69192494097
 20
-25560.07203546635
 30
0.0
 10
24556.1286457743
 20
-25560.02184810817
 30
0.0
 10
24553.80740434685
 20
-25559.93463616005
 30
0.0
 10
24551.52989828215
 20
-25559.83672424876
 30
0.0
 10
24549.28659109865
 20
-25559.72815953702
 30
0.0
 10
24547.06445832085
 20
-25559.60857896667
 30
0.0
 10
24544.84709439233
 20
-25559.4770863485
 30
0.0
 10
24542.61832262232
 20
-25559.33260323436
 30
0.0
 10
24540.36542978277
 20
-25559.17398258925
 30
0.0
 10
24538.07980842087
 20
-25559.00008119301
 30
0.0
 10
24535.7538615782
 20
-25558.80962013243
 30
0.0
 10
24533.37996820255
 20
-25558.60110243615
 30
0.0
 10
24530.95018631314
 20
-25558.37276878906
 30
0.0
 10
24528.45628550693
 20
-25558.12262516085
 30
0.0
 10
24525.88970470665
 20
-25557.84841989641
 30
0.0
 10
24523.24149102337
 20
-25557.54762045548
 30
0.0
 10
24520.5025356127
 20
-25557.21739912612
 30
0.0
 10
24517.66403760817
 20
-25556.85463209222
 30
0.0
 10
24515.73855846084
 20
-25556.59409696928
 30
0.0
 10
24514.75791115616
 20
-25556.45765285867
 30
0.0
 11
24558.4822385816
 21
-25560.09523263963
 31
0.0
 11
24556.111498238
 21
-25560.01911392979
 31
0.0
 11
24553.7928715189
 21
-25559.93197626307
 31
0.0
 11
24551.51859388306
 21
-25559.83417484323
 31
0.0
 11
24549.27906383583
 21
-25559.72576293915
 31
0.0
 11
24547.06303880638
 21
-25559.60647419881
 31
0.0
 11
24544.8522978583
 21
-25559.47536686387
 31
0.0
 11
24542.62708254496
 21
-25559.33111393418
 31
0.0
 11
24540.37684883868
 21
-25559.17267405803
 31
0.0
 11
24538.09376450468
 21
-25558.99895668638
 31
0.0
 11
24535.77038525
 21
-25558.80869338645
 31
0.0
 11
24533.39920117856
 21
-25558.60039739461
 31
0.0
 11
24530.97230836916
 21
-25558.37232326858
 31
0.0
 11
24528.48129552036
 21
-25558.12246232813
 31
0.0
 11
24525.91779053054
 21
-25557.84858516189
 31
0.0
 11
24523.27289855591
 21
-25557.54816715719
 31
0.0
 11
24520.5370369131
 21
-25557.21832192915
 31
0.0
 11
24517.70137052704
 21
-25556.85592677891
 31
0.0
 11
24514.75791115616
 21
-25556.45765285867
 31
0.0
  0
SPLINE
  5
AC5
330
A8F
100
AcDbEntity
  8
11111外轮廓线
 62
     7
370
     9
100
AcDbSpline
210
0.0
220
0.0
230
1.0
 70
     8
 71
     3
 72
     8
 73
     4
 74
     2
 42
0.0000000001
 43
0.0000000001
 44
0.0000000001
 12
0.6051953124849875
 22
-0.7960770275207033
 32
0.0
 13
0.5503660961921814
 23
-0.8349234456895905
 33
0.0
 40
0.0
 40
0.0
 40
0.0
 40
0.0
 40
0.3234547076973071
 40
0.3234547076973071
 40
0.3234547076973071
 40
0.3234547076973071
 10
24453.12343393513
 20
-25433.77743852947
 30
0.0
 10
24453.1886850261
 20
-25433.86327015022
 30
0.0
 10
24453.25095172049
 20
-25433.95143996135
 30
0.0
 10
24453.31029122208
 20
-25434.04145993437
 30
0.0
 11
24453.12343393513
 21
-25433.77743852947
 31
0.0
 11
24453.31029122208
 21
-25434.04145993437
 31
0.0
  0
LINE
  5
AC6
330
A8F
100
AcDbEntity
  8
11111外轮廓线
 62
     7
370
     9
100
AcDbLine
 10
24453.31029122208
 20
-25434.04145993437
 30
0.0
 11
24453.43576430362
 21
-25434.24181340971
 31
0.0
  0
SPLINE
  5
AC7
330
A8F
100
AcDbEntity
  8
11111外轮廓线
 62
     7
370
     9
100
AcDbSpline
210
0.0
220
0.0
230
1.0
 70
     8
 71
     3
 72
     8
 73
     4
 74
     2
 42
0.0000000001
 43
0.0000000001
 44
0.0000000001
 12
0.511013383222669
 22
-0.8595727555985716
 32
0.0
 13
0.3515372973177384
 23
-0.9361738773297085
 33
0.0
 40
0.0
 40
0.0
 40
0.0
 40
0.0
 40
0.939400335103112
 40
0.939400335103112
 40
0.939400335103112
 40
0.939400335103112
 10
24453.43576430362
 20
-25434.24181340971
 30
0.0
 10
24453.59577968476
 20
-25434.51097438793
 30
0.0
 10
24453.73170749957
 20
-25434.79579043471
 30
0.0
 10
24453.84178558454
 20
-25435.08893778607
 30
0.0
 11
24453.43576430362
 21
-25434.24181340971
 31
0.0
 11
24453.84178558454
 21
-25435.08893778607
 31
0.0
  0
SPLINE
  5
AC8
330
A8F
100
AcDbEntity
  8
11111外轮廓线
 62
     7
370
     9
100
AcDbSpline
210
0.0
220
0.0
230
1.0
 70
     8
 71
     3
 72
     8
 73
     4
 74
     2
 42
0.0000000001
 43
0.0000000001
 44
0.0000000001
 12
0.0231872586705493
 22
-0.9997311393746546
 32
0.0
 13
-0.20738934351166
 23
-0.9782584833252419
 33
0.0
 40
0.0
 40
0.0
 40
0.0
 40
0.0
 40
1.215239303954481
 40
1.215239303954481
 40
1.215239303954481
 40
1.215239303954481
 10
24454.712382774
 20
-25433.8311490672
 30
0.0
 10
24454.72177546336
 20
-25434.23611992519
 30
0.0
 10
24454.67669667285
 20
-25434.64420657323
 30
0.0
 10
24454.5926874457
 20
-25435.04047929268
 30
0.0
 11
24454.712382774
 21
-25433.8311490672
 31
0.0
 11
24454.5926874457
 21
-25435.04047929268
 31
0.0
  0
LINE
  5
AC9
330
A8F
100
AcDbEntity
  8
11111外轮廓线
 62
     7
370
     9
100
AcDbLine
 10
24514.75794544362
 20
-25556.45744658781
 30
0.0
 11
24486.03810129846
 21
-25551.67407032527
 31
0.0
  0
SPLINE
  5
ACA
330
A8F
100
AcDbEntity
  8
11111外轮廓线
 62
     7
370
     9
100
AcDbSpline
210
0.0
220
0.0
230
1.0
 70
     8
 71
     3
 72
    15
 73
    11
 74
     9
 42
0.0000000001
 43
0.0000000001
 44
0.0000000001
 12
-0.99046889945757
 22
0.1377365572653473
 32
0.0
 13
-0.9866385500869812
 23
0.1629244348839653
 33
0.0
 40
0.0
 40
0.0
 40
0.0
 40
0.0
 40
3.022871234586482
 40
6.185957312158876
 40
9.501829917944995
 40
12.99196895122064
 40
16.67759563694231
 40
20.58007955473447
 40
24.72319180422842
 40
29.13655043986589
 40
29.13655043986589
 40
29.13655043986589
 40
29.13655043986589
 10
24514.75779603574
 20
-25556.45898780646
 30
0.0
 10
24513.7597760541
 20
-25556.32020118082
 30
0.0
 10
24511.71813903989
 20
-25556.03116908452
 30
0.0
 10
24508.5840984399
 20
-25555.57347431536
 30
0.0
 10
24505.2978467919
 20
-25555.08037508777
 30
0.0
 10
24501.84117439985
 20
-25554.5493791017
 30
0.0
 10
24498.19299064682
 20
-25553.9773689087
 30
0.0
 10
24494.33145262905
 20
-25553.36105277691
 30
0.0
 10
24490.23195698678
 20
-25552.69663774087
 30
0.0
 10
24487.4174992824
 20
-25552.2344265366
 30
0.0
 10
24485.9660360273
 20
-25551.99474521605
 30
0.0
 11
24514.75779603574
 21
-25556.45898780646
 31
0.0
 11
24511.7647238507
 21
-25556.03558563829
 31
0.0
 11
24508.63478879232
 21
-25555.57883618349
 31
0.0
 11
24505.35557466496
 21
-25555.08713928016
 31
0.0
 11
24501.9058511123
 21
-25554.55753765459
 31
0.0
 11
24498.26465986029
 21
-25553.98694994639
 31
0.0
 11
24494.41090095365
 21
-25553.37219550914
 31
0.0
 11
24490.32110496256
 21
-25552.7096641037
 31
0.0
 11
24485.9660360273
 21
-25551.99474521605
 31
0.0
  0
LINE
  5
ACB
330
A8F
100
AcDbEntity
  8
11111外轮廓线
 62
     7
370
     9
100
AcDbLine
 10
24485.9660360273
 20
-25551.99474521605
 30
0.0
 11
24486.03843492238
 21
-25551.67348354209
 31
0.0
  0
SPLINE
  5
ACC
330
A8F
100
AcDbEntity
  8
11111外轮廓线
 62
     7
370
     9
100
AcDbSpline
210
0.0
220
0.0
230
1.0
 70
     8
 71
     3
 72
     9
 73
     5
 74
     3
 42
0.0000000001
 43
0.0000000001
 44
0.0000000001
 12
-0.0526359510192635
 22
-0.9986137675098905
 32
0.0
 13
-0.0770807383801136
 23
-0.9970248541389409
 33
0.0
 40
0.0
 40
0.0
 40
0.0
 40
0.0
 40
0.1742712341607576
 40
1.572966107594767
 40
1.572966107594767
 40
1.572966107594767
 40
1.572966107594767
 10
24457.44289284256
 20
-25433.79498680781
 30
0.0
 10
24457.43983519851
 20
-25433.85299669238
 30
0.0
 10
24457.41128522695
 20
-25434.37653660902
 30
0.0
 10
24457.38193457061
 20
-25434.90011530236
 30
0.0
 10
24457.34599709274
 20
-25435.36495981975
 30
0.0
 11
24457.44289284256
 21
-25433.79498680781
 31
0.0
 11
24457.43349918342
 21
-25433.96900468684
 31
0.0
 11
24457.34599709274
 21
-25435.36495981975
 31
0.0
  0
SPLINE
  5
ACD
330
A8F
100
AcDbEntity
  8
11111外轮廓线
 62
     7
370
     9
100
AcDbSpline
210
0.0
220
0.0
230
1.0
 70
     8
 71
     3
 72
    12
 73
     8
 74
     6
 42
0.0000000001
 43
0.0000000001
 44
0.0000000001
 12
-0.1150608239158908
 22
0.9933584482953758
 32
0.0
 13
-0.9935523402739894
 23
-0.1133743671915255
 33
0.0
 40
0.0
 40
0.0
 40
0.0
 40
0.0
 40
0.3033668503461037
 40
1.020698341811656
 40
2.116605594149183
 40
3.492717927384811
 40
5.019988131934558
 40
5.019988131934558
 40
5.019988131934558
 40
5.019988131934558
 10
24465.5655952306
 20
-25438.87424820121
 30
0.0
 10
24465.55396001735
 20
-25438.77379752664
 30
0.0
 10
24465.11518154867
 20
-25438.66757936356
 30
0.0
 10
24464.49947176923
 20
-25438.61545017196
 30
0.0
 10
24463.39106236741
 20
-25438.61486355847
 30
0.0
 10
24462.07689800017
 20
-25438.69055608838
 30
0.0
 10
24461.10876776296
 20
-25438.78251633168
 30
0.0
 10
24460.6029601343
 20
-25438.84023409601
 30
0.0
 11
24465.5655952306
 21
-25438.87424820121
 31
0.0
 11
24465.30566861304
 21
-25438.71782058417
 31
0.0
 11
24464.59352424358
 21
-25438.63171096975
 31
0.0
 11
24463.49764273202
 21
-25438.62419975541
 31
0.0
 11
24462.12340528746
 21
-25438.69600922317
 31
0.0
 11
24460.6029601343
 21
-25438.84023409601
 31
0.0
  0
SPLINE
  5
ACE
330
A8F
100
AcDbEntity
  8
11111外轮廓线
 62
     7
370
     9
100
AcDbSpline
210
0.0
220
0.0
230
1.0
 70
     8
 71
     3
 72
    15
 73
    11
 74
     9
 42
0.0000000001
 43
0.0000000001
 44
0.0000000001
 12
-0.9999976037641541
 22
0.0021891701508914
 32
0.0
 13
-0.9999999999999811
 23
0.0000001937371471
 33
0.0
 40
0.0
 40
0.0
 40
0.0
 40
0.0
 40
1.85719756558043
 40
3.762790934676186
 40
5.710437293012802
 40
7.694185118879454
 40
9.707216854681279
 40
11.74228817649163
 40
13.79254007724559
 40
15.85065149536948
 40
15.85065149536948
 40
15.85065149536948
 40
15.85065149536948
 10
24586.1706524706
 20
-25564.82534355531
 30
0.0
 10
24585.55158809883
 20
-25564.82398831481
 30
0.0
 10
24584.29732731993
 20
-25564.82130429643
 30
0.0
 10
24582.3938517184
 20
-25564.81764527299
 30
0.0
 10
24580.44819176965
 20
-25564.81446385992
 30
0.0
 10
24578.46671810433
 20
-25564.81188313731
 30
0.0
 10
24576.45610202249
 20
-25564.80996080319
 30
0.0
 10
24574.42331739642
 20
-25564.80869448928
 30
0.0
 10
24572.37550593465
 20
-25564.80802482723
 30
0.0
 10
24571.00605148911
 20
-25564.80790653234
 30
0.0
 10
24570.32001434974
 20
-25564.80790639943
 30
0.0
 11
24586.1706524706
 21
-25564.82534355531
 31
0.0
 11
24584.3134590806
 21
-25564.82140531579
 31
0.0
 11
24582.40786919354
 21
-25564.8177624224
 31
0.0
 11
24580.46022541802
 21
-25564.81459054405
 31
0.0
 11
24578.47647927122
 21
-25564.81200951797
 31
0.0
 11
24576.46344846112
 21
-25564.81007899097
 31
0.0
 11
24574.4283775427
 21
-25564.80879764225
 31
0.0
 11
24572.37812575802
 21
-25564.80810775285
 31
0.0
 11
24570.32001434974
 21
-25564.80790639943
 31
0.0
  0
SPLINE
  5
ACF
330
A8F
100
AcDbEntity
  8
11111外轮廓线
 62
     7
370
     9
100
AcDbSpline
210
0.0
220
0.0
230
1.0
 70
     8
 71
     3
 72
    17
 73
    13
 74
    11
 42
0.0000000001
 43
0.0000000001
 44
0.0000000001
 12
-0.9999849280309531
 22
-0.0054903288544037
 32
0.0
 13
-0.9999976106802721
 23
0.002186008633757
 33
0.0
 40
0.0
 40
0.0
 40
0.0
 40
0.0
 40
1.082445579716413
 40
2.262333665091142
 40
3.534545817684324
 40
4.893247136245713
 40
6.334205115345353
 40
7.851691411324853
 40
9.440405088630404
 40
11.09599810836779
 40
12.81133513485221
 40
14.58108198177574
 40
14.58108198177574
 40
14.58108198177574
 40
14.58108198177574
 10
24600.75170267852
 20
-25564.8180021806
 30
0.0
 10
24600.39089292348
 20
-25564.81998317467
 30
0.0
 10
24599.63678975539
 20
-25564.82353114028
 30
0.0
 10
24598.45861455496
 20
-25564.82758454645
 30
0.0
 10
24597.1883508296
 20
-25564.83063253488
 30
0.0
 10
24595.83106178016
 20
-25564.83270240891
 30
0.0
 10
24594.39201355984
 20
-25564.83381647026
 30
0.0
 10
24592.87629415213
 20
-25564.83397572497
 30
0.0
 10
24591.28902992271
 20
-25564.83321255026
 30
0.0
 10
24589.63581613176
 20
-25564.83152839617
 30
0.0
 10
24587.92225907158
 20
-25564.82893173459
 30
0.0
 10
24586.76056667675
 20
-25564.82663311594
 30
0.0
 10
24586.1706524706
 20
-25564.82534355531
 30
0.0
 11
24600.75170267852
 21
-25564.8180021806
 31
0.0
 11
24599.66926938746
 21
-25564.82316003415
 31
0.0
 11
24598.4893885011
 21
-25564.82728168453
 31
0.0
 11
24597.21718013112
 21
-25564.83038403291
 31
0.0
 11
24595.8584804533
 21
-25564.83249556285
 31
0.0
 11
24594.41752292882
 21
-25564.83364018844
 31
0.0
 11
24592.90003664452
 21
-25564.8338284507
 31
0.0
 11
24591.31132314174
 21
-25564.83308377604
 31
0.0
 11
24589.65573096397
 21
-25564.83141407149
 31
0.0
 11
24587.94039588564
 21
-25564.82882882901
 31
0.0
 11
24586.1706524706
 21
-25564.82534355531
 31
0.0
  0
LINE
  5
AD0
330
A8F
100
AcDbEntity
  8
11111外轮廓线
 62
     7
370
     9
100
AcDbLine
 10
24605.94514494592
 20
-25564.78539577897
 30
0.0
 11
24600.75170267852
 21
-25564.8180021806
 31
0.0
  0
SPLINE
  5
AD1
330
A8F
100
AcDbEntity
  8
11111外轮廓线
 62
     7
370
     9
100
AcDbSpline
210
0.0
220
0.0
230
1.0
 70
     8
 71
     3
 72
    11
 73
     7
 74
     5
 42
0.0000000001
 43
0.0000000001
 44
0.0000000001
 12
1.0
 22
0.0
 32
0.0
 13
0.0627881095020724
 23
-0.9980268800514121
 33
0.0
 40
0.0
 40
0.0
 40
0.0
 40
0.0
 40
1.05433227143467
 40
2.126811971087851
 40
3.230215248028816
 40
4.360626231362008
 40
4.360626231362008
 40
4.360626231362008
 40
4.360626231362008
 10
24447.32001435073
 20
-25433.79473479409
 30
0.0
 10
24447.67145844121
 20
-25433.79473479409
 30
0.0
 10
24448.38840940389
 20
-25433.9415869167
 30
0.0
 10
24449.29643995636
 20
-25434.56860655676
 30
0.0
 10
24449.92268506185
 20
-25435.50473543551
 30
0.0
 10
24450.098462784
 20
-25436.24667168122
 30
0.0
 10
24450.12212157354
 20
-25436.62273186351
 30
0.0
 11
24447.32001435073
 21
-25433.79473479409
 31
0.0
 11
24448.35302458342
 21
-25434.00570018877
 31
0.0
 11
24449.23927532044
 21
-25434.60966404307
 31
0.0
 11
24449.85722339366
 21
-25435.52379694936
 31
0.0
 11
24450.12212157354
 21
-25436.62273186351
 31
0.0
  0
SPLINE
  5
AD2
330
A8F
100
AcDbEntity
  8
11111外轮廓线
 62
     7
370
     9
100
AcDbSpline
210
0.0
220
0.0
230
1.0
 70
     8
 71
     3
 72
    11
 73
     7
 74
     5
 42
0.0000000001
 43
0.0000000001
 44
0.0000000001
 12
-0.1526306266442047
 22
-0.9882833054393854
 32
0.0
 13
-0.9980245677807316
 23
-0.0628248526149007
 33
0.0
 40
0.0
 40
0.0
 40
0.0
 40
0.0
 40
3.360914483380097
 40
6.722843877160332
 40
10.08635569432562
 40
13.45132045832089
 40
13.45132045832089
 40
13.45132045832089
 40
13.45132045832089
 10
24770.02389796632
 20
-25531.70826873548
 30
0.0
 10
24769.85290513842
 20
-25532.8154472938
 30
0.0
 10
24769.12776667466
 20
-25534.98939362343
 30
0.0
 10
24767.02311037759
 20
-25537.69142767057
 30
0.0
 10
24764.14227619638
 20
-25539.54471078925
 30
0.0
 10
24761.91087121276
 20
-25540.07646028873
 30
0.0
 10
24760.79143204469
 20
-25540.14692809385
 30
0.0
 11
24770.02389796632
 21
-25531.70826873548
 31
0.0
 11
24768.95850854007
 21
-25534.89585270066
 31
0.0
 11
24766.8943079771
 21
-25537.54946255981
 31
0.0
 11
24764.06512217752
 21
-25539.368506115
 31
0.0
 11
24760.79143204469
 21
-25540.14692809385
 31
0.0
  0
SPLINE
  5
AD3
330
A8F
100
AcDbEntity
  8
11111外轮廓线
 62
     7
370
     9
100
AcDbSpline
210
0.0
220
0.0
230
1.0
 70
     8
 71
     3
 72
    12
 73
     8
 74
     6
 42
0.0000000001
 43
0.0000000001
 44
0.0000000001
 12
0.1150608241531263
 22
-0.9933584482678966
 32
0.0
 13
0.9989403808910005
 23
-0.0460229880097217
 33
0.0
 40
0.0
 40
0.0
 40
0.0
 40
0.0
 40
2.794592553199096
 40
5.590713557114792
 40
8.389430464624823
 40
11.191008139589
 40
13.99482950647282
 40
13.99482950647282
 40
13.99482950647282
 40
13.99482950647282
 10
24476.51542872331
 20
-25533.40781068056
 30
0.0
 10
24476.62261143076
 20
-25534.33315472129
 30
0.0
 10
24477.10243191392
 20
-25536.16432907771
 30
0.0
 10
24478.55654040489
 20
-25538.59457123296
 30
0.0
 10
24480.63227208457
 20
-25540.52837147771
 30
0.0
 10
24483.1629206033
 20
-25541.80930734918
 30
0.0
 10
24485.02703236247
 20
-25542.16576084987
 30
0.0
 10
24485.9606491572
 20
-25542.20877426225
 30
0.0
 11
24476.51542872331
 21
-25533.40781068056
 31
0.0
 11
24477.2245331014
 21
-25536.11094192402
 31
0.0
 11
24478.65934544894
 21
-25538.51085988009
 31
0.0
 11
24480.70695696204
 21
-25540.41876538609
 31
0.0
 11
24483.2062630353
 21
-25541.6845878938
 31
0.0
 11
24485.9606491572
 21
-25542.20877426225
 31
0.0
  0
SPLINE
  5
AD4
330
A8F
100
AcDbEntity
  8
11111外轮廓线
 62
     7
370
     9
100
AcDbSpline
210
0.0
220
0.0
230
1.0
 70
     8
 71
     3
 72
    11
 73
     7
 74
     5
 42
0.0000000001
 43
0.0000000001
 44
0.0000000001
 12
0.1150307183098921
 22
-0.9933619349688765
 32
0.0
 13
0.9884622473478875
 23
-0.1514674406199692
 33
0.0
 40
0.0
 40
0.0
 40
0.0
 40
0.0
 40
3.243717774145598
 40
6.487523355920133
 40
9.73146856303177
 40
12.97554797060656
 40
12.97554797060656
 40
12.97554797060656
 40
12.97554797060656
 10
24477.61967025626
 20
-25542.94109587101
 30
0.0
 10
24477.74404598478
 20
-25544.01515779255
 30
0.0
 10
24478.34924296109
 20
-25546.13848815157
 30
0.0
 10
24480.22522874781
 20
-25548.85315506914
 30
0.0
 10
24482.86940274522
 20
-25550.82744674808
 30
0.0
 10
24484.96922634749
 20
-25551.51023128391
 30
0.0
 10
24486.03810968808
 20
-25551.67402208559
 30
0.0
 11
24477.61967025626
 21
-25542.94109587101
 31
0.0
 11
24478.510589559
 21
-25546.06006489848
 31
0.0
 11
24480.35321338708
 21
-25548.7297113321
 31
0.0
 11
24482.95361367013
 21
-25550.66906660503
 31
0.0
 11
24486.03810968808
 21
-25551.67402208559
 31
0.0
  0
SPLINE
  5
AD5
330
A8F
100
AcDbEntity
  8
11111外轮廓线
 62
     7
370
     9
100
AcDbSpline
210
0.0
220
0.0
230
1.0
 70
     8
 71
     3
 72
    11
 73
     7
 74
     5
 42
0.0000000001
 43
0.0000000001
 44
0.0000000001
 12
-0.9999715558603577
 22
0.0075423782864325
 32
0.0
 13
0.0348692573651449
 23
-0.9993918825419804
 33
0.0
 40
0.0
 40
0.0
 40
0.0
 40
0.0
 40
0.2473719131410389
 40
0.4436908302870656
 40
0.5866291275813654
 40
0.710698940249263
 40
0.710698940249263
 40
0.710698940249263
 40
0.710698940249263
 10
24450.12212157354
 20
-25436.62273186351
 30
0.0
 10
24450.03966661459
 20
-25436.62210993933
 30
0.0
 10
24449.89479582781
 20
-25436.6228391212
 30
0.0
 10
24449.6888953655
 20
-25436.62597539592
 30
0.0
 10
24449.56045399556
 20
-25436.64355521952
 30
0.0
 10
24449.41999752262
 20
-25436.64870476
 30
0.0
 10
24449.4214395967
 20
-25436.69003621455
 30
0.0
 11
24450.12212157354
 21
-25436.62273186351
 31
0.0
 11
24449.87475065604
 21
-25436.62343370869
 31
0.0
 11
24449.67854037536
 21
-25436.62996386835
 31
0.0
 11
24449.53618353281
 21
-25436.64284355048
 31
0.0
 11
24449.4214395967
 21
-25436.69003621455
 31
0.0
  0
SPLINE
  5
AD6
330
A8F
100
AcDbEntity
  8
11111外轮廓线
 62
     7
370
     9
100
AcDbSpline
210
0.0
220
0.0
230
1.0
 70
     8
 71
     3
 72
    15
 73
    11
 74
     9
 42
0.0000000001
 43
0.0000000001
 44
0.0000000001
 12
-0.8637098797921522
 22
-0.503989328805111
 32
0.0
 13
-0.9999717416427193
 23
0.0075177068329882
 33
0.0
 40
0.0
 40
0.0
 40
0.0
 40
0.0
 40
0.742830095523451
 40
1.434328830875348
 40
2.048948013601735
 40
2.582023971070532
 40
3.041460594477342
 40
3.436479345114897
 40
3.773359820348447
 40
4.056589542281398
 40
4.056589542281398
 40
4.056589542281398
 40
4.056589542281398
 10
24453.84178558454
 20
-25435.08893778607
 30
0.0
 10
24453.6279223537
 20
-25435.21373059982
 30
0.0
 10
24453.21078875398
 20
-25435.44753816419
 30
0.0
 10
24452.60718891322
 20
-25435.76723559448
 30
0.0
 10
24452.05763869149
 20
-25436.03922597344
 30
0.0
 10
24451.56816270229
 20
-25436.25743397003
 30
0.0
 10
24451.13576857249
 20
-25436.42240310121
 30
0.0
 10
24450.75524654144
 20
-25436.53754546495
 30
0.0
 10
24450.42338070036
 20
-25436.60603175394
 30
0.0
 10
24450.21652881298
 20
-25436.62344160952
 30
0.0
 10
24450.12212157354
 20
-25436.62273186351
 30
0.0
 11
24453.84178558454
 21
-25435.08893778607
 31
0.0
 11
24453.19441066136
 21
-25435.45322099959
 31
0.0
 11
24452.5829998979
 21
-25435.7762494493
 31
0.0
 11
24452.03137595924
 21
-25436.04729883607
 31
0.0
 11
24451.54371238542
 21
-25436.26259912683
 31
0.0
 11
24451.11377231566
 21
-25436.42456686233
 31
0.0
 11
24450.73507516602
 21
-25436.53694249229
 31
0.0
 11
24450.40462363236
 21
-25436.60244240447
 31
0.0
 11
24450.12212157354
 21
-25436.62273186351
 31
0.0
  0
SPLINE
  5
AD7
330
A8F
100
AcDbEntity
  8
11111外轮廓线
 62
     7
370
     9
100
AcDbSpline
210
0.0
220
0.0
230
1.0
 70
     8
 71
     3
 72
    12
 73
     8
 74
     6
 42
0.0000000001
 43
0.0000000001
 44
0.0000000001
 12
-0.9262347978108341
 22
0.3769470776174332
 32
0.0
 13
-0.8640171960559733
 23
-0.5034622974161759
 33
0.0
 40
0.0
 40
0.0
 40
0.0
 40
0.0
 40
0.1447018051036469
 40
0.2940947836982311
 40
0.448851808041354
 40
0.6100524090579015
 40
0.7789438809074561
 40
0.7789438809074561
 40
0.7789438809074561
 40
0.7789438809074561
 10
24454.5926874457
 20
-25435.04047929268
 30
0.0
 10
24454.54801149664
 20
-25435.02229765183
 30
0.0
 10
24454.4542247253
 20
-25434.992155872
 30
0.0
 10
24454.30538745722
 20
-25434.97078638653
 30
0.0
 10
24454.14946512058
 20
-25434.97698600934
 30
0.0
 10
24453.99120010641
 20
-25435.01429867733
 30
0.0
 10
24453.89042729652
 20
-25435.06059428993
 30
0.0
 10
24453.84178558454
 20
-25435.08893778607
 30
0.0
 11
24454.5926874457
 21
-25435.04047929268
 31
0.0
 11
24454.4548168426
 21
-25434.99654400845
 31
0.0
 11
24454.30691162406
 21
-25434.97551287956
 31
0.0
 11
24454.15227927902
 21
-25434.98172371296
 31
0.0
 11
24453.99537430454
 21
-25435.01868940992
 31
0.0
 11
24453.84178558454
 21
-25435.08893778607
 31
0.0
  0
SPLINE
  5
AD8
330
A8F
100
AcDbEntity
  8
11111外轮廓线
 62
     7
370
     9
100
AcDbSpline
210
0.0
220
0.0
230
1.0
 70
     8
 71
     3
 72
    14
 73
    10
 74
     8
 42
0.0000000001
 43
0.0000000001
 44
0.0000000001
 12
-0.9914238044919208
 22
0.1306860355461361
 32
0.0
 13
-0.9261717360170052
 23
0.3771019960212978
 33
0.0
 40
0.0
 40
0.0
 40
0.0
 40
0.0
 40
0.4409212485290093
 40
0.9103654860984015
 40
1.357924848257643
 40
1.751079651412315
 40
2.107830290303686
 40
2.448769153880383
 40
2.785752218884629
 40
2.785752218884629
 40
2.785752218884629
 40
2.785752218884629
 10
24457.34598514966
 20
-25435.36495878089
 30
0.0
 10
24457.20027187576
 20
-25435.34575136424
 30
0.0
 10
24456.89750271511
 20
-25435.32054478543
 30
0.0
 10
24456.44501369955
 20
-25435.30809938239
 30
0.0
 10
24456.00838135367
 20
-25435.29905120927
 30
0.0
 10
24455.609716633
 20
-25435.27589904829
 30
0.0
 10
24455.24860109648
 20
-25435.23010076267
 30
0.0
 10
24454.91129778985
 20
-25435.15558462619
 30
0.0
 10
24454.69672217581
 20
-25435.08283828816
 30
0.0
 10
24454.5926874457
 20
-25435.04047929268
 30
0.0
 11
24457.34598514966
 21
-25435.36495878089
 31
0.0
 11
24456.90685196138
 21
-25435.32529027501
 31
0.0
 11
24456.43771017424
 21
-25435.30844166252
 31
0.0
 11
24455.99033181322
 21
-25435.29571433975
 31
0.0
 11
24455.59798467564
 21
-25435.27052658722
 31
0.0
 11
24455.24428651588
 21
-25435.22395803419
 31
0.0
 11
24454.9116337471
 21
-25435.14924897101
 31
0.0
 11
24454.5926874457
 21
-25435.04047929268
 31
0.0
  0
SPLINE
  5
AD9
330
A8F
100
AcDbEntity
  8
11111外轮廓线
 62
     7
370
     9
100
AcDbSpline
210
0.0
220
0.0
230
1.0
 70
     8
 71
     3
 72
    18
 73
    14
 74
    12
 42
0.0000000001
 43
0.0000000001
 44
0.0000000001
 12
0.9997178723302759
 22
-0.0237523839524878
 32
0.0
 13
0.240865320626951
 23
0.970558549145427
 33
0.0
 40
0.0
 40
0.0
 40
0.0
 40
0.0
 40
2.160896001225245
 40
4.400258277695996
 40
6.513960249425565
 40
8.464251333601042
 40
10.25940720443637
 40
11.90285932660202
 40
13.39961387567609
 40
14.74932441651884
 40
15.94727325734454
 40
16.9878859490787
 40
17.87264640449891
 40
17.87264640449891
 40
17.87264640449891
 40
17.87264640449891
 10
24539.43724502066
 20
-25587.06154891262
 30
0.0
 10
24540.15734047155
 20
-25587.07865772312
 30
0.0
 10
24541.62704895268
 20
-25586.99012153016
 30
0.0
 10
24543.76945935093
 20
-25586.62216367801
 30
0.0
 10
24545.80791303774
 20
-25586.10587007743
 30
0.0
 10
24547.66962730059
 20
-25585.51239765101
 30
0.0
 10
24549.35025848927
 20
-25584.87585854104
 30
0.0
 10
24550.85585087649
 20
-25584.21068272516
 30
0.0
 10
24552.18601939594
 20
-25583.52213512529
 30
0.0
 10
24553.33239679524
 20
-25582.80934695991
 30
0.0
 10
24554.27467427072
 20
-25582.0664672599
 30
0.0
 10
24554.9760975415
 20
-25581.28808044695
 30
0.0
 10
24555.26538434813
 20
-25580.69839007539
 30
0.0
 10
24555.33642038506
 20
-25580.41215280073
 30
0.0
 11
24539.43724502066
 21
-25587.06154891262
 31
0.0
 11
24541.5954183675
 21
-25586.95310845386
 31
0.0
 11
24543.80444851381
 21
-25586.58578132721
 31
0.0
 11
24545.85455076108
 21
-25586.0711777895
 31
0.0
 11
24547.71295371686
 21
-25585.47959198257
 31
0.0
 11
24549.39119088616
 21
-25584.84232861143
 31
0.0
 11
24550.89302914232
 21
-25584.17493312885
 31
0.0
 11
24552.21950046956
 21
-25583.48157319477
 31
0.0
 11
24553.36050581772
 21
-25582.76058405509
 31
0.0
 11
24554.29161497912
 21
-25582.00684858771
 31
0.0
 11
24554.96929537382
 21
-25581.21714987501
 31
0.0
 11
24555.33642038506
 21
-25580.41215280073
 31
0.0
  0
SPLINE
  5
ADA
330
A8F
100
AcDbEntity
  8
11111外轮廓线
 62
     7
370
     9
100
AcDbSpline
210
0.0
220
0.0
230
1.0
 70
     8
 71
     3
 72
    10
 73
     6
 74
     4
 42
0.0000000001
 43
0.0000000001
 44
0.0000000001
 12
-0.9687266544090531
 22
0.2481303468692277
 32
0.0
 13
-0.9773196085009347
 23
0.2117696456992357
 33
0.0
 40
0.0
 40
0.0
 40
0.0
 40
0.0
 40
0.4963685456051119
 40
1.002666756574897
 40
1.513392102392312
 40
1.513392102392312
 40
1.513392102392312
 40
1.513392102392312
 10
24559.81207616575
 20
-25564.81016411654
 30
0.0
 10
24559.65179435224
 20
-25564.76910941674
 30
0.0
 10
24559.3274858692
 20
-25564.68826542468
 30
0.0
 10
24558.83648729438
 20
-25564.57243678137
 30
0.0
 10
24558.50559628622
 20
-25564.49865171506
 30
0.0
 10
24558.33921565454
 20
-25564.46259967322
 30
0.0
 11
24559.81207616575
 21
-25564.81016411654
 31
0.0
 11
24559.33045434262
 21
-25564.69007184973
 31
0.0
 11
24558.83769260018
 21
-25564.57378021795
 31
0.0
 11
24558.33921565454
 21
-25564.46259967322
 31
0.0
  0
SPLINE
  5
ADB
330
A8F
100
AcDbEntity
  8
11111外轮廓线
 62
     7
370
     9
100
AcDbSpline
210
0.0
220
0.0
230
1.0
 70
     8
 71
     3
 72
    11
 73
     7
 74
     5
 42
0.0000000001
 43
0.0000000001
 44
0.0000000001
 12
-0.0906312475924099
 22
-0.9958845198916606
 32
0.0
 13
-0.0239367331283967
 23
-0.999713475355384
 33
0.0
 40
0.0
 40
0.0
 40
0.0
 40
0.0
 40
0.4367469163113406
 40
1.39078166950188
 40
2.753589343678226
 40
4.369741860968794
 40
4.369741860968794
 40
4.369741860968794
 40
4.369741860968794
 10
24558.48215762672
 20
-25560.09522534475
 30
0.0
 10
24558.46896332075
 20
-25560.24020850911
 30
0.0
 10
24558.46234297508
 20
-25560.70428888297
 30
0.0
 10
24558.42320627629
 20
-25561.62101262141
 30
0.0
 10
24558.38719286763
 20
-25562.93169121976
 30
0.0
 10
24558.35211079171
 20
-25563.9240365233
 30
0.0
 10
24558.33921565454
 20
-25564.46259967322
 30
0.0
 11
24558.48215762672
 21
-25560.09522534475
 31
0.0
 11
24558.46350888069
 21
-25560.53157393611
 31
0.0
 11
24558.43100252202
 21
-25561.48505474186
 31
0.0
 11
24558.38787930626
 21
-25562.84717997291
 31
0.0
 11
24558.33921565454
 21
-25564.46259967322
 31
0.0
  0
LINE
  5
ADC
330
A8F
100
AcDbEntity
  8
11111外轮廓线
 62
     7
370
     9
100
AcDbLine
 10
24610.36244001784
 20
-25560.08034688073
 30
0.0
 11
24604.61861093148
 21
-25560.10081171661
 31
0.0
  0
SPLINE
  5
ADD
330
A8F
100
AcDbEntity
  8
11111外轮廓线
 62
     7
370
     9
100
AcDbSpline
210
0.0
220
0.0
230
1.0
 70
     8
 71
     3
 72
    12
 73
     8
 74
     6
 42
0.0000000001
 43
0.0000000001
 44
0.0000000001
 12
0.9938742861065133
 22
0.110516530058939
 32
0.0
 13
0.993742201296607
 23
0.111697973849904
 33
0.0
 40
0.0
 40
0.0
 40
0.0
 40
0.0
 40
21.26452519333752
 40
43.72855399603013
 40
88.56931448943701
 40
133.3696175091888
 40
157.2377972448235
 40
157.2377972448235
 40
157.2377972448235
 40
157.2377972448235
 10
24604.61860688272
 20
-25560.10077531079
 30
0.0
 10
24611.66336181469
 20
-25559.31741479822
 30
0.0
 10
24626.14888513424
 20
-25557.6941905851
 30
0.0
 10
24655.48771816037
 20
-25554.40078533149
 30
0.0
 10
24692.6222949238
 20
-25550.22730944239
 30
0.0
 10
24730.22197209736
 20
-25546.0013757665
 30
0.0
 10
24752.96823135404
 20
-25543.44469075708
 30
0.0
 10
24760.87450384452
 20
-25542.5560149851
 30
0.0
 11
24604.61860688272
 21
-25560.10077531079
 31
0.0
 11
24625.75146240458
 21
-25557.73805459301
 31
0.0
 11
24648.07532655026
 21
-25555.23252477807
 31
0.0
 11
24692.63569210042
 21
-25550.22576697855
 31
0.0
 11
24737.15568214586
 21
-25545.22200469247
 31
0.0
 11
24760.87450384452
 21
-25542.5560149851
 31
0.0
  0
ARC
  5
ADE
330
A8F
100
AcDbEntity
  8
11111虚线
 48
400.0
100
AcDbCircle
 10
24605.29693713134
 20
-25507.31261320126
 30
0.0
 40
41.00000000644
100
AcDbArc
 50
271.580432968399
 51
276.6134453933013
  0
LINE
  5
ADF
330
A8F
100
AcDbEntity
  8
11111虚线
 48
400.0
100
AcDbLine
 10
24606.42772785934
 20
-25548.29701728258
 30
0.0
 11
24601.13438184712
 21
-25548.29542470259
 31
0.0
  0
LINE
  5
AE0
330
A8F
100
AcDbEntity
  8
11111虚线
 48
400.0
100
AcDbLine
 10
24540.1981579032
 20
-25548.29828858814
 30
0.0
 11
24534.40785804364
 21
-25548.30560715364
 31
0.0
  0
ENDBLK
  5
A91
330
A8F
100
AcDbEntity
  8
0
100
AcDbBlockEnd
  0
BLOCK
  5
C23
330
C22
100
AcDbEntity
  8
0
100
AcDbBlockBegin
  2
dfgdfg
 70
     0
 10
0.0
 20
0.0
 30
0.0
  3
dfgdfg
  1

  0
LINE
  5
C25
330
C22
100
AcDbEntity
  8
11111外轮廓线
 62
     7
370
     9
100
AcDbLine
 10
22994.5362435863
 20
-27170.90904575137
 30
0.0
 11
22994.5362435863
 21
-27534.90904575094
 31
0.0
  0
LINE
  5
C26
330
C22
100
AcDbEntity
  8
11111外轮廓线
 62
     7
370
     9
100
AcDbLine
 10
23000.53624358526
 20
-27540.90904575243
 30
0.0
 11
23000.53624352938
 21
-27164.90904575241
 31
0.0
  0
LINE
  5
C27
330
C22
100
AcDbEntity
  8
11111外轮廓线
 62
     7
370
     9
100
AcDbLine
 10
23028.19110853958
 20
-27492.36044562605
 30
0.0
 11
23028.19110853958
 21
-27213.11246951301
 31
0.0
  0
LINE
  5
C28
330
C22
100
AcDbEntity
  8
11111外轮廓线
 62
     7
370
     9
100
AcDbLine
 10
23034.15125922784
 20
-27492.36040076457
 30
0.0
 11
23034.15125922784
 21
-27213.11107094837
 31
0.0
  0
LINE
  5
C29
330
C22
100
AcDbEntity
  8
11111外轮廓线
 62
     7
370
     9
100
AcDbLine
 10
23044.21230952226
 20
-27197.18060150635
 30
0.0
 11
23044.21230952226
 21
-27203.17417188139
 31
0.0
  0
LINE
  5
C2A
330
C22
100
AcDbEntity
  8
11111外轮廓线
 62
     7
370
     9
100
AcDbLine
 10
23000.53624358526
 20
-27540.90904575243
 30
0.0
 11
23508.53624358526
 21
-27540.90904575243
 31
0.0
  0
LINE
  5
C2B
330
C22
100
AcDbEntity
  8
11111外轮廓线
 62
     7
370
     9
100
AcDbLine
 10
22994.5362435863
 20
-27534.90904580935
 30
0.0
 11
23514.53624358676
 21
-27534.90904575094
 31
0.0
  0
LINE
  5
C2C
330
C22
100
AcDbEntity
  8
11111外轮廓线
 62
     7
370
     9
100
AcDbLine
 10
23464.98764345886
 20
-27508.25418079813
 30
0.0
 11
23044.08484371166
 21
-27508.25418079813
 31
0.0
  0
LINE
  5
C2D
330
C22
100
AcDbEntity
  8
11111外轮廓线
 62
     7
370
     9
100
AcDbLine
 10
23464.98759859738
 20
-27502.29403010987
 30
0.0
 11
23044.0835084108
 21
-27502.29403010987
 31
0.0
  0
LINE
  5
C2E
330
C22
100
AcDbEntity
  8
11111外轮廓线
 62
     7
370
     9
100
AcDbLine
 10
23480.88137863094
 20
-27492.36044562605
 30
0.0
 11
23474.92122794268
 21
-27492.36044568447
 31
0.0
  0
LINE
  5
C2F
330
C22
100
AcDbEntity
  8
11111外轮廓线
 62
     7
370
     9
100
AcDbLine
 10
23028.19110853958
 20
-27492.36044562605
 30
0.0
 11
23034.15125922784
 21
-27492.36044562605
 31
0.0
  0
LINE
  5
C30
330
C22
100
AcDbEntity
  8
11111外轮廓线
 62
     7
370
     9
100
AcDbLine
 10
23480.88137863094
 20
-27213.11246951301
 30
0.0
 11
23474.92122794268
 21
-27213.11246951301
 31
0.0
  0
LINE
  5
C31
330
C22
100
AcDbEntity
  8
11111外轮廓线
 62
     7
370
     9
100
AcDbLine
 10
23028.19110853958
 20
-27213.11246951301
 30
0.0
 11
23034.15125922784
 21
-27213.11246944444
 31
0.0
  0
LINE
  5
C32
330
C22
100
AcDbEntity
  8
11111外轮廓线
 62
     7
370
     9
100
AcDbLine
 10
23044.21239357848
 20
-27203.17417188139
 30
0.0
 11
23464.8614792992
 21
-27203.17417188139
 31
0.0
  0
LINE
  5
C33
330
C22
100
AcDbEntity
  8
11111外轮廓线
 62
     7
370
     9
100
AcDbLine
 10
23044.21230952226
 20
-27197.18060150635
 30
0.0
 11
23464.86017764826
 21
-27197.18060150635
 31
0.0
  0
LINE
  5
C34
330
C22
100
AcDbEntity
  8
11111外轮廓线
 62
     7
370
     9
100
AcDbLine
 10
22994.5362435863
 20
-27170.90904575137
 30
0.0
 11
23514.53624358676
 21
-27170.90904569549
 31
0.0
  0
LINE
  5
C35
330
C22
100
AcDbEntity
  8
11111外轮廓线
 62
     7
370
     9
100
AcDbLine
 10
23508.53624358526
 20
-27164.90904575241
 30
0.0
 11
23000.53624358526
 21
-27164.90904575241
 31
0.0
  0
LINE
  5
C36
330
C22
100
AcDbEntity
  8
11111外轮廓线
 62
     7
370
     9
100
AcDbLine
 10
23464.86017764826
 20
-27197.18060150635
 30
0.0
 11
23464.86017770668
 21
-27203.17417188139
 31
0.0
  0
LINE
  5
C37
330
C22
100
AcDbEntity
  8
11111外轮廓线
 62
     7
370
     9
100
AcDbLine
 10
23474.92122794268
 20
-27213.11257309929
 30
0.0
 11
23474.92122794268
 21
-27492.36178092691
 31
0.0
  0
LINE
  5
C38
330
C22
100
AcDbEntity
  8
11111外轮廓线
 62
     7
370
     9
100
AcDbLine
 10
23480.88137863094
 20
-27213.11246951301
 30
0.0
 11
23480.88137863094
 21
-27492.36044562605
 31
0.0
  0
LINE
  5
C39
330
C22
100
AcDbEntity
  8
11111外轮廓线
 62
     7
370
     9
100
AcDbLine
 10
23508.53624364114
 20
-27540.90904575243
 30
0.0
 11
23508.53624358526
 21
-27164.90904575241
 31
0.0
  0
LINE
  5
C3A
330
C22
100
AcDbEntity
  8
11111外轮廓线
 62
     7
370
     9
100
AcDbLine
 10
23514.53624358676
 20
-27534.90904575094
 30
0.0
 11
23514.53624358676
 21
-27170.90904575137
 31
0.0
  0
ARC
  5
C3B
330
C22
100
AcDbEntity
  8
11111外轮廓线
 62
     7
370
     9
100
AcDbCircle
 10
23000.53624358526
 20
-27534.90904575094
 30
0.0
 40
5.999999998959999
100
AcDbArc
 50
180.0
 51
270.0
  0
ARC
  5
C3C
330
C22
100
AcDbEntity
  8
11111外轮廓线
 62
     7
370
     9
100
AcDbCircle
 10
23000.53624358526
 20
-27170.90904575137
 30
0.0
 40
5.999999998959999
100
AcDbArc
 50
90.0
 51
180.0
  0
ARC
  5
C3D
330
C22
100
AcDbEntity
  8
11111外轮廓线
 62
     7
370
     9
100
AcDbCircle
 10
23508.53624358526
 20
-27534.90904575094
 30
0.0
 40
5.999999998959999
100
AcDbArc
 50
270.0
 51
0.0
  0
CIRCLE
  5
C3E
330
C22
100
AcDbEntity
  8
11111外轮廓线
 62
     7
370
     9
100
AcDbCircle
 10
23254.53624358526
 20
-27297.90904575137
 30
0.0
 40
22.2500000008
  0
ARC
  5
C3F
330
C22
100
AcDbEntity
  8
11111外轮廓线
 62
     7
370
     9
100
AcDbCircle
 10
23508.53624358526
 20
-27170.90904575137
 30
0.0
 40
5.999999998959999
100
AcDbArc
 50
0.0
 51
90.0
  0
SPLINE
  5
C40
330
C22
100
AcDbEntity
  8
11111外轮廓线
 62
     7
370
     9
100
AcDbSpline
210
0.0
220
0.0
230
1.0
 70
     8
 71
     3
 72
    13
 73
     9
 74
     7
 42
0.0000000001
 43
0.0000000001
 44
0.0000000001
 12
1.0
 22
0.0
 32
0.0
 13
0.0000281317276968
 23
-0.999999999604303
 33
0.0
 40
0.0
 40
0.0
 40
0.0
 40
0.0
 40
3.238104753121941
 40
6.21531270305525
 40
8.691477264084578
 40
10.46693466408551
 40
11.40152424668945
 40
11.47781570611839
 40
11.47781570611839
 40
11.47781570611839
 40
11.47781570611839
 10
23254.53624358526
 20
-27203.99784884211
 30
0.0
 10
23255.6156118363
 20
-27203.99784884211
 30
0.0
 10
23257.70027108494
 20
-27203.9995512975
 30
0.0
 10
23260.54589564432
 20
-27204.10385507249
 30
0.0
 10
23263.09445621179
 20
-27204.06821471372
 30
0.0
 10
23264.50391819791
 20
-27204.4628943251
 30
0.0
 10
23265.89217372997
 20
-27204.1535036785
 30
0.0
 10
23265.92696279094
 20
-27204.50523990113
 30
0.0
 10
23265.92696350634
 20
-27204.53067038759
 30
0.0
 11
23254.53624358526
 21
-27203.99784884211
 31
0.0
 11
23257.77427658086
 21
-27204.01940601261
 31
0.0
 11
23260.75081910376
 21
-27204.08234873661
 31
0.0
 11
23263.224992987
 21
-27204.18161871587
 31
0.0
 11
23264.9958598669
 21
-27204.30920975355
 31
0.0
 11
23265.91904114728
 21
-27204.45479138517
 31
0.0
 11
23265.92696350634
 21
-27204.53067038759
 31
0.0
  0
SPLINE
  5
C41
330
C22
100
AcDbEntity
  8
11111外轮廓线
 62
     7
370
     9
100
AcDbSpline
210
0.0
220
0.0
230
1.0
 70
     8
 71
     3
 72
    13
 73
     9
 74
     7
 42
0.0000000001
 43
0.0000000001
 44
0.0000000001
 12
-0.0000281317316342
 22
0.999999999604303
 32
0.0
 13
1.0
 23
0.0
 33
0.0
 40
0.0
 40
0.0
 40
0.0
 40
0.0
 40
0.0762830295330108
 40
1.010864351781777
 40
2.78632052887842
 40
5.262490344050046
 40
8.23970537945379
 40
11.47781325190981
 40
11.47781325190981
 40
11.47781325190981
 40
11.47781325190981
 10
23243.14552366418
 20
-27204.53066436018
 30
0.0
 10
23243.14552294886
 20
-27204.50523668368
 30
0.0
 10
23243.18028894206
 20
-27204.15350440998
 30
0.0
 10
23244.568575895
 20
-27204.46289813688
 30
0.0
 10
23245.97800814885
 20
-27204.06821347057
 30
0.0
 10
23248.52658553728
 20
-27204.10385603245
 30
0.0
 10
23251.37221044891
 20
-27203.99955110264
 30
0.0
 10
23253.45687429444
 20
-27203.99784884211
 30
0.0
 10
23254.53624358526
 20
-27203.99784884211
 30
0.0
 11
23243.14552366418
 21
-27204.53066436018
 31
0.0
 11
23243.15344028284
 21
-27204.45479323429
 31
0.0
 11
23244.0766131355
 21
-27204.30921118865
 31
0.0
 11
23245.8474787454
 21
-27204.18161954137
 31
0.0
 11
23248.32165786612
 21
-27204.08234904141
 31
0.0
 11
23251.29820747054
 21
-27204.01940605579
 31
0.0
 11
23254.53624358526
 21
-27203.99784884211
 31
0.0
  0
SPLINE
  5
C42
330
C22
100
AcDbEntity
  8
11111外轮廓线
 62
     7
370
     9
100
AcDbSpline
210
0.0
220
0.0
230
1.0
 70
     8
 71
     3
 72
    13
 73
     9
 74
     7
 42
0.0000000001
 43
0.0000000001
 44
0.0000000001
 12
0.0000281317316342
 22
-0.999999999604303
 32
0.0
 13
-1.0
 23
0.0
 33
0.0
 40
0.0
 40
0.0
 40
0.0
 40
0.0
 40
0.0762830295152966
 40
1.010864351372668
 40
2.786320528651796
 40
5.262490343819789
 40
8.239705376681152
 40
11.4778132516837
 40
11.4778132516837
 40
11.4778132516837
 40
11.4778132516837
 10
23265.92696350634
 20
-27204.53067038759
 30
0.0
 10
23265.92696422167
 20
-27204.55609806409
 30
0.0
 10
23265.89219822845
 20
-27204.90783033774
 30
0.0
 10
23264.50391127497
 20
-27204.59843660569
 30
0.0
 10
23263.09447902199
 20
-27204.99312127969
 30
0.0
 10
23260.54590163402
 20
-27204.95747871436
 30
0.0
 10
23257.7002767225
 20
-27205.0617836455
 30
0.0
 10
23255.61561287693
 20
-27205.06348590565
 30
0.0
 10
23254.53624358526
 20
-27205.06348590565
 30
0.0
 11
23265.92696350634
 21
-27204.53067038759
 31
0.0
 11
23265.91904688768
 21
-27204.60654151346
 31
0.0
 11
23264.99587403502
 21
-27204.75212355657
 31
0.0
 11
23263.22500842512
 21
-27204.87971520639
 31
0.0
 11
23260.7508293044
 21
-27204.97898570635
 31
0.0
 11
23257.77427970252
 21
-27205.04192869197
 31
0.0
 11
23254.53624358526
 21
-27205.06348590565
 31
0.0
  0
SPLINE
  5
C43
330
C22
100
AcDbEntity
  8
11111外轮廓线
 62
     7
370
     9
100
AcDbSpline
210
0.0
220
0.0
230
1.0
 70
     8
 71
     3
 72
    13
 73
     9
 74
     7
 42
0.0000000001
 43
0.0000000001
 44
0.0000000001
 12
0.9999999734170705
 22
0.0002305772294687
 32
0.0
 13
0.0000208909561292
 23
-0.9999999997817839
 33
0.0
 40
0.0
 40
0.0
 40
0.0
 40
0.0
 40
4.201038839273302
 40
8.395306615462875
 40
12.56827876866771
 40
16.72878002341839
 40
20.88738807972774
 40
25.03007410275537
 40
25.03007410275537
 40
25.03007410275537
 40
25.03007410275537
 10
23464.86017764826
 20
-27197.18060150635
 30
0.0
 10
23466.26052389079
 20
-27197.18027861838
 30
0.0
 10
23469.07272221745
 20
-27197.54769467121
 30
0.0
 10
23472.98759325966
 20
-27199.16389509822
 30
0.0
 10
23476.3428559035
 20
-27201.73055670147
 30
0.0
 10
23478.90916892159
 20
-27205.07103898921
 30
0.0
 10
23480.51737125857
 20
-27208.95085861904
 30
0.0
 10
23480.88134978272
 20
-27211.7315741723
 30
0.0
 10
23480.88137863094
 20
-27213.11246951301
 30
0.0
 11
23464.86017764826
 21
-27197.18060150635
 31
0.0
 11
23469.02562103948
 21
-27197.72632000851
 31
0.0
 11
23472.90242930058
 21
-27199.32701981955
 31
0.0
 11
23476.21582225214
 21
-27201.86377438789
 31
0.0
 11
23478.75062264608
 21
-27205.16294968691
 31
0.0
 11
23480.34191989782
 21
-27209.00505770499
 31
0.0
 11
23480.88137863094
 21
-27213.11246951301
 31
0.0
  0
SPLINE
  5
C44
330
C22
100
AcDbEntity
  8
11111外轮廓线
 62
     7
370
     9
100
AcDbSpline
210
0.0
220
0.0
230
1.0
 70
     8
 71
     3
 72
    13
 73
     9
 74
     7
 42
0.0000000001
 43
0.0000000001
 44
0.0000000001
 12
0.000247808108185
 22
-0.9999999692955704
 32
0.0
 13
-0.9999999999436115
 23
-0.000010619651178
 33
0.0
 40
0.0
 40
0.0
 40
0.0
 40
0.0
 40
4.17154921688391
 40
8.326116080970869
 40
12.46318011517426
 40
16.59821300201965
 40
20.75788178177529
 40
24.90908181135241
 40
24.90908181135241
 40
24.90908181135241
 40
24.90908181135241
 10
23480.88137863094
 20
-27492.36044562605
 30
0.0
 10
23480.88172321218
 20
-27493.75096198898
 30
0.0
 10
23480.5176431285
 20
-27496.54014673266
 30
0.0
 10
23478.912877767
 20
-27500.42166576497
 30
0.0
 10
23476.36239422009
 20
-27503.74671609526
 30
0.0
 10
23473.0333884697
 20
-27506.29462449815
 30
0.0
 10
23469.15527048492
 20
-27507.8930948936
 30
0.0
 10
23466.37137680197
 20
-27508.25416610337
 30
0.0
 10
23464.98764345886
 20
-27508.25418079813
 30
0.0
 11
23480.88137863094
 21
-27492.36044562605
 31
0.0
 11
23480.33917906002
 21
-27496.49660840019
 31
0.0
 11
23478.75141327188
 21
-27500.33580436161
 31
0.0
 11
23476.23258084194
 21
-27503.61769132081
 31
0.0
 11
23472.94966474078
 21
-27506.13184303621
 31
0.0
 11
23469.10397171082
 21
-27507.71724187455
 31
0.0
 11
23464.98764345886
 21
-27508.25418079813
 31
0.0
  0
SPLINE
  5
C45
330
C22
100
AcDbEntity
  8
11111外轮廓线
 62
     7
370
     9
100
AcDbSpline
210
0.0
220
0.0
230
1.0
 70
     8
 71
     3
 72
    13
 73
     9
 74
     7
 42
0.0000000001
 43
0.0000000001
 44
0.0000000001
 12
-0.9999999692955704
 22
-0.000247808108185
 32
0.0
 13
-0.000010619651178
 23
0.9999999999436115
 33
0.0
 40
0.0
 40
0.0
 40
0.0
 40
0.0
 40
4.171549216887044
 40
8.326116081943071
 40
12.46318011460042
 40
16.59821300144869
 40
20.7578817812077
 40
24.9090818107776
 40
24.9090818107776
 40
24.9090818107776
 40
24.9090818107776
 10
23044.08484371166
 20
-27508.25418079813
 30
0.0
 10
23042.69432734873
 20
-27508.25452537937
 30
0.0
 10
23039.90514260426
 20
-27507.89044529664
 30
0.0
 10
23036.02362357425
 20
-27506.28567993067
 30
0.0
 10
23032.69857324155
 20
-27503.73519638772
 30
0.0
 10
23030.15066483972
 20
-27500.40619063666
 30
0.0
 10
23028.55219444406
 20
-27496.52807265217
 30
0.0
 10
23028.19112323434
 20
-27493.74417896916
 30
0.0
 10
23028.19110853958
 20
-27492.36044562605
 30
0.0
 11
23044.08484371166
 21
-27508.25418079813
 31
0.0
 11
23039.94868093752
 21
-27507.71198122721
 31
0.0
 11
23036.1094849761
 21
-27506.12421543653
 31
0.0
 11
23032.8275980169
 21
-27503.60538300913
 31
0.0
 11
23030.3134463015
 21
-27500.32246690797
 31
0.0
 11
23028.72804746316
 21
-27496.47677387801
 31
0.0
 11
23028.19110853958
 21
-27492.36044562605
 31
0.0
  0
SPLINE
  5
C46
330
C22
100
AcDbEntity
  8
11111外轮廓线
 62
     7
370
     9
100
AcDbSpline
210
0.0
220
0.0
230
1.0
 70
     8
 71
     3
 72
    13
 73
     9
 74
     7
 42
0.0000000001
 43
0.0000000001
 44
0.0000000001
 12
-0.0002630280898694
 22
0.9999999654081113
 32
0.0
 13
0.999999999875766
 23
0.000015762873412
 33
0.0
 40
0.0
 40
0.0
 40
0.0
 40
0.0
 40
4.155110382841741
 40
8.313377787646048
 40
12.47537202179467
 40
16.64813964074289
 40
20.84787400350387
 40
25.03006968793274
 40
25.03006968793274
 40
25.03006968793274
 40
25.03006968793274
 10
23028.19110853958
 20
-27213.11246951301
 30
0.0
 10
23028.190744236
 20
-27211.72743276664
 30
0.0
 10
23028.55696073315
 20
-27208.94256750537
 30
0.0
 10
23030.16964086282
 20
-27205.05980124207
 30
0.0
 10
23032.73902371873
 20
-27201.72113301178
 30
0.0
 10
23036.09825131675
 20
-27199.15606425694
 30
0.0
 10
23040.01069260997
 20
-27197.5452463648
 30
0.0
 10
23042.81824429429
 20
-27197.18062348082
 30
0.0
 10
23044.21230952226
 20
-27197.18060150635
 30
0.0
 11
23028.19110853958
 21
-27213.11246951301
 31
0.0
 11
23028.73379876483
 21
-27208.99295138427
 31
0.0
 11
23030.32792590424
 21
-27205.15238547893
 31
0.0
 11
23032.86635574228
 21
-27201.85411775747
 31
0.0
 11
23036.1817663403
 21
-27199.32033754437
 31
0.0
 11
23040.06523216746
 21
-27197.72144358697
 31
0.0
 11
23044.21230952226
 21
-27197.18060150635
 31
0.0
  0
SPLINE
  5
C47
330
C22
100
AcDbEntity
  8
11111外轮廓线
 62
     7
370
     9
100
AcDbSpline
210
0.0
220
0.0
230
1.0
 70
     8
 71
     3
 72
    13
 73
     9
 74
     7
 42
0.0000000001
 43
0.0000000001
 44
0.0000000001
 12
-0.9999690785434919
 22
-0.0078639657221859
 32
0.0
 13
0.0078013343312163
 23
0.9999695691283074
 33
0.0
 40
0.0
 40
0.0
 40
0.0
 40
0.0
 40
2.623814869985498
 40
5.223529390859617
 40
7.806960049054383
 40
10.38916162457163
 40
12.99220260359441
 40
15.61098071820102
 40
15.61098071820102
 40
15.61098071820102
 40
15.61098071820102
 10
23044.0835019211
 20
-27502.29403651321
 30
0.0
 10
23043.20892400849
 20
-27502.30091437661
 30
0.0
 10
23041.45716139379
 20
-27502.08627616019
 30
0.0
 10
23039.01927172811
 20
-27501.09518718372
 30
0.0
 10
23036.93712199942
 20
-27499.50562303121
 30
0.0
 10
23035.34773843915
 20
-27497.42201721157
 30
0.0
 10
23034.35807390688
 20
-27494.98445884302
 30
0.0
 10
23034.14444945841
 20
-27493.23330002043
 30
0.0
 10
23034.15125944628
 20
-27492.36040054613
 30
0.0
 11
23044.0835019211
 21
-27502.29403651321
 31
0.0
 11
23041.47950902394
 21
-27501.97212742119
 31
0.0
 11
23039.07173982882
 21
-27500.99173816531
 31
0.0
 11
23037.01889365004
 21
-27499.42331968417
 31
0.0
 11
23035.4520125928
 21
-27497.37084587701
 31
0.0
 11
23034.4715394204
 21
-27494.95951954143
 31
0.0
 11
23034.15125944628
 21
-27492.36040054613
 31
0.0
  0
SPLINE
  5
C48
330
C22
100
AcDbEntity
  8
11111外轮廓线
 62
     7
370
     9
100
AcDbSpline
210
0.0
220
0.0
230
1.0
 70
     8
 71
     3
 72
    13
 73
     9
 74
     7
 42
0.0000000001
 43
0.0000000001
 44
0.0000000001
 12
-1.0
 22
0.0
 32
0.0
 13
-0.0000281317276968
 23
0.999999999604303
 33
0.0
 40
0.0
 40
0.0
 40
0.0
 40
0.0
 40
3.238104753121941
 40
6.215312703055174
 40
8.691477261645545
 40
10.46693466400062
 40
11.40152424408793
 40
11.47781570376971
 40
11.47781570376971
 40
11.47781570376971
 40
11.47781570376971
 10
23254.53624358526
 20
-27205.06348590565
 30
0.0
 10
23253.45687533422
 20
-27205.06348590565
 30
0.0
 10
23251.37221608639
 20
-27205.06178344954
 30
0.0
 10
23248.52659152458
 20
-27204.95747967743
 30
0.0
 10
23245.97803096608
 20
-27204.99312002835
 30
0.0
 10
23244.56856896144
 20
-27204.59844042488
 30
0.0
 10
23243.1803134581
 20
-27204.9078310668
 30
0.0
 10
23243.14552437959
 20
-27204.55609484673
 30
0.0
 10
23243.14552366418
 20
-27204.53066436018
 30
0.0
 11
23254.53624358526
 21
-27205.06348590565
 31
0.0
 11
23251.29821058966
 21
-27205.04192873515
 31
0.0
 11
23248.32166806676
 21
-27204.97898601115
 31
0.0
 11
23245.84749418606
 21
-27204.87971602935
 31
0.0
 11
23244.07662730362
 21
-27204.75212499421
 31
0.0
 11
23243.15344602578
 21
-27204.60654336259
 31
0.0
 11
23243.14552366418
 21
-27204.53066436018
 31
0.0
  0
SPLINE
  5
C49
330
C22
100
AcDbEntity
  8
11111外轮廓线
 62
     7
370
     9
100
AcDbSpline
210
0.0
220
0.0
230
1.0
 70
     8
 71
     3
 72
    13
 73
     9
 74
     7
 42
0.0000000001
 43
0.0000000001
 44
0.0000000001
 12
-0.0032489436313341
 22
0.9999947221687124
 32
0.0
 13
0.9999950337122472
 23
-0.0031515949679364
 33
0.0
 40
0.0
 40
0.0
 40
0.0
 40
0.0
 40
2.599921942008287
 40
5.195803217887124
 40
7.795827182045673
 40
10.40709961000104
 40
13.04147015445885
 40
15.68296070995973
 40
15.68296070995973
 40
15.68296070995973
 40
15.68296070995973
 10
23034.15125888494
 20
-27213.11107077311
 30
0.0
 10
23034.14844321833
 20
-27212.24443469976
 30
0.0
 10
23034.37360707059
 20
-27210.50303064973
 30
0.0
 10
23035.38199248129
 20
-27208.0763970413
 30
0.0
 10
23036.99309896763
 20
-27205.99364932128
 30
0.0
 10
23039.10190455336
 20
-27204.39587998375
 30
0.0
 10
23041.56397535749
 20
-27203.39439152156
 30
0.0
 10
23043.33190165063
 20
-27203.17139713292
 30
0.0
 10
23044.21239412966
 20
-27203.17417210237
 30
0.0
 11
23034.15125888494
 21
-27213.11107077311
 31
0.0
 11
23034.4856835374
 21
-27210.53274684925
 31
0.0
 11
23035.48133502082
 21
-27208.13539878899
 31
0.0
 11
23037.07175423774
 21
-27206.07853434799
 31
0.0
 11
23039.15208120484
 21
-27204.50024939179
 31
0.0
 11
23041.59192065586
 21
-27203.50672454623
 31
0.0
 11
23044.21239412966
 21
-27203.17417210237
 31
0.0
  0
SPLINE
  5
C4A
330
C22
100
AcDbEntity
  8
11111外轮廓线
 62
     7
370
     9
100
AcDbSpline
210
0.0
220
0.0
230
1.0
 70
     8
 71
     3
 72
    13
 73
     9
 74
     7
 42
0.0000000001
 43
0.0000000001
 44
0.0000000001
 12
0.9999948281603431
 22
0.0032161549349486
 32
0.0
 13
-0.0031724179942686
 23
-0.9999949678693738
 33
0.0
 40
0.0
 40
0.0
 40
0.0
 40
0.0
 40
2.645522125671508
 40
5.276332046368152
 40
7.887705496355742
 40
10.48684663651507
 40
13.0830572701579
 40
15.68307074740075
 40
15.68307074740075
 40
15.68307074740075
 40
15.68307074740075
 10
23464.86148786155
 20
-27203.17416854129
 30
0.0
 10
23465.74332400936
 20
-27203.17133240494
 30
0.0
 10
23467.51142213056
 20
-27203.39520846471
 30
0.0
 10
23469.97320576492
 20
-27204.397521996
 30
0.0
 10
23472.08055885654
 20
-27205.99485003718
 30
0.0
 10
23473.69119944993
 20
-27208.07769894463
 30
0.0
 10
23474.69933520686
 20
-27210.50432986707
 30
0.0
 10
23474.92397735284
 20
-27212.24590631666
 30
0.0
 10
23474.92122790966
 20
-27213.11257311453
 30
0.0
 11
23464.86148786155
 21
-27203.17416854129
 31
0.0
 11
23467.48584921174
 21
-27203.50810689043
 31
0.0
 11
23469.92203210416
 21
-27204.50116970491
 31
0.0
 11
23472.00213417712
 21
-27206.07991815269
 31
0.0
 11
23473.59169435842
 21
-27208.13633082929
 31
0.0
 11
23474.58716713506
 21
-27210.53410971927
 31
0.0
 11
23474.92122790966
 21
-27213.11257311453
 31
0.0
  0
SPLINE
  5
C4B
330
C22
100
AcDbEntity
  8
11111外轮廓线
 62
     7
370
     9
100
AcDbSpline
210
0.0
220
0.0
230
1.0
 70
     8
 71
     3
 72
    13
 73
     9
 74
     7
 42
0.0000000001
 43
0.0000000001
 44
0.0000000001
 12
0.0078639657221859
 22
-0.9999690785434919
 32
0.0
 13
-0.9999695691283074
 23
0.0078013343312163
 33
0.0
 40
0.0
 40
0.0
 40
0.0
 40
0.0
 40
2.623814869677567
 40
5.223529390548317
 40
7.806960048745292
 40
10.38916162627872
 40
12.99220260530286
 40
15.61098071990947
 40
15.61098071990947
 40
15.61098071990947
 40
15.61098071990947
 10
23474.92123434602
 20
-27492.36178741661
 30
0.0
 10
23474.92811220942
 20
-27493.23636532911
 30
0.0
 10
23474.7134739967
 20
-27494.9881279442
 30
0.0
 10
23473.72238501868
 20
-27497.42601760946
 30
0.0
 10
23472.13282086653
 20
-27499.50816733925
 30
0.0
 10
23470.0492150446
 20
-27501.0975508978
 30
0.0
 10
23467.61165667594
 20
-27502.08721543097
 30
0.0
 10
23465.86049785324
 20
-27502.3008398793
 30
0.0
 10
23464.98759837894
 20
-27502.29402989143
 30
0.0
 11
23474.92123434602
 21
-27492.36178741661
 31
0.0
 11
23474.59932525654
 21
-27494.96578031377
 31
0.0
 11
23473.61893600066
 21
-27497.37354950889
 31
0.0
 11
23472.05051751952
 21
-27499.42639568767
 31
0.0
 11
23469.99804370982
 21
-27500.99327674491
 31
0.0
 11
23467.58671737424
 21
-27501.97374991731
 31
0.0
 11
23464.98759837894
 21
-27502.29402989143
 31
0.0
  0
CIRCLE
  5
C4C
330
C22
100
AcDbEntity
  8
11111外轮廓线
 62
     7
370
     9
100
AcDbCircle
 10
23254.53624358399
 20
-27297.90904574802
 30
0.0
 40
34.0
  0
SPLINE
  5
C4D
330
C22
100
AcDbEntity
  8
11111外轮廓线
 62
     7
370
     9
100
AcDbSpline
210
0.0
220
0.0
230
1.0
 70
     8
 71
     3
 72
    13
 73
     9
 74
     7
 42
0.0000000001
 43
0.0000000001
 44
0.0000000001
 12
0.9999656200721995
 22
0.008292084998458
 32
0.0
 13
0.9999999688725178
 23
0.0002495094457815
 33
0.0
 40
0.0
 40
0.0
 40
0.0
 40
0.0
 40
15.05292412363051
 40
28.62001501644819
 40
40.87411997929671
 40
51.99850622994113
 40
62.12338172584668
 40
71.46978922372348
 40
71.46978922372348
 40
71.46978922372348
 40
71.46978922372348
 10
23059.18855417854
 20
-27487.13956821078
 30
0.0
 10
23064.20602304694
 20
-27487.09796150201
 30
0.0
 10
23073.74573915246
 20
-27487.0234552696
 30
0.0
 10
23087.37014017609
 20
-27486.93178479637
 30
0.0
 10
23099.68514754769
 20
-27486.8634174117
 30
0.0
 10
23110.8528385867
 20
-27486.81584453594
 30
0.0
 10
23121.05135689888
 20
-27486.78675969474
 30
0.0
 10
23127.54178353841
 20
-27486.77864181547
 30
0.0
 10
23130.65725260739
 20
-27486.77786447648
 30
0.0
 11
23059.18855417854
 21
-27487.13956821078
 31
0.0
 11
23074.24102261559
 21
-27487.02244168354
 31
0.0
 11
23087.80780962217
 21
-27486.93163633048
 31
0.0
 11
23100.06172843407
 21
-27486.86409233044
 31
0.0
 11
23111.18601567745
 21
-27486.81715854572
 31
0.0
 11
23121.31085154153
 21
-27486.78882953202
 31
0.0
 11
23130.65725260739
 21
-27486.77786447648
 31
0.0
  0
SPLINE
  5
C4E
330
C22
100
AcDbEntity
  8
11111外轮廓线
 62
     7
370
     9
100
AcDbSpline
210
0.0
220
0.0
230
1.0
 70
     8
 71
     3
 72
    14
 73
    10
 74
     8
 42
0.0000000001
 43
0.0000000001
 44
0.0000000001
 12
0.9999999681238179
 22
0.0002524923037342
 32
0.0
 13
1.0
 23
0.0000000028910471
 33
0.0
 40
0.0
 40
0.0
 40
0.0
 40
0.0
 40
17.22015493854402
 40
34.59684771678755
 40
52.13122528256322
 40
69.82470197951084
 40
87.67902493729101
 40
105.6962804394604
 40
123.8789924194587
 40
123.8789924194587
 40
123.8789924194587
 40
123.8789924194587
 10
23130.65725260739
 20
-27486.77786447648
 30
0.0
 10
23136.3973040706
 20
-27486.77641515762
 30
0.0
 10
23147.92958631621
 20
-27486.77366251355
 30
0.0
 10
23165.30666103523
 20
-27486.77003837478
 30
0.0
 10
23182.8415097813
 20
-27486.76695556016
 30
0.0
 10
23200.53556868396
 20
-27486.76446883259
 30
0.0
 10
23218.3905869796
 20
-27486.76263151661
 30
0.0
 10
23236.40868376174
 20
-27486.7614942521
 30
0.0
 10
23248.47533959065
 20
-27486.76123516227
 30
0.0
 10
23254.53624358399
 20
-27486.76123514474
 30
0.0
 11
23130.65725260739
 21
-27486.77786447648
 31
0.0
 11
23147.87740705703
 21
-27486.77376105568
 31
0.0
 11
23165.25409945877
 21
-27486.77014375024
 31
0.0
 11
23182.78847675469
 21
-27486.76706749274
 31
0.0
 11
23200.48195327775
 21
-27486.76458685762
 31
0.0
 11
23218.33627614155
 21
-27486.76275495374
 31
0.0
 11
23236.35353160811
 21
-27486.76162222042
 31
0.0
 11
23254.53624358399
 21
-27486.76123514474
 31
0.0
  0
SPLINE
  5
C4F
330
C22
100
AcDbEntity
  8
11111外轮廓线
 62
     7
370
     9
100
AcDbSpline
210
0.0
220
0.0
230
1.0
 70
     8
 71
     3
 72
    14
 73
    10
 74
     8
 42
0.0000000001
 43
0.0000000001
 44
0.0000000001
 12
1.0
 22
-0.0000000038547294
 32
0.0
 13
0.9999999681238021
 23
-0.0002524923652459
 33
0.0
 40
0.0
 40
0.0
 40
0.0
 40
0.0
 40
18.18251518588475
 40
36.19960565915518
 40
54.05384822086506
 40
71.74732201459761
 40
89.28177468308311
 40
106.6586220000115
 40
123.878992419466
 40
123.878992419466
 40
123.878992419466
 40
123.878992419466
 10
23254.53624358399
 20
-27486.76123514474
 30
0.0
 10
23260.59708197928
 20
-27486.76123516811
 30
0.0
 10
23272.66361720052
 20
-27486.76149425039
 30
0.0
 10
23290.68156657631
 20
-27486.76263148848
 30
0.0
 10
23308.53650209589
 20
-27486.76446878406
 30
0.0
 10
23326.23055826636
 20
-27486.76695549142
 30
0.0
 10
23343.76548259183
 20
-27486.77003830907
 30
0.0
 10
23361.14270568494
 20
-27486.7736624632
 30
0.0
 10
23372.67511127041
 20
-27486.77641513913
 30
0.0
 10
23378.41523456059
 20
-27486.77786447648
 30
0.0
 11
23254.53624358399
 21
-27486.76123514474
 31
0.0
 11
23272.71875876575
 21
-27486.76162221534
 31
0.0
 11
23290.73584920342
 21
-27486.76275492326
 31
0.0
 11
23308.59009167115
 21
-27486.76458680428
 31
0.0
 11
23326.28356529099
 21
-27486.76706742162
 31
0.0
 11
23343.81801768963
 21
-27486.77014367912
 31
0.0
 11
23361.19486463005
 21
-27486.77376100488
 31
0.0
 11
23378.41523456059
 21
-27486.77786447648
 31
0.0
  0
SPLINE
  5
C50
330
C22
100
AcDbEntity
  8
11111外轮廓线
 62
     7
370
     9
100
AcDbSpline
210
0.0
220
0.0
230
1.0
 70
     8
 71
     3
 72
    15
 73
    11
 74
     9
 42
0.0000000001
 43
0.0000000001
 44
0.0000000001
 12
-0.0100946463821976
 22
0.9999490477591438
 32
0.0
 13
-0.0002575802658156
 23
0.9999999668262027
 33
0.0
 40
0.0
 40
0.0
 40
0.0
 40
0.0
 40
14.68872684365159
 40
27.91774198700066
 40
39.91672954205816
 40
50.83113762918998
 40
60.76142126609514
 40
69.80312430098443
 40
78.00427397688622
 40
85.40306809123794
 40
85.40306809123794
 40
85.40306809123794
 40
85.40306809123794
 10
23459.76676604567
 20
-27477.25673515454
 30
0.0
 10
23459.71734021124
 20
-27472.36074234784
 30
0.0
 10
23459.6289065309
 20
-27463.05524573304
 30
0.0
 10
23459.51867537165
 20
-27449.75012283422
 30
0.0
 10
23459.43307881587
 20
-27437.70295387289
 30
0.0
 10
23459.36818352015
 20
-27426.75525052834
 30
0.0
 10
23459.32118384996
 20
-27416.79322735687
 30
0.0
 10
23459.28953246977
 20
-27407.7355682203
 30
0.0
 10
23459.271029974
 20
-27399.52170474365
 30
0.0
 10
23459.26599514171
 20
-27394.32172413133
 30
0.0
 10
23459.26535988059
 20
-27391.85545950836
 30
0.0
 11
23459.76676604567
 21
-27477.25673515454
 31
0.0
 11
23459.62742134849
 21
-27462.56866927292
 31
0.0
 11
23459.51800634761
 21
-27449.34010661402
 31
0.0
 11
23459.43297601221
 21
-27437.34142034474
 31
0.0
 11
23459.36854364933
 21
-27426.427202445
 31
0.0
 11
23459.32190611244
 21
-27416.4970283252
 31
0.0
 11
23459.29051598217
 21
-27407.45537977912
 31
0.0
 11
23459.27227332879
 21
-27399.25425039274
 31
0.0
 11
23459.26535988059
 21
-27391.85545950836
 31
0.0
  0
SPLINE
  5
C51
330
C22
100
AcDbEntity
  8
11111外轮廓线
 62
     7
370
     9
100
AcDbSpline
210
0.0
220
0.0
230
1.0
 70
     8
 71
     3
 72
    12
 73
     8
 74
     6
 42
0.0000000001
 43
0.0000000001
 44
0.0000000001
 12
-0.0002584104547234
 22
0.999999966612018
 32
0.0
 13
-0.0000000048395673
 23
1.0
 33
0.0
 40
0.0
 40
0.0
 40
0.0
 40
0.0
 40
18.03007173829195
 40
36.43743912936066
 40
55.22399771293002
 40
74.39239406034367
 40
93.94641492157459
 40
93.94641492157459
 40
93.94641492157459
 40
93.94641492157459
 10
23459.26535988059
 20
-27391.85545950836
 30
0.0
 10
23459.26380682758
 20
-27385.84543579626
 30
0.0
 10
23459.26089775213
 20
-27373.69962309774
 30
0.0
 10
23459.25727938596
 20
-27355.29162420956
 30
0.0
 10
23459.25450232232
 20
-27336.50418363219
 30
0.0
 10
23459.25271649569
 20
-27317.33452510808
 30
0.0
 10
23459.25229484556
 20
-27304.42705270176
 30
0.0
 10
23459.25229481401
 20
-27297.90904574802
 30
0.0
 11
23459.26535988059
 21
-27391.85545950836
 31
0.0
 11
23459.26105559659
 21
-27373.82538828384
 31
0.0
 11
23459.25745226623
 21
-27355.41802124546
 31
0.0
 11
23459.25469054709
 21
-27336.63146286489
 31
0.0
 11
23459.25291980133
 21
-27317.46306659926
 31
0.0
 11
23459.25229481401
 21
-27297.90904574802
 31
0.0
  0
LINE
  5
C52
330
C22
100
AcDbEntity
  8
11111外轮廓线
 62
     7
370
     9
100
AcDbLine
 10
23459.25229481401
 20
-27297.90904574802
 30
0.0
 11
23459.25344116427
 21
-27272.18719410826
 31
0.0
  0
SPLINE
  5
C53
330
C22
100
AcDbEntity
  8
11111外轮廓线
 62
     7
370
     9
100
AcDbSpline
210
0.0
220
0.0
230
1.0
 70
     8
 71
     3
 72
    11
 73
     7
 74
     5
 42
0.0000000001
 43
0.0000000001
 44
0.0000000001
 12
0.0000914989543691
 22
0.9999999958139708
 32
0.0
 13
0.0068188824407112
 23
0.9999767511508753
 33
0.0
 40
0.0
 40
0.0
 40
0.0
 40
0.0
 40
11.34546269663138
 40
23.00276068001879
 40
34.95894058983444
 40
47.30222492590917
 40
47.30222492590917
 40
47.30222492590917
 40
47.30222492590917
 10
23459.25344116427
 20
-27272.18719410826
 30
0.0
 10
23459.25378719693
 20
-27268.40537322522
 30
0.0
 10
23459.26133030898
 20
-27260.73778553507
 30
0.0
 10
23459.29255050107
 20
-27249.08484194643
 30
0.0
 10
23459.34459278053
 20
-27237.09936222785
 30
0.0
 10
23459.39320543596
 20
-27228.99968230128
 30
0.0
 10
23459.42126123757
 20
-27224.88534984498
 30
0.0
 11
23459.25344116427
 21
-27272.18719410826
 31
0.0
 11
23459.26439042863
 21
-27260.84173669508
 31
0.0
 11
23459.29547353385
 21
-27249.18448015188
 31
0.0
 11
23459.34728694305
 21
-27237.22841251212
 31
0.0
 11
23459.42126123757
 21
-27224.88534984498
 31
0.0
  0
SPLINE
  5
C54
330
C22
100
AcDbEntity
  8
11111外轮廓线
 62
     7
370
     9
100
AcDbSpline
210
0.0
220
0.0
230
1.0
 70
     8
 71
     3
 72
    13
 73
     9
 74
     7
 42
0.0000000001
 43
0.0000000001
 44
0.0000000001
 12
0.9999999689727101
 22
-0.0002491075652048
 32
0.0
 13
0.9999656202042309
 23
-0.0082920690763869
 33
0.0
 40
0.0
 40
0.0
 40
0.0
 40
0.0
 40
9.282090767275747
 40
19.44012657315768
 40
30.58276642521812
 40
42.84201385232462
 40
56.41362683984286
 40
71.46978922856058
 40
71.46978922856058
 40
71.46978922856058
 40
71.46978922856058
 10
23378.41523456059
 20
-27486.77786447648
 30
0.0
 10
23381.50926472035
 20
-27486.77863522283
 30
0.0
 10
23387.98930588949
 20
-27486.78669749083
 30
0.0
 10
23398.18352351347
 20
-27486.81570400867
 30
0.0
 10
23409.37006664986
 20
-27486.86332666492
 30
0.0
 10
23421.69437998608
 20
-27486.9317369619
 30
0.0
 10
23435.32308194228
 20
-27487.02342354802
 30
0.0
 10
23444.86538473832
 20
-27487.09795263126
 30
0.0
 10
23449.88393299197
 20
-27487.13956821078
 30
0.0
 11
23378.41523456059
 21
-27486.77786447648
 31
0.0
 11
23387.69731900375
 21
-27486.78869969738
 31
0.0
 11
23397.85531524855
 21
-27486.81704972704
 31
0.0
 11
23408.99785605969
 21
-27486.86402998615
 31
0.0
 11
23421.25691732257
 21
-27486.9315905673
 31
0.0
 11
23434.82822638513
 21
-27487.02241683727
 31
0.0
 11
23449.88393299197
 21
-27487.13956821078
 31
0.0
  0
SPLINE
  5
C55
330
C22
100
AcDbEntity
  8
11111外轮廓线
 62
     7
370
     9
100
AcDbSpline
210
0.0
220
0.0
230
1.0
 70
     8
 71
     3
 72
    16
 73
    12
 74
    10
 42
0.0000000001
 43
0.0000000001
 44
0.0000000001
 12
-0.9999970604960902
 22
0.0024246647560217
 32
0.0
 13
-0.999947788451363
 23
0.0102186286373614
 33
0.0
 40
0.0
 40
0.0
 40
0.0
 40
0.0
 40
9.44148771591697
 40
19.93365392187611
 40
31.7656828610913
 40
45.0938334753705
 40
60.08921566326501
 40
76.93943909451888
 40
95.85571355445798
 40
116.9164202617795
 40
140.3215609975525
 40
140.3215609975525
 40
140.3215609975525
 40
140.3215609975525
 10
23199.85073201797
 20
-27216.09058210562
 30
0.0
 10
23196.70357869709
 20
-27216.08295129145
 30
0.0
 10
23190.05906460625
 20
-27216.05938609463
 30
0.0
 10
23179.47063832308
 20
-27216.00544869254
 30
0.0
 10
23167.58675801269
 20
-27215.93031729909
 30
0.0
 10
23154.20192657764
 20
-27215.83249450173
 30
0.0
 10
23139.14450032619
 20
-27215.7105496494
 30
0.0
 10
23122.22452104494
 20
-27215.56242041974
 30
0.0
 10
23103.28293664012
 20
-27215.38639781242
 30
0.0
 10
23082.15656155657
 20
-27215.18090234059
 30
0.0
 10
23067.33536522569
 20
-27215.0314881775
 30
0.0
 10
23059.53405898665
 20
-27214.9517653637
 30
0.0
 11
23199.85073201797
 21
-27216.09058210562
 31
0.0
 11
23190.40929941751
 21
-27216.05832159102
 31
0.0
 11
23179.91726514381
 21
-27216.00570512018
 31
0.0
 11
23168.08546801497
 21
-27215.93164082076
 31
0.0
 11
23154.75766846539
 21
-27215.83490425528
 31
0.0
 11
23139.76277359367
 21
-27215.71401278764
 31
0.0
 11
23122.91319127309
 21
-27215.56702535492
 31
0.0
 11
23103.99772891105
 21
-27215.39174536766
 31
0.0
 11
23082.93801429447
 21
-27215.18732599494
 31
0.0
 11
23059.53405898665
 21
-27214.9517653637
 31
0.0
  0
SPLINE
  5
C56
330
C22
100
AcDbEntity
  8
11111外轮廓线
 62
     7
370
     9
100
AcDbSpline
210
0.0
220
0.0
230
1.0
 70
     8
 71
     3
 72
    16
 73
    12
 74
    10
 42
0.0000000001
 43
0.0000000001
 44
0.0000000001
 12
-0.9999477885366374
 22
-0.0102186202928024
 32
0.0
 13
-0.9999970564811418
 23
-0.00242632006387
 33
0.0
 40
0.0
 40
0.0
 40
0.0
 40
0.0
 40
23.43983808463886
 40
44.51485540480566
 40
63.39721705125575
 40
80.23210771169242
 40
95.21820125963243
 40
108.5414067492377
 40
120.3724595653516
 40
130.8679052380044
 40
140.3215609936567
 40
140.3215609936567
 40
140.3215609936567
 40
140.3215609936567
 10
23449.53842818133
 20
-27214.9517653637
 30
0.0
 10
23441.72555676253
 20
-27215.03160629874
 30
0.0
 10
23426.88802524468
 20
-27215.1811823068
 30
0.0
 10
23405.75661852787
 20
-27215.38671096993
 30
0.0
 10
23386.82667845972
 20
-27215.56260885725
 30
0.0
 10
23369.92620979763
 20
-27215.71056220203
 30
0.0
 10
23354.87863877275
 20
-27215.83243170054
 30
0.0
 10
23341.49887721781
 20
-27215.93022429324
 30
0.0
 10
23329.61587760672
 20
-27216.00536872334
 30
0.0
 10
23319.02262768398
 20
-27216.05935015601
 30
0.0
 10
23312.3729644621
 20
-27216.08293624074
 30
0.0
 10
23309.22175515255
 20
-27216.09058210562
 30
0.0
 11
23449.53842818133
 21
-27214.9517653637
 31
0.0
 11
23426.09977722281
 21
-27215.1876693242
 31
0.0
 11
23405.02575250531
 21
-27215.3922108887
 31
0.0
 11
23386.14420136069
 21
-27215.56716151162
 31
0.0
 11
23369.30995119385
 21
-27215.71401132968
 31
0.0
 11
23354.32434469319
 21
-27215.83483200244
 31
0.0
 11
23341.00149020611
 21
-27215.9315420554
 31
0.0
 11
23329.17066929325
 21
-27216.00561813534
 31
0.0
 11
23318.67535568397
 21
-27216.05826896984
 31
0.0
 11
23309.22175515255
 21
-27216.09058210562
 31
0.0
  0
SPLINE
  5
C57
330
C22
100
AcDbEntity
  8
11111外轮廓线
 62
     7
370
     9
100
AcDbSpline
210
0.0
220
0.0
230
1.0
 70
     8
 71
     3
 72
    12
 73
     8
 74
     6
 42
0.0000000001
 43
0.0000000001
 44
0.0000000001
 12
-0.9999970429555148
 22
-0.0024318882018762
 32
0.0
 13
-0.9999970447434364
 23
0.0024311528939517
 33
0.0
 40
0.0
 40
0.0
 40
0.0
 40
0.0
 40
20.33160348249601
 40
42.59662313783345
 40
66.59606635338308
 40
89.0745950552767
 40
109.3711592152676
 40
109.3711592152676
 40
109.3711592152676
 40
109.3711592152676
 10
23309.22175515255
 20
-27216.09058210562
 30
0.0
 10
23302.44457403221
 20
-27216.10706350117
 30
0.0
 10
23288.24573481782
 20
-27216.13896578626
 30
0.0
 10
23266.04706362488
 20
-27216.17043774135
 30
0.0
 10
23243.1327235929
 20
-27216.17058852155
 30
0.0
 10
23220.87456232593
 20
-27216.1390816749
 30
0.0
 10
23206.61623341078
 20
-27216.10703012252
 30
0.0
 10
23199.85073201797
 20
-27216.09058210562
 30
0.0
 11
23309.22175515255
 21
-27216.09058210562
 31
0.0
 11
23288.89019983149
 21
-27216.13483587538
 31
0.0
 11
23266.62520004103
 21
-27216.1645778225
 31
0.0
 11
23242.62575682589
 21
-27216.164717459
 31
0.0
 11
23220.14724806697
 21
-27216.13477456232
 31
0.0
 11
23199.85073201797
 21
-27216.09058210562
 31
0.0
  0
SPLINE
  5
C58
330
C22
100
AcDbEntity
  8
11111外轮廓线
 62
     7
370
     9
100
AcDbSpline
210
0.0
220
0.0
230
1.0
 70
     8
 71
     3
 72
    13
 73
     9
 74
     7
 42
0.0000000001
 43
0.0000000001
 44
0.0000000001
 12
0.0232897879820621
 22
-0.9997287561012489
 32
0.0
 13
0.9997287561282714
 23
-0.0232897868221127
 33
0.0
 40
0.0
 40
0.0
 40
0.0
 40
0.0
 40
2.550736134754004
 40
5.114395061378386
 40
7.685460910499022
 40
10.25652354564976
 40
12.82019632748226
 40
15.3709253913527
 40
15.3709253913527
 40
15.3709253913527
 40
15.3709253913527
 10
23049.30572112231
 20
-27477.25673515454
 30
0.0
 10
23049.3255231569
 20
-27478.10674990892
 30
0.0
 10
23049.58749544117
 20
-27479.81370458485
 30
0.0
 10
23050.61291047841
 20
-27482.18998937157
 30
0.0
 10
23052.20335378297
 20
-27484.24193031807
 30
0.0
 10
23054.25527849086
 20
-27485.83241868132
 30
0.0
 10
23056.6315933846
 20
-27486.8577648798
 30
0.0
 10
23058.33854178046
 20
-27487.11976623207
 30
0.0
 10
23059.18855417854
 20
-27487.13956821078
 30
0.0
 11
23049.30572112231
 21
-27477.25673515454
 31
0.0
 11
23049.69140408983
 21
-27479.7781441808
 31
0.0
 11
23050.70532654001
 21
-27482.13277968488
 31
0.0
 11
23052.28034140877
 21
-27484.16494792686
 31
0.0
 11
23054.31249154817
 21
-27485.73998090582
 31
0.0
 11
23056.66715361049
 21
-27486.7538767114
 31
0.0
 11
23059.18855417854
 21
-27487.13956821078
 31
0.0
  0
SPLINE
  5
C59
330
C22
100
AcDbEntity
  8
11111外轮廓线
 62
     7
370
     9
100
AcDbSpline
210
0.0
220
0.0
230
1.0
 70
     8
 71
     3
 72
    13
 73
     9
 74
     7
 42
0.0000000001
 43
0.0000000001
 44
0.0000000001
 12
-0.9998442400232047
 22
-0.0176492405621324
 32
0.0
 13
-0.0174694111694877
 23
-0.99984739819304
 33
0.0
 40
0.0
 40
0.0
 40
0.0
 40
0.0
 40
2.558003021450006
 40
5.1275792882479
 40
7.705774171898918
 40
10.28726712248981
 40
12.86601630704172
 40
15.43659375440298
 40
15.43659375440298
 40
15.43659375440298
 40
15.43659375440298
 10
23059.53405898665
 20
-27214.9517653637
 30
0.0
 10
23058.68152412433
 20
-27214.9668143006
 30
0.0
 10
23056.96853178755
 20
-27215.22176968233
 30
0.0
 10
23054.58381663999
 20
-27216.24655646914
 30
0.0
 10
23052.527432276
 20
-27217.84513975309
 30
0.0
 10
23050.93780729221
 20
-27219.91220049582
 30
0.0
 10
23049.9195305178
 20
-27222.30843735046
 30
0.0
 10
23049.66619475774
 20
-27224.02862145411
 30
0.0
 10
23049.65122593295
 20
-27224.88534984498
 30
0.0
 11
23059.53405898665
 21
-27214.9517653637
 31
0.0
 11
23057.00379446375
 21
-27215.32745260318
 31
0.0
 11
23054.64217522459
 21
-27216.34011086742
 31
0.0
 11
23052.60642081757
 21
-27217.92213262844
 31
0.0
 11
23051.03242594677
 21
-27219.96826214552
 31
0.0
 11
23050.02502051937
 21
-27222.34209484006
 31
0.0
 11
23049.65122593295
 21
-27224.88534984498
 31
0.0
  0
SPLINE
  5
C5A
330
C22
100
AcDbEntity
  8
11111外轮廓线
 62
     7
370
     9
100
AcDbSpline
210
0.0
220
0.0
230
1.0
 70
     8
 71
     3
 72
    13
 73
     9
 74
     7
 42
0.0000000001
 43
0.0000000001
 44
0.0000000001
 12
-0.0174694125037922
 22
0.9998473981697269
 32
0.0
 13
-0.9998442400351798
 23
0.0176492398837466
 33
0.0
 40
0.0
 40
0.0
 40
0.0
 40
0.0
 40
2.570578570613067
 40
5.149325566675118
 40
7.730818257920941
 40
10.30901628405999
 40
12.87859926740023
 40
15.43659708320303
 40
15.43659708320303
 40
15.43659708320303
 40
15.43659708320303
 10
23459.42126123757
 20
-27224.88534984498
 30
0.0
 10
23459.40629240509
 20
-27224.02862107977
 30
0.0
 10
23459.15296538523
 20
-27222.30843369455
 30
0.0
 10
23458.13466274163
 20
-27219.91221167384
 30
0.0
 10
23456.5450792256
 20
-27217.84511959953
 30
0.0
 10
23454.48867127848
 20
-27216.24655270173
 30
0.0
 10
23452.10395253548
 20
-27215.22178040652
 30
0.0
 10
23450.39096130872
 20
-27214.96681426939
 30
0.0
 10
23449.53842818133
 20
-27214.9517653637
 30
0.0
 11
23459.42126123757
 21
-27224.88534984498
 31
0.0
 11
23459.04746860441
 21
-27222.34209341766
 31
0.0
 11
23458.04005573735
 21
-27219.96826625778
 31
0.0
 11
23456.46608100113
 21
-27217.92212157944
 31
0.0
 11
23454.43031674399
 21
-27216.34010737238
 31
0.0
 11
23452.06868677587
 21
-27215.32745708628
 31
0.0
 11
23449.53842818133
 21
-27214.9517653637
 31
0.0
  0
SPLINE
  5
C5B
330
C22
100
AcDbEntity
  8
11111外轮廓线
 62
     7
370
     9
100
AcDbSpline
210
0.0
220
0.0
230
1.0
 70
     8
 71
     3
 72
    13
 73
     9
 74
     7
 42
0.0000000001
 43
0.0000000001
 44
0.0000000001
 12
0.9997287561049505
 22
0.023289787823169
 32
0.0
 13
0.0232897871625394
 23
0.9997287561203405
 33
0.0
 40
0.0
 40
0.0
 40
0.0
 40
0.0
 40
2.550733627131096
 40
5.114399812674301
 40
7.685464151381566
 40
10.25652912966278
 40
12.82019489295272
 40
15.3709259306378
 40
15.3709259306378
 40
15.3709259306378
 40
15.3709259306378
 10
23449.88393299197
 20
-27487.13956821078
 30
0.0
 10
23450.7339469107
 20
-27487.11976619579
 30
0.0
 10
23452.44089925404
 20
-27486.85778123289
 30
0.0
 10
23454.81719927414
 20
-27485.83240032915
 30
0.0
 10
23456.86913505429
 20
-27484.24193658842
 30
0.0
 10
23458.45959268837
 20
-27482.18999685608
 30
0.0
 10
23459.48497478709
 20
-27479.81369915863
 30
0.0
 10
23459.74696405134
 20
-27478.10674821038
 30
0.0
 10
23459.76676604567
 20
-27477.25673515454
 30
0.0
 11
23449.88393299197
 21
-27487.13956821078
 31
0.0
 11
23452.40533902103
 21
-27486.75388223336
 31
0.0
 11
23454.75998844939
 21
-27485.73997376588
 31
0.0
 11
23456.79214804775
 21
-27484.16495021032
 31
0.0
 11
23458.36716755455
 21
-27482.1327866648
 31
0.0
 11
23459.38107691865
 21
-27479.77813808226
 31
0.0
 11
23459.76676604567
 21
-27477.25673515454
 31
0.0
  0
SPLINE
  5
C5C
330
C22
100
AcDbEntity
  8
11111外轮廓线
 62
     7
370
     9
100
AcDbSpline
210
0.0
220
0.0
230
1.0
 70
     8
 71
     3
 72
    11
 73
     7
 74
     5
 42
0.0000000001
 43
0.0000000001
 44
0.0000000001
 12
0.0068187895443723
 22
-0.9999767517843348
 32
0.0
 13
0.0000915604914317
 23
-0.9999999958083382
 33
0.0
 40
0.0
 40
0.0
 40
0.0
 40
0.0
 40
12.33974783616408
 40
24.29742900964978
 40
35.95432005698231
 40
47.30222492595808
 40
47.30222492595808
 40
47.30222492595808
 40
47.30222492595808
 10
23049.65122593295
 20
-27224.88534984498
 30
0.0
 10
23049.67927331412
 20
-27228.99850349799
 30
0.0
 10
23049.72788269745
 20
-27237.09750501506
 30
0.0
 10
23049.77992877772
 20
-27249.0821706537
 30
0.0
 10
23049.81115472976
 20
-27260.73629306551
 30
0.0
 10
23049.81869966634
 20
-27268.40455916779
 30
0.0
 10
23049.81904600625
 20
-27272.18719410826
 30
0.0
 11
23049.65122593295
 21
-27224.88534984498
 31
0.0
 11
23049.72518123843
 21
-27237.2248760625
 31
0.0
 11
23049.77700709617
 21
-27249.18244492608
 31
0.0
 11
23049.80809247469
 21
-27260.83929452572
 31
0.0
 11
23049.81904600625
 21
-27272.18719410826
 31
0.0
  0
LINE
  5
C5D
330
C22
100
AcDbEntity
  8
11111外轮廓线
 62
     7
370
     9
100
AcDbLine
 10
23049.81904600625
 20
-27272.18719410826
 30
0.0
 11
23049.82019235651
 21
-27297.90904574802
 31
0.0
  0
SPLINE
  5
C5E
330
C22
100
AcDbEntity
  8
11111外轮廓线
 62
     7
370
     9
100
AcDbSpline
210
0.0
220
0.0
230
1.0
 70
     8
 71
     3
 72
    12
 73
     8
 74
     6
 42
0.0000000001
 43
0.0000000001
 44
0.0000000001
 12
-0.000000006867319
 22
-1.0
 32
0.0
 13
-0.0002584102384299
 23
-0.9999999666120737
 33
0.0
 40
0.0
 40
0.0
 40
0.0
 40
0.0
 40
19.56509503773157
 40
38.73897507505768
 40
57.52551694555428
 40
75.92737376599643
 40
93.94641492157143
 40
93.94641492157143
 40
93.94641492157143
 40
93.94641492157143
 10
23049.82019235651
 20
-27297.90904574802
 30
0.0
 10
23049.82019231172
 20
-27304.43074409393
 30
0.0
 10
23049.8197702545
 20
-27317.34373578905
 30
0.0
 10
23049.81798311348
 20
-27336.51890803086
 30
0.0
 10
23049.81520519433
 20
-27355.30633407682
 30
0.0
 10
23049.81158728819
 20
-27373.70881367619
 30
0.0
 10
23049.80867939151
 20
-27385.84911265704
 30
0.0
 10
23049.80712728993
 20
-27391.85545950836
 30
0.0
 11
23049.82019235651
 21
-27297.90904574802
 31
0.0
 11
23049.81956666561
 21
-27317.47414077574
 31
0.0
 11
23049.81779462445
 21
-27336.64802073119
 31
0.0
 11
23049.81503205187
 21
-27355.43456239856
 31
0.0
 11
23049.81142916601
 21
-27373.8364188663
 31
0.0
 11
23049.80712728993
 21
-27391.85545950836
 31
0.0
  0
SPLINE
  5
C5F
330
C22
100
AcDbEntity
  8
11111外轮廓线
 62
     7
370
     9
100
AcDbSpline
210
0.0
220
0.0
230
1.0
 70
     8
 71
     3
 72
    15
 73
    11
 74
     9
 42
0.0000000001
 43
0.0000000001
 44
0.0000000001
 12
-0.0002577185927099
 22
-0.999999966790563
 32
0.0
 13
-0.0100946960808837
 23
-0.9999490472574263
 33
0.0
 40
0.0
 40
0.0
 40
0.0
 40
0.0
 40
7.361916371852049
 40
15.52576019151397
 40
24.53254381309091
 40
34.43466794688098
 40
45.33730915652276
 40
57.34527968948408
 40
70.61907882171249
 40
85.40306808461673
 40
85.40306808461673
 40
85.40306808461673
 40
85.40306808461673
 10
23049.80712728993
 20
-27391.85545950836
 30
0.0
 10
23049.80649485569
 20
-27394.30943155082
 30
0.0
 10
23049.80150351826
 20
-27399.4846843013
 30
0.0
 10
23049.7831542292
 20
-27407.66218033964
 30
0.0
 10
23049.75172854017
 20
-27416.68637844485
 30
0.0
 10
23049.70500484152
 20
-27426.62345402838
 30
0.0
 10
23049.64033493051
 20
-27437.56084406198
 30
0.0
 10
23049.55481146201
 20
-27449.62201393544
 30
0.0
 10
23049.44430875057
 20
-27462.97681278713
 30
0.0
 10
23049.35546774847
 20
-27472.32898982851
 30
0.0
 10
23049.30572112231
 20
-27477.25673515454
 30
0.0
 11
23049.80712728993
 21
-27391.85545950836
 31
0.0
 11
23049.80027259447
 21
-27399.217372689
 31
0.0
 11
23049.78218230045
 21
-27407.38119646546
 31
0.0
 11
23049.75102382581
 21
-27416.38792619136
 31
0.0
 11
23049.70467091369
 21
-27426.28994183306
 31
0.0
 11
23049.64047612209
 21
-27437.19239405148
 31
0.0
 11
23049.55555338616
 21
-27449.20006428552
 31
0.0
 11
23049.44590976243
 21
-27462.47341057342
 31
0.0
 11
23049.30572112231
 21
-27477.25673515454
 31
0.0
  0
LINE
  5
C60
330
C22
100
AcDbEntity
  8
11111外轮廓线
 62
     7
370
     9
100
AcDbLine
 10
23049.30572112358
 20
-27477.25673515789
 30
0.0
 11
23034.32145072896
 21
-27492.24090897155
 31
0.0
  0
LINE
  5
C61
330
C22
100
AcDbEntity
  8
11111外轮廓线
 62
     7
370
     9
100
AcDbLine
 10
23059.18855417982
 20
-27487.13956821413
 30
0.0
 11
23044.20305097842
 21
-27502.12383860875
 31
0.0
  0
LINE
  5
C62
330
C22
100
AcDbEntity
  8
11111外轮廓线
 62
     7
370
     9
100
AcDbLine
 10
23049.65122593422
 20
-27224.88534984834
 30
0.0
 11
23034.32145072896
 21
-27213.38674393525
 31
0.0
  0
LINE
  5
C63
330
C22
100
AcDbEntity
  8
11111外轮廓线
 62
     7
370
     9
100
AcDbLine
 10
23059.53405898792
 20
-27214.95176536705
 30
0.0
 11
23044.29724881644
 21
-27203.52406139497
 31
0.0
  0
LINE
  5
C64
330
C22
100
AcDbEntity
  8
11111外轮廓线
 62
     7
370
     9
100
AcDbLine
 10
23449.5384281826
 20
-27214.95176536705
 30
0.0
 11
23464.77656817615
 21
-27203.52406139497
 31
0.0
  0
LINE
  5
C65
330
C22
100
AcDbEntity
  8
11111外轮廓线
 62
     7
370
     9
100
AcDbLine
 10
23459.42126123885
 20
-27224.88534984834
 30
0.0
 11
23474.7510364441
 21
-27213.38812265995
 31
0.0
  0
LINE
  5
C66
330
C22
100
AcDbEntity
  8
11111外轮廓线
 62
     7
370
     9
100
AcDbLine
 10
23449.88393299324
 20
-27487.13956821413
 30
0.0
 11
23464.8681068069
 21
-27502.12383860875
 31
0.0
  0
LINE
  5
C67
330
C22
100
AcDbEntity
  8
11111外轮廓线
 62
     7
370
     9
100
AcDbLine
 10
23459.76676604694
 20
-27477.25673515789
 30
0.0
 11
23474.7510364441
 21
-27492.24223835929
 31
0.0
  0
ENDBLK
  5
C24
330
C22
100
AcDbEntity
  8
0
100
AcDbBlockEnd
  0
BLOCK
  5
C8D
330
C8C
100
AcDbEntity
  8
0
100
AcDbBlockBegin
  2
dfsgfd
 70
     0
 10
0.0
 20
0.0
 30
0.0
  3
dfsgfd
  1

  0
LINE
  5
C8F
330
C8C
100
AcDbEntity
  8
11111外轮廓线
 62
     7
370
     9
100
AcDbLine
 10
22995.46756497947
 20
-25430.79473479207
 30
0.0
 11
22995.46756497947
 21
-25424.79473479311
 31
0.0
  0
LINE
  5
C90
330
C8C
100
AcDbEntity
  8
11111外轮廓线
 62
     7
370
     9
100
AcDbLine
 10
23284.88458271019
 20
-25595.79473479395
 30
0.0
 11
23226.04922084851
 21
-25595.79473479395
 31
0.0
  0
LINE
  5
C91
330
C8C
100
AcDbEntity
  8
11111外轮廓线
 62
     7
370
     9
100
AcDbLine
 10
23289.86688256523
 20
-25591.23051388685
 30
0.0
 11
23221.06824739162
 21
-25591.23051388685
 31
0.0
  0
LINE
  5
C92
330
C8C
100
AcDbEntity
  8
11111外轮廓线
 62
     7
370
     9
100
AcDbLine
 10
23292.17607740073
 20
-25564.83629614199
 30
0.0
 11
23278.3371700951
 21
-25564.84033989564
 31
0.0
  0
LINE
  5
C93
330
C8C
100
AcDbEntity
  8
11111外轮廓线
 62
     7
370
     9
100
AcDbLine
 10
23232.59796014876
 20
-25564.84033812273
 30
0.0
 11
23218.75905220815
 21
-25564.83629216435
 31
0.0
  0
LINE
  5
C94
330
C8C
100
AcDbEntity
  8
11111外轮廓线
 62
     7
370
     9
100
AcDbLine
 10
23218.75905220815
 20
-25564.83629216435
 30
0.0
 11
23221.06824739671
 21
-25591.23051393764
 31
0.0
  0
LINE
  5
C95
330
C8C
100
AcDbEntity
  8
11111外轮廓线
 62
     7
370
     9
100
AcDbLine
 10
23292.17607740073
 20
-25564.83629614199
 30
0.0
 11
23289.86688256015
 21
-25591.23051393764
 31
0.0
  0
LINE
  5
C96
330
C8C
100
AcDbEntity
  8
11111外轮廓线
 62
     7
370
     9
100
AcDbLine
 10
22998.46756497895
 20
-25433.79473479409
 30
0.0
 11
23512.46756497791
 21
-25433.79473479409
 31
0.0
  0
LINE
  5
C97
330
C8C
100
AcDbEntity
  8
11111外轮廓线
 62
     7
370
     9
100
AcDbLine
 10
23001.46756497843
 20
-25418.79473479415
 30
0.0
 11
23509.46756497843
 21
-25418.79473479415
 31
0.0
  0
LINE
  5
C98
330
C8C
100
AcDbEntity
  8
11111外轮廓线
 62
     7
370
     9
100
AcDbLine
 10
23515.46756497993
 20
-25430.79473479207
 30
0.0
 11
23515.46756497993
 21
-25424.79473479311
 31
0.0
  0
ARC
  5
C99
330
C8C
100
AcDbEntity
  8
11111外轮廓线
 62
     7
370
     9
100
AcDbCircle
 10
23016.76676233781
 20
-25439.79473479305
 30
0.0
 40
7.999786288939999
100
AcDbArc
 50
6.607532225497047
 51
48.67492471582703
  0
ARC
  5
C9A
330
C8C
100
AcDbEntity
  8
11111外轮廓线
 62
     7
370
     9
100
AcDbCircle
 10
23001.46756497843
 20
-25424.79473479311
 30
0.0
 40
5.999999998959999
100
AcDbArc
 50
90.0
 51
180.0
  0
ARC
  5
C9B
330
C8C
100
AcDbEntity
  8
11111外轮廓线
 62
     7
370
     9
100
AcDbCircle
 10
23509.46756497843
 20
-25424.79473479311
 30
0.0
 40
5.999999998959999
100
AcDbArc
 50
0.0
 51
90.0
  0
ARC
  5
C9C
330
C8C
100
AcDbEntity
  8
11111外轮廓线
 62
     7
370
     9
100
AcDbCircle
 10
23226.04922084851
 20
-25590.79473479397
 30
0.0
 40
4.999999999979999
100
AcDbArc
 50
185.0000049658977
 51
270.0
  0
ARC
  5
C9D
330
C8C
100
AcDbEntity
  8
11111外轮廓线
 62
     7
370
     9
100
AcDbCircle
 10
23284.88590910835
 20
-25590.79473479397
 30
0.0
 40
4.999999999979999
100
AcDbArc
 50
270.0
 51
354.9999950341022
  0
ARC
  5
C9E
330
C8C
100
AcDbEntity
  8
11111外轮廓线
 62
     7
370
     9
100
AcDbCircle
 10
23213.7780792491
 20
-25565.27207088385
 30
0.0
 40
4.99999993648
100
AcDbArc
 50
5.00000059221254
 51
89.38668778450372
  0
ARC
  5
C9F
330
C8C
100
AcDbEntity
  8
11111外轮廓线
 62
     7
370
     9
100
AcDbCircle
 10
23297.15705035468
 20
-25565.27207485895
 30
0.0
 40
4.99999993648
100
AcDbArc
 50
90.61323623195923
 51
174.9999994006733
  0
ARC
  5
CA0
330
C8C
100
AcDbEntity
  8
11111外轮廓线
 62
     7
370
     9
100
AcDbCircle
 10
22998.46756497895
 20
-25430.79473479207
 30
0.0
 40
2.999999999479998
100
AcDbArc
 50
180.0
 51
270.0
  0
ARC
  5
CA1
330
C8C
100
AcDbEntity
  8
11111外轮廓线
 62
     7
370
     9
100
AcDbCircle
 10
23512.46756497791
 20
-25430.79473479207
 30
0.0
 40
2.999999999479998
100
AcDbArc
 50
270.0
 51
0.0
  0
SPLINE
  5
CA2
330
C8C
100
AcDbEntity
  8
11111外轮廓线
 62
     7
370
     9
100
AcDbSpline
210
0.0
220
0.0
230
1.0
 70
     8
 71
     3
 72
    18
 73
    14
 74
    12
 42
0.0000000001
 43
0.0000000001
 44
0.0000000001
 12
-0.9999999999999571
 22
-0.0000002929200992
 32
0.0
 13
-0.9999993241994264
 23
-0.0011625836273654
 33
0.0
 40
0.0
 40
0.0
 40
0.0
 40
0.0
 40
2.545978441781476
 40
5.082510911939106
 40
7.599452881536695
 40
10.08816258050947
 40
12.53956255878827
 40
14.94415960667595
 40
17.29244318915579
 40
19.57576989347889
 40
21.78558906438129
 40
23.91364084076165
 40
25.95322076483946
 40
25.95322076483946
 40
25.95322076483946
 40
25.95322076483946
 10
23255.4675644247
 20
-25560.25594393111
 30
0.0
 10
23254.61890494411
 20
-25560.2559441797
 30
0.0
 10
23252.92473463566
 20
-25560.25609780539
 30
0.0
 10
23250.39158375934
 20
-25560.25680432725
 30
0.0
 10
23247.87752263698
 20
-25560.25797218645
 30
0.0
 10
23245.39183925224
 20
-25560.25956316423
 30
0.0
 10
23242.94360444804
 20
-25560.26151704962
 30
0.0
 10
23240.54217861725
 20
-25560.26375693523
 30
0.0
 10
23238.19677743707
 20
-25560.26619579257
 30
0.0
 10
23235.91630237309
 20
-25560.26874367927
 30
0.0
 10
23233.70923798614
 20
-25560.27131451529
 30
0.0
 10
23231.58342251874
 20
-25560.27383116892
 30
0.0
 10
23230.19421291531
 20
-25560.27546731657
 30
0.0
 10
23229.51435340007
 20
-25560.27625771065
 30
0.0
 11
23255.4675644247
 21
-25560.25594393111
 31
0.0
 11
23252.92158599369
 21
-25560.25617811148
 31
0.0
 11
23250.38505362202
 21
-25560.25688492491
 31
0.0
 11
23247.86811192235
 21
-25560.25805060456
 31
0.0
 11
23245.3794027291
 21
-25560.25963716477
 31
0.0
 11
23242.92800352471
 21
-25560.26158504505
 31
0.0
 11
23240.52340751349
 21
-25560.26381788031
 31
0.0
 11
23238.17512518948
 21
-25560.26624903115
 31
0.0
 11
23235.89179989839
 21
-25560.26878945024
 31
0.0
 11
23233.68198221491
 21
-25560.27135340499
 31
0.0
 11
23231.55393191933
 21
-25560.27386387241
 31
0.0
 11
23229.51435340007
 21
-25560.27625771065
 31
0.0
  0
SPLINE
  5
CA3
330
C8C
100
AcDbEntity
  8
11111外轮廓线
 62
     7
370
     9
100
AcDbSpline
210
0.0
220
0.0
230
1.0
 70
     8
 71
     3
 72
    18
 73
    14
 74
    12
 42
0.0000000001
 43
0.0000000001
 44
0.0000000001
 12
-0.9999993241978911
 22
0.0011625849478163
 32
0.0
 13
-0.9999999999999163
 23
0.0000004088940925
 33
0.0
 40
0.0
 40
0.0
 40
0.0
 40
0.0
 40
2.039393200932051
 40
4.167934095342273
 40
6.377701775374157
 40
8.66103620647074
 40
11.00931496051096
 40
13.41419360319501
 40
15.86554584479873
 40
18.35384950194926
 40
20.87081643986463
 40
23.40853655569275
 40
25.95322406027152
 40
25.95322406027152
 40
25.95322406027152
 40
25.95322406027152
 10
23281.42077874373
 20
-25560.27625946324
 30
0.0
 10
23280.7409814695
 20
-25560.27546914063
 30
0.0
 10
23279.35167106784
 20
-25560.27383287473
 30
0.0
 10
23277.22577196587
 20
-25560.2713160865
 30
0.0
 10
23275.01855912777
 20
-25560.2687450292
 30
0.0
 10
23272.73810026136
 20
-25560.26619708693
 30
0.0
 10
23270.39260425032
 20
-25560.26375802192
 30
0.0
 10
23267.99110207643
 20
-25560.26151794959
 30
0.0
 10
23265.54292466689
 20
-25560.25956397324
 30
0.0
 10
23263.05738421897
 20
-25560.25797290775
 30
0.0
 10
23260.54305423937
 20
-25560.25680467557
 30
0.0
 10
23258.00992947082
 20
-25560.25609801011
 30
0.0
 10
23256.3157935929
 20
-25560.25594427794
 30
0.0
 10
23255.4675644247
 20
-25560.25594393111
 30
0.0
 11
23281.42077874373
 21
-25560.27625946324
 31
0.0
 11
23279.38138694749
 21
-25560.27386583836
 31
0.0
 11
23277.25284753426
 21
-25560.27135476389
 31
0.0
 11
23275.04308134167
 21
-25560.2687908193
 31
0.0
 11
23272.75974832389
 21
-25560.26625031639
 31
0.0
 11
23270.41147082843
 21
-25560.26381906395
 31
0.0
 11
23268.00659322265
 21
-25560.26158585023
 31
0.0
 11
23265.55524175503
 21
-25560.25963787597
 31
0.0
 11
23263.06693860363
 21
-25560.25805138943
 31
0.0
 11
23260.54997193577
 21
-25560.25688545322
 31
0.0
 11
23258.0122519185
 21
-25560.25617815975
 31
0.0
 11
23255.4675644247
 21
-25560.25594393111
 31
0.0
  0
LINE
  5
CA4
330
C8C
100
AcDbEntity
  8
11111外轮廓线
 62
     7
370
     9
100
AcDbLine
 10
23290.85130589737
 20
-25560.27953609881
 30
0.0
 11
23281.42077825605
 21
-25560.27625946833
 31
0.0
  0
LINE
  5
CA5
330
C8C
100
AcDbEntity
  8
11111外轮廓线
 62
     7
370
     9
100
AcDbLine
 10
23297.10353642057
 20
-25560.27236124143
 30
0.0
 11
23290.85130605738
 21
-25560.27953609881
 31
0.0
  0
SPLINE
  5
CA6
330
C8C
100
AcDbEntity
  8
11111外轮廓线
 62
     7
370
     9
100
AcDbSpline
210
0.0
220
0.0
230
1.0
 70
     8
 71
     3
 72
    18
 73
    14
 74
    12
 42
0.0000000001
 43
0.0000000001
 44
0.0000000001
 12
-0.9999999999999834
 22
-0.0000001828119877
 32
0.0
 13
-0.999999107514948
 23
-0.0013360274350412
 33
0.0
 40
0.0
 40
0.0
 40
0.0
 40
0.0
 40
2.244582577128273
 40
4.480758076112538
 40
6.699491947459094
 40
8.893123933794498
 40
11.05361269398948
 40
13.17256639854587
 40
15.24159335143468
 40
17.25308225400252
 40
19.19951764932069
 40
21.07366014303853
 40
22.86961622216188
 40
22.86961622216188
 40
22.86961622216188
 40
22.86961622216188
 10
23255.46756497844
 20
-25564.81970656379
 30
0.0
 10
23254.71937078606
 20
-25564.81970670057
 30
0.0
 10
23253.2257847554
 20
-25564.81986353083
 30
0.0
 10
23250.99262087224
 20
-25564.82058389964
 30
0.0
 10
23248.7764407231
 20
-25564.82177403841
 30
0.0
 10
23246.58548976938
 20
-25564.82339442539
 30
0.0
 10
23244.42779919176
 20
-25564.82538301555
 30
0.0
 10
23242.31164393836
 20
-25564.82766085881
 30
0.0
 10
23240.24515556701
 20
-25564.83013889654
 30
0.0
 10
23238.23617348002
 20
-25564.83272529254
 30
0.0
 10
23236.29215296411
 20
-25564.83533252389
 30
0.0
 10
23234.41997671109
 20
-25564.83788229229
 30
0.0
 10
23233.19661164085
 20
-25564.8395383072
 30
0.0
 10
23232.59796014876
 20
-25564.84033812273
 30
0.0
 11
23255.46756497844
 21
-25564.81970656379
 31
0.0
 11
23253.22298241401
 21
-25564.81994537204
 31
0.0
 11
23250.98680703114
 21
-25564.82066601069
 31
0.0
 11
23248.76807347777
 21
-25564.821853862
 31
0.0
 11
23246.57444208652
 21
-25564.82346966015
 31
0.0
 11
23244.41395423581
 21
-25564.82545204887
 31
0.0
 11
23242.29500174779
 21
-25564.82772263869
 31
0.0
 11
23240.22597626939
 21
-25564.83019276075
 31
0.0
 11
23238.21448901983
 21
-25564.83277152115
 31
0.0
 11
23236.26805536127
 21
-25564.83537170898
 31
0.0
 11
23234.39391459343
 21
-25564.83791514815
 31
0.0
 11
23232.59796014876
 21
-25564.84033812273
 31
0.0
  0
SPLINE
  5
CA7
330
C8C
100
AcDbEntity
  8
11111外轮廓线
 62
     7
370
     9
100
AcDbSpline
210
0.0
220
0.0
230
1.0
 70
     8
 71
     3
 72
    18
 73
    14
 74
    12
 42
0.0000000001
 43
0.0000000001
 44
0.0000000001
 12
-0.9999991075183835
 22
0.0013360248636489
 32
0.0
 13
-0.99999999999995
 23
0.0000003158671243
 33
0.0
 40
0.0
 40
0.0
 40
0.0
 40
0.0
 40
1.795791667292942
 40
3.670364627946796
 40
5.61675446838709
 40
7.628249939511009
 40
9.697272396707091
 40
11.81647401824269
 40
13.97692049771452
 40
16.17019436948089
 40
18.38895001892646
 40
20.62617244252057
 40
22.86961651036223
 40
22.86961651036223
 40
22.86961651036223
 40
22.86961651036223
 10
23278.3371700951
 20
-25564.84033989564
 30
0.0
 10
23277.73857340691
 20
-25564.83954015487
 30
0.0
 10
23276.51511965171
 20
-25564.83788402348
 30
0.0
 10
23274.64286989872
 20
-25564.83533412044
 30
0.0
 10
23272.69871888945
 20
-25564.8327266693
 30
0.0
 10
23270.68975129656
 20
-25564.83014021119
 30
0.0
 10
23268.62317959545
 20
-25564.82766197318
 30
0.0
 10
23266.50695729536
 20
-25564.8253839274
 30
0.0
 10
23264.34931754396
 20
-25564.82339526211
 30
0.0
 10
23262.15849279608
 20
-25564.82177476968
 30
0.0
 10
23259.94207578439
 20
-25564.82058425893
 30
0.0
 10
23257.70893517011
 20
-25564.81986374155
 30
0.0
 10
23256.21537966771
 20
-25564.8197068
 30
0.0
 10
23255.46756497844
 20
-25564.81970656379
 30
0.0
 11
23278.3371700951
 21
-25564.84033989564
 31
0.0
 11
23276.54138006211
 21
-25564.83791714204
 31
0.0
 11
23274.66680882777
 21
-25564.83537309075
 31
0.0
 11
23272.72042072411
 21
-25564.8327729156
 31
0.0
 11
23270.7089269061
 21
-25564.83019406885
 31
0.0
 11
23268.63990592351
 21
-25564.82772384772
 31
0.0
 11
23266.52070551879
 21
-25564.82545286928
 31
0.0
 11
23264.3602599489
 21
-25564.82347039167
 31
0.0
 11
23262.16698667227
 21
-25564.82185466211
 31
0.0
 11
23259.94823134093
 21
-25564.82066655171
 31
0.0
 11
23257.71100903356
 21
-25564.81994542285
 31
0.0
 11
23255.46756497844
 21
-25564.81970656379
 31
0.0
  0
LINE
  5
CA8
330
C8C
100
AcDbEntity
  8
11111外轮廓线
 62
     7
370
     9
100
AcDbLine
 10
23220.08382652583
 20
-25560.27953376709
 30
0.0
 11
23213.83159981263
 21
-25560.27235733745
 31
0.0
  0
LINE
  5
CA9
330
C8C
100
AcDbEntity
  8
11111外轮廓线
 62
     7
370
     9
100
AcDbLine
 10
23229.51435389029
 20
-25560.27625771573
 30
0.0
 11
23220.08382668331
 21
-25560.27953376709
 31
0.0
  0
LINE
  5
CAA
330
C8C
100
AcDbEntity
  8
11111外轮廓线
 62
     7
370
     9
100
AcDbLine
 10
23295.5932450952
 20
-25560.09379573369
 30
0.0
 11
23461.72287408243
 21
-25543.68593114283
 31
0.0
  0
LINE
  5
CAB
330
C8C
100
AcDbEntity
  8
11111外轮廓线
 62
     7
370
     9
100
AcDbLine
 10
23215.34192020829
 20
-25560.09379573369
 30
0.0
 11
23049.21229122107
 21
-25543.68593114283
 31
0.0
  0
LINE
  5
CAC
330
C8C
100
AcDbEntity
  8
11111外轮廓线
 62
     7
370
     9
100
AcDbLine
 10
23040.31142495629
 20
-25535.25479405796
 30
0.0
 11
23025.37998028025
 21
-25438.57368978277
 31
0.0
  0
LINE
  5
CAD
330
C8C
100
AcDbEntity
  8
11111外轮廓线
 62
     7
370
     9
100
AcDbLine
 10
23485.55518502578
 20
-25438.57368978277
 30
0.0
 11
23470.62283495151
 21
-25535.26065651259
 31
0.0
  0
ARC
  5
CAE
330
C8C
100
AcDbEntity
  8
11111外轮廓线
 62
     7
370
     9
100
AcDbCircle
 10
23460.75033063255
 20
-25533.6674716827
 30
0.0
 40
9.999999999959998
100
AcDbArc
 50
275.4997946759792
 51
351.2201270964048
  0
ARC
  5
CAF
330
C8C
100
AcDbEntity
  8
11111外轮廓线
 62
     7
370
     9
100
AcDbCircle
 10
23050.19516339553
 20
-25533.73435015957
 30
0.0
 40
9.999999999959998
100
AcDbArc
 50
188.7794066287122
 51
264.3594506968249
  0
ARC
  5
CB0
330
C8C
100
AcDbEntity
  8
11111外轮廓线
 62
     7
370
     9
100
AcDbCircle
 10
23017.47418153511
 20
-25439.79473479305
 30
0.0
 40
7.999794569339998
100
AcDbArc
 50
8.779917399137385
 51
48.71135189559145
  0
ARC
  5
CB1
330
C8C
100
AcDbEntity
  8
11111外轮廓线
 62
     7
370
     9
100
AcDbCircle
 10
23493.46096705011
 20
-25439.79473479305
 30
0.0
 40
7.999787226199998
100
AcDbArc
 50
131.2885658082761
 51
171.220064322153
  0
LINE
  5
CB2
330
C8C
100
AcDbEntity
  8
11111外轮廓线
 62
     7
370
     9
100
AcDbLine
 10
23043.32041247772
 20
-25540.99642973895
 30
0.0
 11
23467.61612665514
 21
-25540.93801808414
 31
0.0
  0
ENDBLK
  5
C8E
330
C8C
100
AcDbEntity
  8
0
100
AcDbBlockEnd
  0
ENDSEC
  0
SECTION
  2
ENTITIES
  0
MTEXT
  5
155
330
2
100
AcDbEntity
  8
11111外轮廓线
 62
     7
370
     9
100
AcDbMText
 10
23997.46264460156
 20
-29137.01911146467
 30
0.0
 40
49.40878378378378
 41
98.14758445945944
 71
     1
 72
     5
  1
{\f\U+FFCB\U+FFCE\U+FFCC￥|b0|i0|c134|p54;第}
 73
     1
 44
1.0
  0
MTEXT
  5
156
330
2
100
AcDbEntity
  8
11111外轮廓线
 62
     7
370
     9
100
AcDbMText
 10
23724.43336963857
 20
-29138.80236881897
 30
0.0
 40
49.40878378378378
 41
107.0708108108108
 71
     1
 72
     5
  1
{\f\U+FFCB\U+FFCE\U+FFCC￥|b0|i0|c134|p54;张}
 73
     1
 44
1.0
  0
MTEXT
  5
157
330
2
100
AcDbEntity
  8
11111外轮廓线
 62
     7
370
     9
100
AcDbMText
 10
23460.32665568081
 20
-29135.23588319146
 30
0.0
 40
49.40878378378378
 41
112.4247466216216
 71
     1
 72
     5
  1
{\f\U+FFCB\U+FFCE\U+FFCC￥|b0|i0|c134|p54;共}
 73
     1
 44
1.0
  0
MTEXT
  5
158
330
2
100
AcDbEntity
  8
11111外轮廓线
 62
     7
370
     9
100
AcDbMText
 10
24243.72429059827
 20
-29137.01911146467
 30
0.0
 40
49.40878378378378
 41
80.30310810810814
 71
     1
 72
     5
  1
{\f\U+FFCB\U+FFCE\U+FFCC￥|b0|i0|c134|p54;张}
 73
     1
 44
1.0
  0
MTEXT
  5
15B
330
2
100
AcDbEntity
  8
11111外轮廓线
 62
     7
370
     9
100
AcDbMText
 10
23451.42963257429
 20
-29215.96770906996
 30
0.0
 40
29.64527027027028
 41
216.4934797297297
 71
     1
 72
     5
  1
{\fArial|b0|i0|c0|p34;SHEET}
 73
     1
 44
1.0
  0
MTEXT
  5
15C
330
2
100
AcDbEntity
  8
11111外轮廓线
 62
     7
370
     9
100
AcDbMText
 10
24002.50409168529
 20
-29215.96769515326
 30
0.0
 40
29.64527027027028
 41
96.76611486486486
 71
     1
 72
     5
  1
{\fArial|b0|i0|c0|p34;OF}
 73
     1
 44
1.0
  0
MTEXT
  5
15D
330
2
100
AcDbEntity
  8
11111外轮廓线
 62
     7
370
     9
100
AcDbMText
 10
24587.53326547058
 20
-28624.76556267174
 30
0.0
 40
49.40878378378378
 41
218.3097466216216
 71
     1
 72
     5
  1
{\f\U+FFCB\U+FFCE\U+FFCC￥|b0|i0|c134|p54;名称}
 73
     1
 44
1.0
  0
MTEXT
  5
15E
330
2
100
AcDbEntity
  8
11111外轮廓线
 62
     7
370
     9
100
AcDbMText
 10
24586.50050500329
 20
-28831.25727862538
 30
0.0
 40
49.40878378378378
 41
185.6485641891891
 71
     1
 72
     5
  1
{\f\U+FFCB\U+FFCE\U+FFCC￥|b0|i0|c134|p54;编号}
 73
     1
 44
1.0
  0
MTEXT
  5
161
330
2
100
AcDbEntity
  8
11111外轮廓线
 62
     7
370
     9
100
AcDbMText
 10
23302.91636633734
 20
-28863.3810922096
 30
0.0
 40
49.40878378378378
 41
354.4922128378379
 71
     1
 72
     5
  1
{\f\U+FFCB\U+FFCE\U+FFCC￥|b0|i0|c134|p2;图幅}
 73
     1
 44
1.0
  0
MTEXT
  5
162
330
2
100
AcDbEntity
  8
11111外轮廓线
 62
     7
370
     9
100
AcDbMText
 10
23303.9794562404
 20
-28946.17740645589
 30
0.0
 40
29.64527027027028
 41
600.0281756756757
 71
     1
 72
     5
  1
{\fArial|b0|i0|c0|p34;SIZE}
 73
     1
 44
1.0
  0
MTEXT
  5
165
330
2
100
AcDbEntity
  8
11111外轮廓线
 62
     7
370
     9
100
AcDbMText
 10
23606.05056851366
 20
-28898.87907004537
 30
0.0
 40
49.40878378378378
 41
353.1146959459459
 71
     1
 72
     5
  1
{\fSimSun|b0|i0|c134|p2;A5}
 73
     1
 44
1.0
  0
MTEXT
  5
166
330
2
100
AcDbEntity
  8
11111外轮廓线
 62
     7
370
     9
100
AcDbMText
 10
23299.74573308133
 20
-28666.33064452716
 30
0.0
 40
49.40878378378378
 41
1936.49625
 71
     1
 72
     5
  1
{\f\U+FFCB\U+FFCE\U+FFCC￥|b0|i0|c134|p54;材料}
 73
     1
 44
1.0
  0
MTEXT
  5
167
330
2
100
AcDbEntity
  8
11111外轮廓线
 62
     7
370
     9
100
AcDbMText
 10
23303.65830267765
 20
-28747.44651061195
 30
0.0
 40
29.64527027027028
 41
600.0281756756757
 71
     1
 72
     5
  1
{\fArial|b0|i0|c0|p34;MATERIAL}
 73
     1
 44
1.0
  0
MTEXT
  5
168
330
2
100
AcDbEntity
  8
11111外轮廓线
 62
     7
370
     9
100
AcDbMText
 10
24215.83007290279
 20
-29039.86052046387
 30
0.0
 40
49.40878378378378
 41
112.8931418918919
 71
     1
 72
     5
  1
{\fArial|b0|i0|c0|p34;mm}
 73
     1
 44
1.0
  0
MTEXT
  5
169
330
2
100
AcDbEntity
  8
11111外轮廓线
 62
     7
370
     9
100
AcDbMText
 10
23839.60624879622
 20
-28867.24552547373
 30
0.0
 40
49.40878378378378
 41
158.6101013513514
 71
     1
 72
     5
  1
{\f\U+FFCB\U+FFCE\U+FFCC￥|b0|i0|c134|p54;比例}
 73
     1
 44
1.0
  0
MTEXT
  5
16A
330
2
100
AcDbEntity
  8
11111外轮廓线
 62
     7
370
     9
100
AcDbMText
 10
23848.40713664374
 20
-29087.76866157174
 30
0.0
 40
29.64527027027028
 41
253.5362331081081
 71
     1
 72
     5
  1
{\fArial|b0|i0|c0|p34;UNIT}
 73
     1
 44
1.0
  0
MTEXT
  5
16B
330
2
100
AcDbEntity
  8
11111外轮廓线
 62
     7
370
     9
100
AcDbMText
 10
23837.24294231442
 20
-29001.98710954239
 30
0.0
 40
49.40878378378378
 41
195.3228040540541
 71
     1
 72
     5
  1
{\f\U+FFCB\U+FFCE\U+FFCC￥|b0|i0|c134|p54;单位}
 73
     1
 44
1.0
  0
MTEXT
  5
16C
330
2
100
AcDbEntity
  8
11111外轮廓线
 62
     7
370
     9
100
AcDbMText
 10
23839.7867494619
 20
-28946.37918731612
 30
0.0
 40
29.64527027027028
 41
299.2235472972973
 71
     1
 72
     5
  1
{\fArial|b0|i0|c0|p34;SCALE}
 73
     1
 44
1.0
  0
MTEXT
  5
16E
330
2
100
AcDbEntity
  8
11111外轮廓线
 62
     7
370
     9
100
AcDbMText
 10
24599.64827878526
 20
-28724.18218613855
 30
0.0
 40
29.64527027027028
 41
936.8399493243243
 71
     1
 72
     5
  1
{\fArial|b0|i0|c0|p34;TITLE}
 73
     1
 44
1.0
  0
MTEXT
  5
171
330
2
100
AcDbEntity
  8
11111外轮廓线
 62
     7
370
     9
100
AcDbMText
 10
24592.29043158228
 20
-28926.5304678044
 30
0.0
 40
29.64527027027028
 41
936.8399493243243
 71
     1
 72
     5
  1
{\fArial|b0|i0|c0|p34;PART\fArial|b0|i0|c134|p34; \fArial|b0|i0|c0|p34;NO.}
 73
     1
 44
1.0
  0
MTEXT
  5
17B
330
2
100
AcDbEntity
  8
11111外轮廓线
 62
     7
370
     9
100
AcDbMText
 10
22259.90732886506
 20
-29139.18377419596
 30
0.0
 40
49.40878378378378
 41
237.1621621621621
 71
     1
 72
     5
  1
{\f\U+FFCB\U+FFCE\U+FFCC￥|b0|i0|c134|p54;批准}
 73
     1
 44
1.0
  0
MTEXT
  5
17C
330
2
100
AcDbEntity
  8
11111外轮廓线
 62
     7
370
     9
100
AcDbMText
 10
22260.42456948938
 20
-28724.49310150137
 30
0.0
 40
49.40878378378378
 41
141.3051689189189
 71
     1
 72
     5
  1
{\f\U+FFCB\U+FFCE\U+FFCC￥|b0|i0|c134|p54;审核}
 73
     1
 44
1.0
  0
MTEXT
  5
17D
330
2
100
AcDbEntity
  8
11111外轮廓线
 62
     7
370
     9
100
AcDbMText
 10
22260.42531247655
 20
-28586.54896529875
 30
0.0
 40
49.40878378378378
 41
148.2223986486486
 71
     1
 72
     5
  1
{\fSimSun|b0|i0|c134|p54;设计}
 73
     1
 44
1.0
  0
MTEXT
  5
17E
330
2
100
AcDbEntity
  8
11111外轮廓线
 62
     7
370
     9
100
AcDbMText
 10
22223.04661936278
 20
-29002.42060175841
 30
0.0
 40
49.40878378378378
 41
226.4029054054054
 71
     1
 72
     5
  1
{\f\U+FFCB\U+FFCE\U+FFCC￥|b0|i0|c134|p54;标准化}
 73
     1
 44
1.0
  0
MTEXT
  5
17F
330
2
100
AcDbEntity
  8
11111外轮廓线
 62
     7
370
     9
100
AcDbMText
 10
22258.94303851188
 20
-28866.47996653352
 30
0.0
 40
49.40878378378378
 41
141.3051689189189
 71
     1
 72
     5
  1
{\f\U+FFCB\U+FFCE\U+FFCC￥|b0|i0|c134|p54;工艺}
 73
     1
 44
1.0
  0
MTEXT
  5
180
330
2
100
AcDbEntity
  8
11111外轮廓线
 62
     7
370
     9
100
AcDbMText
 10
22178.74586190621
 20
-29083.18542047206
 30
0.0
 40
29.64527027027028
 41
600.0281756756757
 71
     1
 72
     5
  1
{\fArial|b0|i0|c0|p34;STANDARDIZE}
 73
     1
 44
1.0
1001
AcDbBlockRepETag
1070
     1
1071
       76
1005
0
  0
MTEXT
  5
182
330
2
100
AcDbEntity
  8
11111外轮廓线
 62
     7
370
     9
100
AcDbMText
 10
22244.19322011381
 20
-28942.59672071564
 30
0.0
 40
29.64527027027028
 41
600.0281756756757
 71
     1
 72
     5
  1
{\fArial|b0|i0|c0|p34;PROCESS}
 73
     1
 44
1.0
1001
AcDbBlockRepETag
1070
     1
1071
       77
1005
0
  0
MTEXT
  5
183
330
2
100
AcDbEntity
  8
11111外轮廓线
 62
     7
370
     9
100
AcDbMText
 10
22260.65498863327
 20
-28671.26090916185
 30
0.0
 40
29.64527027027028
 41
600.0281756756757
 71
     1
 72
     5
  1
{\fArial|b0|i0|c0|p34;DESIGN}
 73
     1
 44
1.0
1001
AcDbBlockRepETag
1070
     1
1071
       78
1005
0
  0
MTEXT
  5
184
330
2
100
AcDbEntity
  8
11111外轮廓线
 62
     7
370
     9
100
AcDbMText
 10
22267.22613271634
 20
-28801.15243988656
 30
0.0
 40
29.64527027027028
 41
600.0281756756757
 71
     1
 72
     5
  1
{\fArial|b0|i0|c0|p34;CHECK}
 73
     1
 44
1.0
1001
AcDbBlockRepETag
1070
     1
1071
       79
1005
0
  0
MTEXT
  5
18E
330
2
100
AcDbEntity
  8
11111外轮廓线
 62
     7
370
     9
100
AcDbMText
 10
24163.19555105476
 20
-23701.69485843997
 30
0.0
 40
29.64527027027028
 41
135.3780912162162
 71
     1
 72
     5
  1
{\fArial|b0|i0|c0|p34;REV.}
 73
     1
 44
1.0
  0
MTEXT
  5
18F
330
2
100
AcDbEntity
  8
11111外轮廓线
 62
     7
370
     9
100
AcDbMText
 10
24138.35576749258
 20
-23621.96029492287
 30
0.0
 40
49.40878378378377
 41
211.4162331081081
 71
     1
 72
     5
  1
{\fSimSun|b0|i0|c134|p2;版本}
 73
     1
 44
1.0
  0
MTEXT
  5
190
330
2
100
AcDbEntity
  8
11111外轮廓线
 62
     7
370
     9
100
AcDbMText
 10
24730.69293641907
 20
-23621.24633137096
 30
0.0
 40
49.40878378378377
 41
211.4162331081081
 71
     1
 72
     5
  1
{\f\U+FFCB\U+FFCE\U+FFCC￥|b0|i0|c134|p2;日期}
 73
     1
 44
1.0
  0
MTEXT
  5
191
330
2
100
AcDbEntity
  8
11111外轮廓线
 62
     7
370
     9
100
AcDbMText
 10
24393.93854122298
 20
-23710.30047668604
 30
0.0
 40
29.64527027027028
 41
444.3272635135135
 71
     1
 72
     5
  1
{\fArial|b0|i0|c0|p34;DESIGN}
 73
     1
 44
1.0
  0
MTEXT
  5
192
330
2
100
AcDbEntity
  8
11111外轮廓线
 62
     7
370
     9
100
AcDbMText
 10
24387.00085989843
 20
-23627.15113179234
 30
0.0
 40
49.40878378378377
 41
148.2223986486486
 71
     1
 72
     5
  1
{\f\U+FFCB\U+FFCE\U+FFCC￥|b0|i0|c134|p54;设计}
 73
     1
 44
1.0
  0
MTEXT
  5
193
330
2
100
AcDbEntity
  8
11111外轮廓线
 62
     7
370
     9
100
AcDbMText
 10
25562.86278044348
 20
-23621.24633137096
 30
0.0
 40
49.40878378378377
 41
211.4162331081081
 71
     1
 72
     5
  1
{\fSimSun|b0|i0|c134|p2;处数}
 73
     1
 44
1.0
  0
MTEXT
  5
194
330
2
100
AcDbEntity
  8
11111外轮廓线
 62
     7
370
     9
100
AcDbMText
 10
25386.0836046765
 20
-23703.92014274822
 30
0.0
 40
29.64527027027028
 41
135.3780912162162
 71
     1
 72
     5
  1
{\fArial|b0|i0|c0|p34;MARK}
 73
     1
 44
1.0
  0
MTEXT
  5
195
330
2
100
AcDbEntity
  8
11111外轮廓线
 62
     7
370
     9
100
AcDbMText
 10
25365.02021053625
 20
-23621.24633137096
 30
0.0
 40
49.40878378378377
 41
211.4162331081081
 71
     1
 72
     5
  1
{\fSimSun|b0|i0|c134|p2;标记}
 73
     1
 44
1.0
  0
MTEXT
  5
196
330
2
100
AcDbEntity
  8
11111外轮廓线
 62
     7
370
     9
100
AcDbMText
 10
24987.3330506314
 20
-23621.24633137096
 30
0.0
 40
49.40878378378377
 41
284.6523573956659
 71
     1
 72
     5
  1
{\fSimSun|b0|i0|c134|p2;变更内容}
 73
     1
 44
1.0
  0
MTEXT
  5
197
330
2
100
AcDbEntity
  8
11111外轮廓线
 62
     7
370
     9
100
AcDbMText
 10
25599.12593819315
 20
-23708.61560485762
 30
0.0
 40
29.64527027027028
 41
135.3780912162162
 71
     1
 72
     5
  1
{\fArial|b0|i0|c0|p34;QTY.}
 73
     1
 44
1.0
  0
MTEXT
  5
198
330
2
100
AcDbEntity
  8
11111外轮廓线
 62
     7
370
     9
100
AcDbMText
 10
25036.88477879381
 20
-23710.0492366261
 30
0.0
 40
29.64527027027028
 41
275.1822647527855
 71
     1
 72
     5
  1
{\fArial|b0|i0|c0|p34;CONTENTS}
 73
     1
 44
1.0
  0
MTEXT
  5
199
330
2
100
AcDbEntity
  8
11111外轮廓线
 62
     7
370
     9
100
AcDbMText
 10
21849.38026656944
 20
-27809.69435009352
 30
0.0
 40
49.40878378378377
 41
288.760661474971
 71
     1
 72
     5
  1
{\fSimSun|b0|i0|c134|p2;机型编号}
 73
     1
 44
1.0
  0
MTEXT
  5
19A
330
2
100
AcDbEntity
  8
11111外轮廓线
 62
     7
370
     9
100
AcDbMText
 10
21912.54528867355
 20
-27889.96460085243
 30
0.0
 40
35.57432432432432
 41
228.0006330005771
 71
     1
 72
     5
  1
{\fArial|b0|i0|c0|p34;TYPE}
 73
     1
 44
1.0
  0
MTEXT
  5
19D
330
2
100
AcDbEntity
  8
11111外轮廓线
 62
     7
370
     9
100
AcDbMText
 10
24155.91900104631
 20
-23800.29211355344
 30
0.0
 40
49.40878378378377
 41
197.6351351351351
 71
     1
 72
     5
  1
{\fSimSun|b0|i0|c134|p2;0.0}
 73
     1
 44
1.0
  0
MTEXT
  5
19E
330
2
100
AcDbEntity
  8
11111外轮廓线
 62
     7
370
     9
100
AcDbMText
 10
24780.82939118706
 20
-29183.10820330546
 30
0.0
 40
39.52702702702703
 41
749.4719594594595
 71
     1
 72
     5
  1
{\fSimSun|b0|i0|c134|p54;上海优胜卫厨科技有限公司}
 73
     1
 44
1.0
  0
MTEXT
  5
1A0
330
2
100
AcDbEntity
  8
11111外轮廓线
 62
     7
370
     9
100
AcDbMText
 10
24652.13076453781
 20
-29118.96448795346
 30
0.0
 40
39.52702702702703
 41
1042.980247086755
 71
     1
 72
     5
  1
{\f@SimSun|b0|i0|c134|p2;AXENT\f@SimSun|b0|i0|c0|p2;(SHANGHAI)\f@SimSun|b0|i0|c134|p2; CORPORATION LIMITED}
 73
     1
 44
1.0
  0
MTEXT
  5
1A7
330
2
100
AcDbEntity
  8
11111外轮廓线
 62
     7
370
     9
100
AcDbMText
 10
24170.37655970841
 20
-28889.00474584298
 30
0.0
 40
54.0
 41
518.6182005311275
 71
     1
 72
     5
  1
{\fArial|b0|i0|c0|p34;1:30}
 73
     1
 44
1.0
  0
MTEXT
  5
1A8
330
2
100
AcDbEntity
  8
11111外轮廓线
 62
     7
370
     9
100
AcDbMText
 10
24893.21171136607
 20
-28861.96235329393
 30
0.0
 40
54.0
 41
518.6182005311275
 71
     1
 72
     5
  1
{\fSimSun|b0|i0|c134|p2;L062-4101}
 73
     1
 44
1.0
  0
MTEXT
  5
1A9
330
2
100
AcDbEntity
  8
11111外轮廓线
 62
     7
370
     9
100
AcDbMText
 10
24889.31026281533
 20
-28643.79523238563
 30
0.0
 40
54.0
 41
625.8944538888477
 71
     1
 72
     5
  1
{\fSimSun|b0|i0|c134|p2;吉恩台下盆}
 73
     1
 44
1.0
  0
MTEXT
  5
1AA
102
{ACAD_XDICTIONARY
360
1AB
102
}
330
2
100
AcDbEntity
  8
11111外轮廓线
 62
     7
370
     9
100
AcDbMText
 10
23254.53916937299
 20
-26332.16691514661
 30
0.0
 40
38.54170520837188
 41
607.7481267098209
 71
     2
 72
     5
  1
{\fArial|b0|i0|c0|p34;Front\fArial|b0|i0|c134|p34; \fArial|b0|i0|c0|p34;view\fArial|b0|i0|c134|p34;\P\fSimSun|b0|i0|c134|p2;主视图}
 73
     1
 44
1.0
  0
MTEXT
  5
1AC
330
2
100
AcDbEntity
  8
11111外轮廓线
 62
     7
370
     9
100
AcDbMText
 10
24659.40000647219
 20
-26337.9804544409
 30
0.0
 40
38.54170520837188
 41
607.7481267098209
 71
     2
 72
     5
  1
\pi6.346;{\fArial|b0|i0|c0|p34;Left\fArial|b0|i0|c134|p34; \fArial|b0|i0|c0|p34;view\fArial|b0|i0|c134|p34;\P\pi0;\fSimSun|b0|i0|c134|p2;左视图}
 73
     1
 44
1.0
  0
MTEXT
  5
1AE
102
{ACAD_XDICTIONARY
360
1AF
102
}
330
2
100
AcDbEntity
  8
11111外轮廓线
 62
     7
370
     9
100
AcDbMText
 10
23266.06106932846
 20
-27756.12343606376
 30
0.0
 40
38.75000000000001
 41
607.7481267098209
 71
     2
 72
     5
  1
{\fArial|b0|i0|c0|p34;Top\fArial|b0|i0|c134|p34; \fArial|b0|i0|c0|p34;view\fArial|b0|i0|c134|p34;\P\fSimSun|b0|i0|c134|p2;俯视图}
 73
     1
 44
1.0
  0
LINE
  5
75F
330
2
100
AcDbEntity
  8
0
  6
Continuous
 62
     7
100
AcDbLine
 10
22995.46756497843
 20
-25427.79473479415
 30
0.0
 11
22995.46756497843
 21
-25424.79473479415
 31
0.0
  0
LINE
  5
760
330
2
100
AcDbEntity
  8
0
  6
Continuous
 62
     7
100
AcDbLine
 10
23040.78571221184
 20
-25538.32591848316
 30
0.0
 11
23041.03624056713
 21
-25539.34585455986
 31
0.0
  0
LINE
  5
761
330
2
100
AcDbEntity
  8
0
  6
Continuous
 62
     7
100
AcDbLine
 10
23040.78488676053
 20
-25538.32057368585
 30
0.0
 11
23025.37996260574
 21
-25438.57368978355
 31
0.0
  0
LINE
  5
762
330
2
100
AcDbEntity
  8
0
  6
Continuous
 62
     7
100
AcDbLine
 10
23219.97856555373
 20
-25567.38293324286
 30
0.0
 11
23221.31857007434
 21
-25592.95174266285
 31
0.0
  0
LINE
  5
763
330
2
100
AcDbEntity
  8
0
  6
Continuous
 62
     7
100
AcDbLine
 10
23212.12944765184
 20
-25433.79473479425
 30
0.0
 11
23212.12961055114
 21
-25438.72699647825
 31
0.0
  0
LINE
  5
764
330
2
100
AcDbEntity
  8
0
  6
Continuous
 62
     7
100
AcDbLine
 10
23286.62067127824
 20
-25595.79473479415
 30
0.0
 11
23224.31445867854
 21
-25595.79473479415
 31
0.0
  0
LINE
  5
765
330
2
100
AcDbEntity
  8
0
  6
Continuous
 62
     7
100
AcDbLine
 10
23206.19346408704
 20
-25438.81978004696
 30
0.0
 11
23223.92512195484
 21
-25583.23254446445
 31
0.0
  0
LINE
  5
766
330
2
100
AcDbEntity
  8
0
  6
Continuous
 62
     7
100
AcDbLine
 10
23227.34793704184
 20
-25567.83135891295
 30
0.0
 11
23229.76583887704
 21
-25587.52370717756
 31
0.0
  0
LINE
  5
767
330
2
100
AcDbEntity
  8
0
  6
Continuous
 62
     7
100
AcDbLine
 10
23212.12880431484
 20
-25438.72699647825
 30
0.0
 11
23224.49993327833
 21
-25539.48175646186
 31
0.0
  0
LINE
  5
768
330
2
100
AcDbEntity
  8
0
  6
Continuous
 62
     7
100
AcDbLine
 10
23298.15930293164
 20
-25559.84035617866
 30
0.0
 11
23464.80944122423
 21
-25543.38108326085
 31
0.0
  0
LINE
  5
769
330
2
100
AcDbEntity
  8
0
  6
Continuous
 62
     7
100
AcDbLine
 10
23212.77582702524
 20
-25559.84035617866
 30
0.0
 11
23046.12568873264
 21
-25543.38108326085
 31
0.0
  0
LINE
  5
76A
330
2
100
AcDbEntity
  8
0
  6
Continuous
 62
     7
100
AcDbLine
 10
23290.95656440314
 20
-25567.38293324286
 30
0.0
 11
23289.61655988253
 21
-25592.95174266285
 31
0.0
  0
LINE
  5
76B
330
2
100
AcDbEntity
  8
0
  6
Continuous
 62
     7
100
AcDbLine
 10
23286.43519667853
 20
-25539.48175646186
 30
0.0
 11
23298.80632564204
 21
-25438.72699647825
 31
0.0
  0
LINE
  5
76C
330
2
100
AcDbEntity
  8
0
  6
Continuous
 62
     7
100
AcDbLine
 10
23281.16928886404
 20
-25587.52368266515
 30
0.0
 11
23283.58719291504
 21
-25567.83135891295
 31
0.0
  0
LINE
  5
76D
330
2
100
AcDbEntity
  8
0
  6
Continuous
 62
     7
100
AcDbLine
 10
23287.01000813393
 20
-25583.23254339005
 30
0.0
 11
23304.74166586983
 21
-25438.81978004696
 31
0.0
  0
LINE
  5
76E
330
2
100
AcDbEntity
  8
0
  6
Continuous
 62
     7
100
AcDbLine
 10
23298.80583226703
 20
-25433.79473479425
 30
0.0
 11
23298.80571415553
 21
-25438.72699647825
 31
0.0
  0
LINE
  5
76F
330
2
100
AcDbEntity
  8
0
  6
Continuous
 62
     7
100
AcDbLine
 10
23001.46756497843
 20
-25433.79473479415
 30
0.0
 11
23509.46756497843
 21
-25433.79473479415
 31
0.0
  0
LINE
  5
770
330
2
100
AcDbEntity
  8
0
  6
Continuous
 62
     7
100
AcDbLine
 10
23001.46756497843
 20
-25418.79473479415
 30
0.0
 11
23509.46756497843
 21
-25418.79473479415
 31
0.0
  0
LINE
  5
771
330
2
100
AcDbEntity
  8
0
  6
Continuous
 62
     7
100
AcDbLine
 10
23469.89887874194
 20
-25539.34588580716
 30
0.0
 11
23470.15038977684
 21
-25538.31962457686
 31
0.0
  0
LINE
  5
772
330
2
100
AcDbEntity
  8
0
  6
Continuous
 62
     7
100
AcDbLine
 10
23485.55516735113
 20
-25438.57368978355
 30
0.0
 11
23470.15038949333
 21
-25538.31962641246
 31
0.0
  0
LINE
  5
773
330
2
100
AcDbEntity
  8
0
  6
Continuous
 62
     7
100
AcDbLine
 10
23515.46756497843
 20
-25427.79473479415
 30
0.0
 11
23515.46756497843
 21
-25424.79473479415
 31
0.0
  0
ARC
  5
7CA
330
2
100
AcDbEntity
  8
0
  6
Continuous
 62
     7
100
AcDbCircle
 10
23211.98952962454
 20
-25567.80162088956
 30
0.0
 40
7.999999936
100
AcDbArc
 50
3.000000107708715
 51
84.35945305193687
  0
ARC
  5
7CB
330
2
100
AcDbEntity
  8
0
  6
Continuous
 62
     7
100
AcDbCircle
 10
23046.71541204124
 20
-25537.41013470196
 30
0.0
 40
6.0
100
AcDbArc
 50
198.8214441668292
 51
264.3594506235155
  0
ARC
  5
7CC
330
2
100
AcDbEntity
  8
0
  6
Continuous
 62
     7
100
AcDbCircle
 10
23224.31445867854
 20
-25592.79473479415
 30
0.0
 40
3.0
100
AcDbArc
 50
183.0000000000061
 51
270.0
  0
ARC
  5
7CD
330
2
100
AcDbEntity
  8
0
  6
Continuous
 62
     7
100
AcDbCircle
 10
23198.25309487394
 20
-25439.79473479415
 30
0.0
 40
8.0
100
AcDbArc
 50
7.000000000044396
 51
48.61638657827717
  0
ARC
  5
7CE
330
2
100
AcDbEntity
  8
0
  6
Continuous
 62
     7
100
AcDbCircle
 10
23017.47400794594
 20
-25439.79473479415
 30
0.0
 40
7.999863052899999
100
AcDbArc
 50
8.779746946588453
 51
49.39113178758212
  0
ARC
  5
7CF
330
2
100
AcDbEntity
  8
0
  6
Continuous
 62
     7
100
AcDbCircle
 10
23001.46756497843
 20
-25427.79473479415
 30
0.0
 40
6.0
100
AcDbArc
 50
180.0
 51
270.0
  0
ARC
  5
7D0
330
2
100
AcDbEntity
  8
0
  6
Continuous
 62
     7
100
AcDbCircle
 10
23001.46756497843
 20
-25424.79473479415
 30
0.0
 40
6.0
100
AcDbArc
 50
90.0
 51
180.0
  0
ARC
  5
7D1
330
2
100
AcDbEntity
  8
0
  6
Continuous
 62
     7
100
AcDbCircle
 10
23298.94559452194
 20
-25567.80162130376
 30
0.0
 40
7.999998875299999
100
AcDbArc
 50
95.64050524389987
 51
176.999994751765
  0
ARC
  5
7D2
330
2
100
AcDbEntity
  8
0
  6
Continuous
 62
     7
100
AcDbCircle
 10
23464.21971790874
 20
-25537.41013474635
 30
0.0
 40
6.0
100
AcDbArc
 50
275.6405494828873
 51
341.1782410172283
  0
ARC
  5
7D3
330
2
100
AcDbEntity
  8
0
  6
Continuous
 62
     7
100
AcDbCircle
 10
23286.62067127824
 20
-25592.79473479415
 30
0.0
 40
3.0
100
AcDbArc
 50
270.0
 51
356.9999999999938
  0
ARC
  5
7D4
330
2
100
AcDbEntity
  8
0
  6
Continuous
 62
     7
100
AcDbCircle
 10
23312.68203820774
 20
-25439.79473479415
 30
0.0
 40
8.0000017723
100
AcDbArc
 50
131.3835721292554
 51
173.000002727523
  0
ARC
  5
7D5
330
2
100
AcDbEntity
  8
0
  6
Continuous
 62
     7
100
AcDbCircle
 10
23493.46115262453
 20
-25439.79473479415
 30
0.0
 40
7.9998764995
100
AcDbArc
 50
130.6105400979365
 51
171.2202865205268
  0
ARC
  5
7D6
330
2
100
AcDbEntity
  8
0
  6
Continuous
 62
     7
100
AcDbCircle
 10
23509.46756497843
 20
-25427.79473479415
 30
0.0
 40
6.0
100
AcDbArc
 50
270.0
 51
0.0
  0
ARC
  5
7D7
330
2
100
AcDbEntity
  8
0
  6
Continuous
 62
     7
100
AcDbCircle
 10
23509.46756497843
 20
-25424.79473479415
 30
0.0
 40
6.0
100
AcDbArc
 50
0.0
 51
90.0
  0
SPLINE
  5
819
330
2
100
AcDbEntity
  8
0
  6
Continuous
 62
     7
100
AcDbSpline
210
0.0
220
0.0
230
1.0
 70
     8
 71
     3
 72
    12
 73
     8
 74
     0
 42
0.0000000001
 43
0.0000000001
 40
0.0
 40
0.0
 40
0.0
 40
0.0
 40
0.2173685567
 40
0.4317127905
 40
0.7141188795000001
 40
0.8672005784000001
 40
1.0
 40
1.0
 40
1.0
 40
1.0
 10
23287.01000800224
 20
-25583.23254446325
 30
0.0
 10
23286.93968596044
 20
-25583.80528771666
 30
0.0
 10
23286.57823063344
 20
-25584.93318051676
 30
0.0
 10
23285.31050659384
 20
-25586.38919671675
 30
0.0
 10
23283.76871744813
 20
-25587.26306471995
 30
0.0
 10
23282.28650243354
 20
-25587.58367103765
 30
0.0
 10
23281.51644817864
 20
-25587.58503730875
 30
0.0
 10
23281.16929068734
 20
-25587.52366781525
 30
0.0
  0
SPLINE
  5
81A
330
2
100
AcDbEntity
  8
0
  6
Continuous
 62
     7
100
AcDbSpline
210
0.0
220
0.0
230
1.0
 70
     8
 71
     3
 72
    12
 73
     8
 74
     0
 42
0.0000000001
 43
0.0000000001
 40
0.0
 40
0.0
 40
0.0
 40
0.0
 40
0.1328185772
 40
0.2858992986
 40
0.5682996597
 40
0.7826350990000001
 40
1.0
 40
1.0
 40
1.0
 40
1.0
 10
23229.76583894323
 20
-25587.52370771655
 30
0.0
 10
23229.41865707524
 20
-25587.58523281245
 30
0.0
 10
23228.64850973784
 20
-25587.58357966525
 30
0.0
 10
23227.16629306074
 20
-25587.26307221605
 30
0.0
 10
23225.62455052973
 20
-25586.38912365666
 30
0.0
 10
23224.35688405684
 20
-25584.93314311875
 30
0.0
 10
23223.99544290294
 20
-25583.80527852155
 30
0.0
 10
23223.92512195484
 20
-25583.23254446445
 30
0.0
  0
SPLINE
  5
81B
330
2
100
AcDbEntity
  8
0
  6
Continuous
 62
     7
100
AcDbSpline
210
0.0
220
0.0
230
1.0
 70
     8
 71
     3
 72
     9
 73
     5
 74
     0
 42
0.0000000001
 43
0.0000000001
 40
0.0
 40
0.0
 40
0.0
 40
0.0
 40
0.5387384731
 40
1.0
 40
1.0
 40
1.0
 40
1.0
 10
23255.46756497844
 20
-25586.25385799316
 30
0.0
 10
23260.09046229354
 20
-25586.25401398435
 30
0.0
 10
23268.67168113684
 20
-25586.44681257736
 30
0.0
 10
23277.23843872444
 20
-25587.06028587315
 30
0.0
 10
23281.16928886404
 20
-25587.52368266515
 30
0.0
  0
SPLINE
  5
81C
330
2
100
AcDbEntity
  8
0
  6
Continuous
 62
     7
100
AcDbSpline
210
0.0
220
0.0
230
1.0
 70
     8
 71
     3
 72
     9
 73
     5
 74
     0
 42
0.0000000001
 43
0.0000000001
 40
0.0
 40
0.0
 40
0.0
 40
0.0
 40
0.4612205759
 40
1.0
 40
1.0
 40
1.0
 40
1.0
 10
23229.76583887704
 20
-25587.52370717756
 30
0.0
 10
23233.69634469104
 20
-25587.06038513125
 30
0.0
 10
23242.26309052964
 20
-25586.44677224295
 30
0.0
 10
23250.84431545914
 20
-25586.25403825766
 30
0.0
 10
23255.46756497844
 20
-25586.25385799316
 30
0.0
  0
LINE
  5
81D
330
2
100
AcDbEntity
  8
0
  6
Continuous
 62
     7
100
AcDbLine
 10
23224.49993327833
 20
-25539.48175646186
 30
0.0
 11
23227.34793704184
 21
-25567.83135891295
 31
0.0
  0
LINE
  5
81E
330
2
100
AcDbEntity
  8
0
  6
Continuous
 62
     7
100
AcDbLine
 10
23283.58719291504
 20
-25567.83135891295
 30
0.0
 11
23286.43519667853
 21
-25539.48175646186
 31
0.0
  0
LINE
  5
A67
330
2
100
AcDbEntity
  8
0
  6
Continuous
 62
     7
100
AcDbLine
 10
24813.32001435184
 20
-25427.79473479415
 30
0.0
 11
24813.32001435184
 21
-25424.79473479415
 31
0.0
  0
LINE
  5
A68
330
2
100
AcDbEntity
  8
0
  6
Continuous
 62
     7
100
AcDbLine
 10
24786.02477057464
 20
-25539.48175646186
 30
0.0
 11
24799.59363293414
 21
-25438.72699647825
 31
0.0
  0
LINE
  5
A69
330
2
100
AcDbEntity
  8
0
  6
Continuous
 62
     7
100
AcDbLine
 10
24763.93058923444
 20
-25542.26807838356
 30
0.0
 11
24763.91764888454
 21
-25542.21396502175
 31
0.0
  0
LINE
  5
A6A
330
2
100
AcDbEntity
  8
0
  6
Continuous
 62
     7
100
AcDbLine
 10
24769.17220777254
 20
-25537.22296274776
 30
0.0
 11
24784.40761672454
 21
-25438.57368978355
 31
0.0
  0
LINE
  5
A6B
330
2
100
AcDbEntity
  8
0
  6
Continuous
 62
     7
100
AcDbLine
 10
24539.16690805204
 20
-25595.79473479415
 30
0.0
 11
24601.47312065174
 21
-25595.79473479415
 31
0.0
  0
LINE
  5
A6C
330
2
100
AcDbEntity
  8
0
  6
Continuous
 62
     7
100
AcDbLine
 10
24596.96059607454
 20
-25587.52368266515
 30
0.0
 11
24757.34170268424
 21
-25567.83135891295
 31
0.0
  0
LINE
  5
A6D
330
2
100
AcDbEntity
  8
06___PRT_ALL_SURFS
  6
Continuous
 62
     7
100
AcDbLine
 10
24528.21133240714
 20
-25559.66942775715
 30
0.0
 11
24482.95616262034
 21
-25551.72922777706
 31
0.0
  0
LINE
  5
A6E
330
2
100
AcDbEntity
  8
0
  6
Continuous
 62
     7
100
AcDbLine
 10
24604.67220753224
 20
-25589.07448857935
 30
0.0
 11
24604.46900925594
 21
-25592.95174266285
 31
0.0
  0
LINE
  5
A6F
330
2
100
AcDbEntity
  8
0
  6
Continuous
 62
     7
100
AcDbLine
 10
24534.81777823744
 20
-25567.13036215786
 30
0.0
 11
24536.17101944774
 21
-25592.95174266285
 31
0.0
  0
LINE
  5
A70
330
2
100
AcDbEntity
  8
0
  6
Continuous
 62
     7
100
AcDbLine
 10
24807.32001435184
 20
-25433.79473479415
 30
0.0
 11
24443.32001435184
 21
-25433.79473479415
 31
0.0
  0
LINE
  5
A71
330
2
100
AcDbEntity
  8
0
  6
Continuous
 62
     7
100
AcDbLine
 10
24465.56559523334
 20
-25438.87424820115
 30
0.0
 11
24478.03244162214
 21
-25546.50468869096
 31
0.0
  0
LINE
  5
A72
330
2
100
AcDbEntity
  8
0
  6
Continuous
 62
     7
100
AcDbLine
 10
24807.32001435184
 20
-25418.79473479415
 30
0.0
 11
24443.32001435184
 21
-25418.79473479415
 31
0.0
  0
LINE
  5
A73
330
2
100
AcDbEntity
  8
0
  6
Continuous
 62
     7
100
AcDbLine
 10
24437.32001435184
 20
-25427.79473479415
 30
0.0
 11
24437.32001435184
 21
-25424.79473479415
 31
0.0
  0
ARC
  5
A74
330
2
100
AcDbEntity
  8
0
  6
Continuous
 62
     7
100
AcDbCircle
 10
24792.31388316844
 20
-25439.79473479415
 30
0.0
 40
8.0
100
AcDbArc
 50
130.7425798321377
 51
171.2205938886555
  0
ARC
  5
A75
330
2
100
AcDbEntity
  8
0
  6
Continuous
 62
     7
100
AcDbCircle
 10
24807.52191841794
 20
-25439.79473479415
 30
0.0
 40
7.9999206033
100
AcDbArc
 50
149.9992844159757
 51
172.3298659179329
  0
ARC
  5
A76
330
2
100
AcDbEntity
  8
0
  6
Continuous
 62
     7
100
AcDbCircle
 10
24807.32001435184
 20
-25427.79473479415
 30
0.0
 40
6.0
100
AcDbArc
 50
270.0
 51
0.0
  0
ARC
  5
A77
330
2
100
AcDbEntity
  8
0
  6
Continuous
 62
     7
100
AcDbCircle
 10
24807.32001435184
 20
-25424.79473479415
 30
0.0
 40
6.0
100
AcDbArc
 50
0.0
 51
90.0
  0
ARC
  5
A78
330
2
100
AcDbEntity
  8
0
  6
Continuous
 62
     7
100
AcDbCircle
 10
24804.05755373854
 20
-25437.79473479415
 30
0.0
 40
3.9998890102
100
AcDbArc
 50
109.9949108820747
 51
149.996684505381
  0
ARC
  5
A79
330
2
100
AcDbEntity
  8
0
  6
Continuous
 62
     7
100
AcDbCircle
 10
24753.32001435184
 20
-25535.07733590875
 30
0.0
 40
33.0
100
AcDbArc
 50
277.0000000000322
 51
352.3299999998624
  0
ARC
  5
A7A
330
2
100
AcDbEntity
  8
0
  6
Continuous
 62
     7
100
AcDbCircle
 10
24763.20763831314
 20
-25536.29641400246
 30
0.0
 40
6.036106477999999
100
AcDbArc
 50
333.7510229884369
 51
351.1701269711044
  0
ARC
  5
A7B
330
2
100
AcDbEntity
  8
0
  6
Continuous
 62
     7
100
AcDbCircle
 10
24763.24625793014
 20
-25536.30949360676
 30
0.0
 40
5.9956869262
100
AcDbArc
 50
276.5835460744413
 51
333.6999017206162
  0
ARC
  5
A7C
330
2
100
AcDbEntity
  8
0
  6
Continuous
 62
     7
100
AcDbCircle
 10
24601.47312065174
 20
-25592.79473479415
 30
0.0
 40
3.0
100
AcDbArc
 50
270.0
 51
356.99999997119
  0
ARC
  5
A7D
330
2
100
AcDbEntity
  8
0
  6
Continuous
 62
     7
100
AcDbCircle
 10
24607.66785122434
 20
-25589.23152651946
 30
0.0
 40
2.99998079
100
AcDbArc
 50
96.99528739680987
 51
176.999181598696
  0
ARC
  5
A7E
330
2
100
AcDbEntity
  8
0
  6
Continuous
 62
     7
100
AcDbCircle
 10
24570.48817096884
 20
-30242.72097775676
 30
0.0
 40
4682.8806245973
100
AcDbArc
 50
89.86431228769225
 51
90.00205742273266
  0
ARC
  5
A7F
330
2
100
AcDbEntity
  8
0
  6
Continuous
 62
     7
100
AcDbCircle
 10
24555.49644062334
 20
-24530.51503286805
 30
0.0
 40
1029.7134050343
100
AcDbArc
 50
271.6355867377782
 51
271.9460256853472
  0
ARC
  5
A80
330
2
100
AcDbEntity
  8
0
  6
Continuous
 62
     7
100
AcDbCircle
 10
24566.95381999824
 20
-24862.14277127325
 30
0.0
 40
697.8879877427999
100
AcDbArc
 50
271.9304815248835
 51
275.5755061907489
  0
ARC
  5
A81
330
2
100
AcDbEntity
  8
0
  6
Continuous
 62
     7
100
AcDbCircle
 10
24581.80482079344
 20
-25453.83999540506
 30
0.0
 40
106.0137317194
100
AcDbArc
 50
269.877492110832
 51
271.6660350985547
  0
ARC
  5
A82
330
2
100
AcDbEntity
  8
0
  6
Continuous
 62
     7
100
AcDbCircle
 10
24526.82881850284
 20
-25567.54904287746
 30
0.0
 40
7.999985932899999
100
AcDbArc
 50
2.999979123547243
 51
80.04904920079768
  0
ARC
  5
A83
330
2
100
AcDbEntity
  8
0
  6
Continuous
 62
     7
100
AcDbCircle
 10
24457.61901341594
 20
-25439.79473479415
 30
0.0
 40
7.999873835199999
100
AcDbArc
 50
6.607368801919744
 51
48.67375686420948
  0
ARC
  5
A84
330
2
100
AcDbEntity
  8
0
  6
Continuous
 62
     7
100
AcDbCircle
 10
24483.99430958456
 20
-25545.81847568889
 30
0.0
 40
6.00122815489357
100
AcDbArc
 50
186.6109508905458
 51
260.0383435580268
  0
ARC
  5
A85
330
2
100
AcDbEntity
  8
0
  6
Continuous
 62
     7
100
AcDbCircle
 10
24443.32001435184
 20
-25427.79473479415
 30
0.0
 40
6.0
100
AcDbArc
 50
180.0
 51
270.0
  0
ARC
  5
A86
330
2
100
AcDbEntity
  8
0
  6
Continuous
 62
     7
100
AcDbCircle
 10
24443.32001435184
 20
-25424.79473479415
 30
0.0
 40
6.0
100
AcDbArc
 50
90.0
 51
180.0
  0
ARC
  5
A87
330
2
100
AcDbEntity
  8
0
  6
Continuous
 62
     7
100
AcDbCircle
 10
24539.16690805204
 20
-25592.79473479415
 30
0.0
 40
3.0
100
AcDbArc
 50
183.0000000288099
 51
270.0
  0
SPLINE
  5
A88
330
2
100
AcDbEntity
  8
0
  6
Continuous
 62
     7
100
AcDbSpline
210
0.0
220
0.0
230
1.0
 70
     8
 71
     3
 72
    10
 73
     6
 74
     0
 42
0.0000000001
 43
0.0000000001
 40
0.0
 40
0.0
 40
0.0
 40
0.0
 40
0.2499945085
 40
0.4999949465000001
 40
1.0
 40
1.0
 40
1.0
 40
1.0
 10
24634.75925171254
 20
-25556.72770137266
 30
0.0
 10
24645.53928618484
 20
-25555.67459940195
 30
0.0
 10
24667.07721215314
 20
-25553.34347851575
 30
0.0
 10
24710.12922474363
 20
-25548.47773009505
 30
0.0
 10
24742.41016075484
 20
-25544.75281759725
 30
0.0
 10
24763.93058923444
 20
-25542.26807838356
 30
0.0
  0
SPLINE
  5
A89
330
2
100
AcDbEntity
  8
0
  6
Continuous
 62
     7
100
AcDbSpline
210
0.0
220
0.0
230
1.0
 70
     8
 71
     3
 72
     9
 73
     5
 74
     0
 42
0.0000000001
 43
0.0000000001
 40
0.0
 40
0.0
 40
0.0
 40
0.0
 40
0.4277658474
 40
1.0
 40
1.0
 40
1.0
 40
1.0
 10
24534.68118748774
 20
-25559.75442221956
 30
0.0
 10
24538.95008994844
 20
-25559.80655854796
 30
0.0
 10
24548.93050099894
 20
-25559.84299526126
 30
0.0
 10
24558.91072129234
 20
-25559.84988841876
 30
0.0
 10
24564.62177205954
 20
-25559.84358538176
 30
0.0
  0
SPLINE
  5
A8A
330
2
100
AcDbEntity
  8
0
  6
Continuous
 62
     7
100
AcDbSpline
210
0.0
220
0.0
230
1.0
 70
     8
 71
     3
 72
    10
 73
     6
 74
     0
 42
0.0000000001
 43
0.0000000001
 40
0.0
 40
0.0
 40
0.0
 40
0.0
 40
0.0987829547
 40
0.3168407288
 40
1.0
 40
1.0
 40
1.0
 40
1.0
 10
24584.88703230254
 20
-25559.80891305266
 30
0.0
 10
24584.90217722834
 20
-25560.03873235925
 30
0.0
 10
24584.92146378454
 20
-25560.77744415835
 30
0.0
 10
24585.00362560144
 20
-25563.10731466855
 30
0.0
 10
24585.05927466694
 20
-25565.20797581926
 30
0.0
 10
24585.10371679003
 20
-25566.80017837876
 30
0.0
  0
SPLINE
  5
A8B
330
2
100
AcDbEntity
  8
0
  6
Continuous
 62
     7
100
AcDbSpline
210
0.0
220
0.0
230
1.0
 70
     8
 71
     3
 72
    16
 73
    12
 74
     0
 42
0.0000000001
 43
0.0000000001
 40
0.0
 40
0.0
 40
0.0
 40
0.0
 40
0.0750415919
 40
0.1503761661
 40
0.2996255365
 40
0.4449559461
 40
0.5820562872
 40
0.7044459031999999
 40
0.8070289872
 40
0.8954541122
 40
1.0
 40
1.0
 40
1.0
 40
1.0
 10
24588.63133478254
 20
-25583.23254446325
 30
0.0
 10
24588.72181513834
 20
-25583.45432905215
 30
0.0
 10
24589.07843861054
 20
-25583.81212586565
 30
0.0
 10
24589.87475969314
 20
-25584.32951482126
 30
0.0
 10
24590.92913402504
 20
-25584.87208433606
 30
0.0
 10
24592.15000036424
 20
-25585.50787630966
 30
0.0
 10
24593.26981744594
 20
-25586.15452215925
 30
0.0
 10
24594.24552242934
 20
-25586.77389950116
 30
0.0
 10
24595.09410937444
 20
-25587.30381785276
 30
0.0
 10
24596.00224981844
 20
-25587.62257760125
 30
0.0
 10
24596.62949565984
 20
-25587.56433048096
 30
0.0
 10
24596.96071701734
 20
-25587.52366781525
 30
0.0
  0
SPLINE
  5
A8C
330
2
100
AcDbEntity
  8
0
  6
Continuous
 62
     7
100
AcDbSpline
210
0.0
220
0.0
230
1.0
 70
     8
 71
     3
 72
     8
 73
     4
 74
     0
 42
0.0000000001
 43
0.0000000001
 40
0.0
 40
0.0
 40
0.0
 40
0.0
 40
1.0
 40
1.0
 40
1.0
 40
1.0
 10
24564.62177099834
 20
-25559.84358834656
 30
0.0
 10
24566.52118462714
 20
-25559.84151837756
 30
0.0
 10
24568.42059959514
 20
-25559.84035695285
 30
0.0
 10
24570.32001435184
 20
-25559.84035617866
 30
0.0
  0
LINE
  5
A8D
330
2
100
AcDbEntity
  8
0
  6
Continuous
 62
     7
100
AcDbLine
 10
24528.21125543524
 20
-25559.66941425215
 30
0.0
 11
24534.68098837154
 21
-25559.75449786316
 31
0.0
  0
SPLINE
  5
A8E
330
2
100
AcDbEntity
  8
0
  6
Continuous
 62
     7
100
AcDbSpline
210
0.0
220
0.0
230
1.0
 70
     8
 71
     3
 72
     8
 73
     4
 74
     0
 42
0.0000000001
 43
0.0000000001
 40
0.0
 40
0.0
 40
0.0
 40
0.0
 40
1.0
 40
1.0
 40
1.0
 40
1.0
 10
24585.10371677664
 20
-25566.80017839446
 30
0.0
 10
24586.44788077364
 20
-25572.23878297596
 30
0.0
 10
24587.59380881104
 20
-25577.72720794456
 30
0.0
 10
24588.63134352234
 20
-25583.23254339005
 30
0.0
  0
CIRCLE
  5
B7D
330
2
100
AcDbEntity
  8
0
  6
Continuous
 62
     7
100
AcDbCircle
 10
23254.53624358398
 20
-27297.90904574805
 30
0.0
 40
33.83274831812914
  0
LINE
  5
B7E
330
2
100
AcDbEntity
  8
0
  6
Continuous
 62
     7
100
AcDbLine
 10
23514.50819295918
 20
-27534.88321463434
 30
0.0
 11
23514.50819295918
 21
-27170.88321463434
 31
0.0
  0
LINE
  5
B7F
330
2
100
AcDbEntity
  8
0
  6
Continuous
 62
     7
100
AcDbLine
 10
23508.50819295918
 20
-27534.88321463434
 30
0.0
 11
23508.50819295918
 21
-27170.88321463435
 31
0.0
  0
LINE
  5
B80
330
2
100
AcDbEntity
  8
0
  6
Continuous
 62
     7
100
AcDbLine
 10
23480.65268565048
 20
-27213.36218732784
 30
0.0
 11
23480.65268565048
 21
-27492.21517443784
 31
0.0
  0
LINE
  5
B81
330
2
100
AcDbEntity
  8
0
  6
Continuous
 62
     7
100
AcDbLine
 10
23474.72298581758
 20
-27213.36117164784
 30
0.0
 11
23474.72298581758
 21
-27492.21582088294
 31
0.0
  0
LINE
  5
B82
330
2
100
AcDbEntity
  8
0
  6
Continuous
 62
     7
100
AcDbLine
 10
23508.50819295918
 20
-27164.88321463434
 30
0.0
 11
23000.50819295918
 21
-27164.88321463434
 31
0.0
  0
LINE
  5
B83
330
2
100
AcDbEntity
  8
0
  6
Continuous
 62
     7
100
AcDbLine
 10
23508.50819295918
 20
-27170.88321463434
 30
0.0
 11
23000.50819295919
 21
-27170.88321463433
 31
0.0
  0
LINE
  5
B84
330
2
100
AcDbEntity
  8
0
  6
Continuous
 62
     7
100
AcDbLine
 10
23044.26906973258
 20
-27197.53807958814
 30
0.0
 11
23464.74731618578
 21
-27197.53807958814
 31
0.0
  0
LINE
  5
B85
330
2
100
AcDbEntity
  8
0
  6
Continuous
 62
     7
100
AcDbLine
 10
23044.26811814918
 20
-27203.49823027784
 30
0.0
 11
23464.74802235298
 21
-27203.49823027784
 31
0.0
  0
LINE
  5
B86
330
2
100
AcDbEntity
  8
0
  6
Continuous
 62
     7
100
AcDbLine
 10
23459.23692669748
 20
-27476.72911531823
 30
0.0
 11
23474.72298581758
 21
-27492.21582088294
 31
0.0
  0
LINE
  5
B87
330
2
100
AcDbEntity
  8
0
  6
Continuous
 62
     7
100
AcDbLine
 10
23449.36140512968
 20
-27486.61925985944
 30
0.0
 11
23464.84113531638
 21
-27502.09800749274
 31
0.0
  0
LINE
  5
B88
330
2
100
AcDbEntity
  8
0
  6
Continuous
 62
     7
100
AcDbLine
 10
23458.91158737007
 20
-27225.22073616284
 30
0.0
 11
23474.72298581758
 21
-27213.36117164784
 31
0.0
  0
LINE
  5
B89
330
2
100
AcDbEntity
  8
0
  6
Continuous
 62
     7
100
AcDbLine
 10
23448.97847307198
 20
-27215.32486261344
 30
0.0
 11
23464.74802235298
 21
-27203.49823027784
 31
0.0
  0
LINE
  5
B8A
330
2
100
AcDbEntity
  8
0
  6
Continuous
 62
     7
100
AcDbLine
 10
23060.03791284668
 20
-27215.32486261344
 30
0.0
 11
23044.26811814918
 21
-27203.49823027784
 31
0.0
  0
LINE
  5
B8B
330
2
100
AcDbEntity
  8
0
  6
Continuous
 62
     7
100
AcDbLine
 10
23050.10479854827
 20
-27225.22073616274
 30
0.0
 11
23034.29340010077
 21
-27213.36141334514
 31
0.0
  0
LINE
  5
B8C
330
2
100
AcDbEntity
  8
0
  6
Continuous
 62
     7
100
AcDbLine
 10
23059.65498078858
 20
-27486.61925985944
 30
0.0
 11
23044.17558671058
 21
-27502.09800749274
 31
0.0
  0
LINE
  5
B8D
330
2
100
AcDbEntity
  8
0
  6
Continuous
 62
     7
100
AcDbLine
 10
23049.77945922087
 20
-27476.72911531804
 30
0.0
 11
23034.29340010077
 21
-27492.21615699154
 31
0.0
  0
LINE
  5
B8E
330
2
100
AcDbEntity
  8
0
  6
Continuous
 62
     7
100
AcDbLine
 10
23464.84113531638
 20
-27502.09800749274
 30
0.0
 11
23044.17558671058
 21
-27502.09800749274
 31
0.0
  0
LINE
  5
B8F
330
2
100
AcDbEntity
  8
0
  6
Continuous
 62
     7
100
AcDbLine
 10
23464.84015276268
 20
-27508.02770732564
 30
0.0
 11
23044.17623315567
 21
-27508.02770732564
 31
0.0
  0
LINE
  5
B90
330
2
100
AcDbEntity
  8
0
  6
Continuous
 62
     7
100
AcDbLine
 10
23508.50819295918
 20
-27534.88321463434
 30
0.0
 11
23000.50819295918
 21
-27534.88321463434
 31
0.0
  0
LINE
  5
B91
330
2
100
AcDbEntity
  8
0
  6
Continuous
 62
     7
100
AcDbLine
 10
23000.50819295918
 20
-27540.88321463434
 30
0.0
 11
23508.50819295918
 21
-27540.88321463434
 31
0.0
  0
LINE
  5
B92
330
2
100
AcDbEntity
  8
0
  6
Continuous
 62
     7
100
AcDbLine
 10
23034.29340010077
 20
-27492.21615699154
 30
0.0
 11
23034.29340010077
 21
-27213.36141334514
 31
0.0
  0
LINE
  5
B93
330
2
100
AcDbEntity
  8
0
  6
Continuous
 62
     7
100
AcDbLine
 10
23028.36370026787
 20
-27492.21517443784
 30
0.0
 11
23028.36370026787
 21
-27213.36218732784
 31
0.0
  0
LINE
  5
B94
330
2
100
AcDbEntity
  8
0
  6
Continuous
 62
     7
100
AcDbLine
 10
23000.50819295917
 20
-27534.88321463434
 30
0.0
 11
23000.50819295918
 21
-27170.88321463434
 31
0.0
  0
LINE
  5
B95
330
2
100
AcDbEntity
  8
0
  6
Continuous
 62
     7
100
AcDbLine
 10
22994.50819295917
 20
-27170.88321463434
 30
0.0
 11
22994.50819295917
 21
-27534.88321463434
 31
0.0
  0
ARC
  5
B96
330
2
100
AcDbEntity
  8
0
  6
Continuous
 62
     7
100
AcDbCircle
 10
33101.14454921689
 20
-27380.23944050304
 30
0.0
 40
9642.390412057801
100
AcDbArc
 50
180.0776718857402
 51
180.5733581785822
  0
ARC
  5
B97
330
2
100
AcDbEntity
  8
0
  6
Continuous
 62
     7
100
AcDbCircle
 10
30596.50098110988
 20
-27272.97983258844
 30
0.0
 40
7137.749174979301
100
AcDbArc
 50
179.6166277338543
 51
179.9901767734459
  0
ARC
  5
B98
330
2
100
AcDbEntity
  8
0
  6
Continuous
 62
     7
100
AcDbCircle
 10
23254.50819295918
 20
-5515.755522628835
 30
0.0
 40
21700.73101198
100
AcDbArc
 50
269.8486799991664
 51
270.1513200008335
  0
ARC
  5
B99
330
2
100
AcDbEntity
  8
0
  6
Continuous
 62
     7
100
AcDbCircle
 10
23508.50819295918
 20
-27170.88321463434
 30
0.0
 40
6.0
100
AcDbArc
 50
0.0
 51
90.0
  0
ARC
  5
B9A
330
2
100
AcDbEntity
  8
0
  6
Continuous
 62
     7
100
AcDbCircle
 10
23449.25663714058
 20
-27476.63962356914
 30
0.0
 40
9.980425163499999
100
AcDbArc
 50
270.6014791437088
 51
359.486251168001
  0
ARC
  5
B9B
330
2
100
AcDbEntity
  8
0
  6
Continuous
 62
     7
100
AcDbCircle
 10
23508.50819295918
 20
-27534.88321463434
 30
0.0
 40
6.0
100
AcDbArc
 50
270.0
 51
0.0
  0
CIRCLE
  5
B9C
330
2
100
AcDbEntity
  8
0
  6
Continuous
 62
     7
100
AcDbCircle
 10
23254.50819295918
 20
-27297.88321463434
 30
0.0
 40
22.25
  0
ARC
  5
B9D
330
2
100
AcDbEntity
  8
0
  6
Continuous
 62
     7
100
AcDbCircle
 10
23000.50819295918
 20
-27170.88321463434
 30
0.0
 40
6.0
100
AcDbArc
 50
90.0
 51
180.0
  0
ARC
  5
B9E
330
2
100
AcDbEntity
  8
0
  6
Continuous
 62
     7
100
AcDbCircle
 10
23059.75974540278
 20
-27476.63962449604
 30
0.0
 40
9.980422867799999
100
AcDbArc
 50
180.5137436841372
 51
269.3985401744012
  0
ARC
  5
B9F
330
2
100
AcDbEntity
  8
0
  6
Continuous
 62
     7
100
AcDbCircle
 10
23000.50819295918
 20
-27534.88321463434
 30
0.0
 40
6.0
100
AcDbArc
 50
180.0
 51
270.0
  0
ARC
  5
BA0
330
2
100
AcDbEntity
  8
0
  6
Continuous
 62
     7
100
AcDbCircle
 10
14626.61315309777
 20
-27387.16356110144
 30
0.0
 40
8423.642478708901
100
AcDbArc
 50
359.3907831491142
 51
359.9581867867296
  0
ARC
  5
BA1
330
2
100
AcDbEntity
  8
0
  6
Continuous
 62
     7
100
AcDbCircle
 10
15912.30642893668
 20
-27272.98054964554
 30
0.0
 40
7137.958150970999
100
AcDbArc
 50
0.0098286947909434
 51
0.383366798203316
  0
ARC
  5
BA2
330
2
100
AcDbEntity
  8
0
  6
Continuous
 62
     7
100
AcDbCircle
 10
23143.09279605478
 20
-37586.43903096434
 30
0.0
 40
10100.1644183557
100
AcDbArc
 50
90.08293371748541
 51
90.47332784371263
  0
ARC
  5
BA3
330
2
100
AcDbEntity
  8
0
  6
Continuous
 62
     7
100
AcDbCircle
 10
23374.14410077788
 20
-35893.00229436303
 30
0.0
 40
8406.7195365174
100
AcDbArc
 50
89.48735156795711
 51
89.95638687088371
  0
SPLINE
  5
BA4
330
2
100
AcDbEntity
  8
0
  6
Continuous
 62
     7
100
AcDbSpline
210
0.0
220
0.0
230
1.0
 70
     8
 71
     3
 72
     8
 73
     4
 74
     0
 42
0.0000000001
 43
0.0000000001
 40
0.0
 40
0.0
 40
0.0
 40
0.0
 40
1.0
 40
1.0
 40
1.0
 40
1.0
 10
23128.47315223177
 20
-27486.28519333234
 30
0.0
 10
23170.48483172378
 20
-27486.27581957064
 30
0.0
 10
23212.49651242147
 20
-27486.27025049734
 30
0.0
 10
23254.50819295918
 20
-27486.27025045383
 30
0.0
  0
SPLINE
  5
BA5
330
2
100
AcDbEntity
  8
0
  6
Continuous
 62
     7
100
AcDbSpline
210
0.0
220
0.0
230
1.0
 70
     8
 71
     3
 72
     8
 73
     4
 74
     0
 42
0.0000000001
 43
0.0000000001
 40
0.0
 40
0.0
 40
0.0
 40
0.0
 40
1.0
 40
1.0
 40
1.0
 40
1.0
 10
23254.50819295918
 20
-27486.27025045383
 30
0.0
 10
23296.51987349687
 20
-27486.27025051434
 30
0.0
 10
23338.53155419458
 20
-27486.27581956894
 30
0.0
 10
23380.54323368658
 20
-27486.28519333234
 30
0.0
  0
SPLINE
  5
BA6
330
2
100
AcDbEntity
  8
0
  6
Continuous
 62
     7
100
AcDbSpline
210
0.0
220
0.0
230
1.0
 70
     8
 71
     3
 72
     8
 73
     4
 74
     0
 42
0.0000000001
 43
0.0000000001
 40
0.0
 40
0.0
 40
0.0
 40
0.0
 40
1.0
 40
1.0
 40
1.0
 40
1.0
 10
23458.76299722768
 20
-27393.31095156274
 30
0.0
 10
23458.75546858148
 20
-27361.50170655294
 30
0.0
 10
23458.75084470327
 20
-27329.69246053504
 30
0.0
 10
23458.75084465548
 20
-27297.88321463423
 30
0.0
  0
SPLINE
  5
BA7
330
2
100
AcDbEntity
  8
0
  6
Continuous
 62
     7
100
AcDbSpline
210
0.0
220
0.0
230
1.0
 70
     8
 71
     3
 72
     8
 73
     4
 74
     0
 42
0.0000000001
 43
0.0000000001
 40
0.0
 40
0.0
 40
0.0
 40
0.0
 40
1.0
 40
1.0
 40
1.0
 40
1.0
 10
23458.75084465548
 20
-27297.88321463423
 30
0.0
 10
23458.75084462928
 20
-27289.17417051574
 30
0.0
 10
23458.75117650248
 20
-27280.46512638804
 30
0.0
 10
23458.75191103508
 20
-27271.75608230054
 30
0.0
  0
SPLINE
  5
BA8
330
2
100
AcDbEntity
  8
0
  6
Continuous
 62
     7
100
AcDbSpline
210
0.0
220
0.0
230
1.0
 70
     8
 71
     3
 72
    10
 73
     6
 74
     0
 42
0.0000000001
 43
0.0000000001
 40
0.0
 40
0.0
 40
0.0
 40
0.0
 40
0.250377758
 40
0.5004294325
 40
1.0
 40
1.0
 40
1.0
 40
1.0
 10
23197.19592939958
 20
-27216.41085279694
 30
0.0
 10
23185.74847427138
 20
-27216.38516393054
 30
0.0
 10
23162.86869029787
 20
-27216.25407070084
 30
0.0
 10
23117.14931060917
 20
-27215.88939392724
 30
0.0
 10
23082.87754143798
 20
-27215.55530058684
 30
0.0
 10
23060.03791284668
 20
-27215.32486261344
 30
0.0
  0
SPLINE
  5
BA9
330
2
100
AcDbEntity
  8
0
  6
Continuous
 62
     7
100
AcDbSpline
210
0.0
220
0.0
230
1.0
 70
     8
 71
     3
 72
    11
 73
     7
 74
     0
 42
0.0000000001
 43
0.0000000001
 40
0.0
 40
0.0
 40
0.0
 40
0.0
 40
0.2498148021
 40
0.5000000938
 40
0.7501852778
 40
1.0
 40
1.0
 40
1.0
 40
1.0
 10
23044.17558074948
 20
-27502.09801343334
 30
0.0
 10
23042.88388954948
 20
-27502.11541177253
 30
0.0
 10
23040.26126742068
 20
-27501.64968573414
 30
0.0
 10
23036.92618473348
 20
-27499.46545145793
 30
0.0
 10
23034.74194882618
 20
-27496.13046404834
 30
0.0
 10
23034.27588513528
 20
-27493.50785539264
 30
0.0
 10
23034.29339107977
 20
-27492.21616605974
 30
0.0
  0
SPLINE
  5
BAA
330
2
100
AcDbEntity
  8
0
  6
Continuous
 62
     7
100
AcDbSpline
210
0.0
220
0.0
230
1.0
 70
     8
 71
     3
 72
    11
 73
     7
 74
     0
 42
0.0000000001
 43
0.0000000001
 40
0.0
 40
0.0
 40
0.0
 40
0.0
 40
0.2500099482
 40
0.5002155862
 40
0.7502916146
 40
1.0
 40
1.0
 40
1.0
 40
1.0
 10
23034.29339551098
 20
-27213.36140988064
 30
0.0
 10
23034.28007692318
 20
-27212.06568367264
 30
0.0
 10
23034.76952080298
 20
-27209.43686804894
 30
0.0
 10
23036.99706147277
 20
-27206.11988275564
 30
0.0
 10
23040.34947856997
 20
-27203.95488339444
 30
0.0
 10
23042.97394490538
 20
-27203.48492821174
 30
0.0
 10
23044.26810828418
 20
-27203.49822292344
 30
0.0
  0
SPLINE
  5
BAB
330
2
100
AcDbEntity
  8
0
  6
Continuous
 62
     7
100
AcDbSpline
210
0.0
220
0.0
230
1.0
 70
     8
 71
     3
 72
    11
 73
     7
 74
     0
 42
0.0000000001
 43
0.0000000001
 40
0.0
 40
0.0
 40
0.0
 40
0.0
 40
0.249925566
 40
0.4999713151
 40
0.7500356588
 40
1.0
 40
1.0
 40
1.0
 40
1.0
 10
23060.03791284668
 20
-27215.32486261344
 30
0.0
 10
23058.75097086928
 20
-27215.33283982594
 30
0.0
 10
23056.15188291378
 20
-27215.85559195184
 30
0.0
 10
23052.86098927927
 20
-27218.05430342964
 30
0.0
 10
23050.64532219698
 20
-27221.33470811674
 30
0.0
 10
23050.11464320427
 20
-27223.93360744074
 30
0.0
 10
23050.10479854827
 20
-27225.22073616274
 30
0.0
  0
SPLINE
  5
BAC
330
2
100
AcDbEntity
  8
0
  6
Continuous
 62
     7
100
AcDbSpline
210
0.0
220
0.0
230
1.0
 70
     8
 71
     3
 72
    11
 73
     7
 74
     0
 42
0.0000000001
 43
0.0000000001
 40
0.0
 40
0.0
 40
0.0
 40
0.0
 40
0.249709177
 40
0.4997850610000001
 40
0.7499904124
 40
1.0
 40
1.0
 40
1.0
 40
1.0
 10
23464.74802966567
 20
-27203.49822481774
 30
0.0
 10
23466.04219858738
 20
-27203.48500597994
 30
0.0
 10
23468.66667887907
 20
-27203.95472148914
 30
0.0
 10
23472.01916906548
 20
-27206.11972021784
 30
0.0
 10
23474.24669706327
 20
-27209.43664066294
 30
0.0
 10
23474.73639458718
 20
-27212.06544296404
 30
0.0
 10
23474.72299183317
 20
-27213.36116709804
 30
0.0
  0
SPLINE
  5
BAD
330
2
100
AcDbEntity
  8
0
  6
Continuous
 62
     7
100
AcDbSpline
210
0.0
220
0.0
230
1.0
 70
     8
 71
     3
 72
    11
 73
     7
 74
     0
 42
0.0000000001
 43
0.0000000001
 40
0.0
 40
0.0
 40
0.0
 40
0.0
 40
0.249964511
 40
0.5000284359000001
 40
0.7500746059000001
 40
1.0
 40
1.0
 40
1.0
 40
1.0
 10
23458.91158737007
 20
-27225.22073616284
 30
0.0
 10
23458.90181528268
 20
-27223.93360629914
 30
0.0
 10
23458.37102846988
 20
-27221.33470750624
 30
0.0
 10
23456.15540093538
 20
-27218.05431420104
 30
0.0
 10
23452.86450021037
 20
-27215.85556963324
 30
0.0
 10
23450.26541355868
 20
-27215.33289127794
 30
0.0
 10
23448.97847307198
 20
-27215.32486261344
 30
0.0
  0
SPLINE
  5
BAE
330
2
100
AcDbEntity
  8
0
  6
Continuous
 62
     7
100
AcDbSpline
210
0.0
220
0.0
230
1.0
 70
     8
 71
     3
 72
    11
 73
     7
 74
     0
 42
0.0000000001
 43
0.0000000001
 40
0.0
 40
0.0
 40
0.0
 40
0.0
 40
0.2498148021
 40
0.5000000938
 40
0.7501852778
 40
1.0
 40
1.0
 40
1.0
 40
1.0
 10
23474.72299175827
 20
-27492.21582684404
 30
0.0
 10
23474.74039009747
 20
-27493.50751804414
 30
0.0
 10
23474.27466405898
 20
-27496.13014017284
 30
0.0
 10
23472.09042978287
 20
-27499.46522286004
 30
0.0
 10
23468.75544237318
 20
-27501.64945876734
 30
0.0
 10
23466.13283371748
 20
-27502.11552245824
 30
0.0
 10
23464.84114438458
 20
-27502.09801651374
 30
0.0
  0
SPLINE
  5
BAF
330
2
100
AcDbEntity
  8
0
  6
Continuous
 62
     7
100
AcDbSpline
210
0.0
220
0.0
230
1.0
 70
     8
 71
     3
 72
    10
 73
     6
 74
     0
 42
0.0000000001
 43
0.0000000001
 40
0.0
 40
0.0
 40
0.0
 40
0.0
 40
0.4995705636000001
 40
0.7496222357
 40
1.0
 40
1.0
 40
1.0
 40
1.0
 10
23448.97847307198
 20
-27215.32486261344
 30
0.0
 10
23426.13884465837
 20
-27215.55530038384
 30
0.0
 10
23391.86707576948
 20
-27215.88939090954
 30
0.0
 10
23346.14769610538
 20
-27216.25407663974
 30
0.0
 10
23323.26791191058
 20
-27216.38515333124
 30
0.0
 10
23311.82045651878
 20
-27216.41085279694
 30
0.0
  0
SPLINE
  5
BB0
330
2
100
AcDbEntity
  8
0
  6
Continuous
 62
     7
100
AcDbSpline
210
0.0
220
0.0
230
1.0
 70
     8
 71
     3
 72
     8
 73
     4
 74
     0
 42
0.0000000001
 43
0.0000000001
 40
0.0
 40
0.0
 40
0.0
 40
0.0
 40
1.0
 40
1.0
 40
1.0
 40
1.0
 10
23050.26447488327
 20
-27271.75608230054
 30
0.0
 10
23050.26520942347
 20
-27280.46512638814
 30
0.0
 10
23050.26554128557
 20
-27289.17417051584
 30
0.0
 10
23050.26554126297
 20
-27297.88321463434
 30
0.0
  0
SPLINE
  5
BB1
330
2
100
AcDbEntity
  8
0
  6
Continuous
 62
     7
100
AcDbSpline
210
0.0
220
0.0
230
1.0
 70
     8
 71
     3
 72
     8
 73
     4
 74
     0
 42
0.0000000001
 43
0.0000000001
 40
0.0
 40
0.0
 40
0.0
 40
0.0
 40
1.0
 40
1.0
 40
1.0
 40
1.0
 10
23050.26554126297
 20
-27297.88321463434
 30
0.0
 10
23050.26554116448
 20
-27329.69246053504
 30
0.0
 10
23050.26091733528
 20
-27361.50170655294
 30
0.0
 10
23050.25338869068
 20
-27393.31095156274
 30
0.0
  0
SPLINE
  5
BB2
330
2
100
AcDbEntity
  8
0
  6
Continuous
 62
     7
100
AcDbSpline
210
0.0
220
0.0
230
1.0
 70
     8
 71
     3
 72
    11
 73
     7
 74
     0
 42
0.0000000001
 43
0.0000000001
 40
0.0
 40
0.0
 40
0.0
 40
0.0
 40
0.2500090614999999
 40
0.4999723203000001
 40
0.7499530687
 40
1.0
 40
1.0
 40
1.0
 40
1.0
 10
23028.36370026787
 20
-27213.36218732784
 30
0.0
 10
23028.36339272698
 20
-27211.29713991774
 30
0.0
 10
23029.18333068168
 20
-27207.12082763614
 30
0.0
 10
23032.72764373918
 20
-27201.84635150064
 30
0.0
 10
23038.02813128298
 20
-27198.34428898844
 30
0.0
 10
23042.20370953088
 20
-27197.53771872754
 30
0.0
 10
23044.26906973258
 20
-27197.53807958814
 30
0.0
  0
SPLINE
  5
BB3
330
2
100
AcDbEntity
  8
0
  6
Continuous
 62
     7
100
AcDbSpline
210
0.0
220
0.0
230
1.0
 70
     8
 71
     3
 72
    11
 73
     7
 74
     0
 42
0.0000000001
 43
0.0000000001
 40
0.0
 40
0.0
 40
0.0
 40
0.0
 40
0.2500367663
 40
0.5000016
 40
0.7499663442
 40
1.0
 40
1.0
 40
1.0
 40
1.0
 10
23044.17623315567
 20
-27508.02770732564
 30
0.0
 10
23042.11723551647
 20
-27508.02795957453
 30
0.0
 10
23037.95369305038
 20
-27507.22185045954
 30
0.0
 10
23032.67888442628
 20
-27503.71246525274
 30
0.0
 10
23029.16989133177
 20
-27498.43760318044
 30
0.0
 10
23028.36331866828
 20
-27494.27414644344
 30
0.0
 10
23028.36370026787
 20
-27492.21517443784
 30
0.0
  0
SPLINE
  5
BB4
330
2
100
AcDbEntity
  8
0
  6
Continuous
 62
     7
100
AcDbSpline
210
0.0
220
0.0
230
1.0
 70
     8
 71
     3
 72
    11
 73
     7
 74
     0
 42
0.0000000001
 43
0.0000000001
 40
0.0
 40
0.0
 40
0.0
 40
0.0
 40
0.2500367663
 40
0.5000016
 40
0.7499663442
 40
1.0
 40
1.0
 40
1.0
 40
1.0
 10
23480.65268565048
 20
-27492.21517443784
 30
0.0
 10
23480.65293789937
 20
-27494.27417207704
 30
0.0
 10
23479.84682878438
 20
-27498.43771454324
 30
0.0
 10
23476.33744357758
 20
-27503.71252316724
 30
0.0
 10
23471.06258150537
 20
-27507.22151626184
 30
0.0
 10
23466.89912476828
 20
-27508.02808892524
 30
0.0
 10
23464.84015276268
 20
-27508.02770732564
 30
0.0
  0
SPLINE
  5
BB5
330
2
100
AcDbEntity
  8
0
  6
Continuous
 62
     7
100
AcDbSpline
210
0.0
220
0.0
230
1.0
 70
     8
 71
     3
 72
    11
 73
     7
 74
     0
 42
0.0000000001
 43
0.0000000001
 40
0.0
 40
0.0
 40
0.0
 40
0.0
 40
0.2500505874
 40
0.5000311476000001
 40
0.7499940579000001
 40
1.0
 40
1.0
 40
1.0
 40
1.0
 10
23464.74731618578
 20
-27197.53807958814
 30
0.0
 10
23466.81270658717
 20
-27197.53780792464
 30
0.0
 10
23470.98836142238
 20
-27198.34402038094
 30
0.0
 10
23476.28881690698
 20
-27201.84639679284
 30
0.0
 10
23479.83275941857
 20
-27207.12094225944
 30
0.0
 10
23480.65308651247
 20
-27211.29716571294
 30
0.0
 10
23480.65268565048
 20
-27213.36218732784
 30
0.0
  0
ELLIPSE
  5
BB6
330
2
100
AcDbEntity
  8
02___PRT_ALL_AXES
  6
Continuous
 62
     7
100
AcDbEllipse
 10
23254.50819295918
 20
-27497.47780922894
 30
0.0
 11
-11.5
 21
0.0000000000000014
 31
0.0
210
0.0
220
0.0
230
1.0
 40
0.1544401544
 41
0.0
 42
6.283185307179586
  0
ENDSEC
  0
SECTION
  2
OBJECTS
  0
DICTIONARY
  5
B
330
0
100
AcDbDictionary
281
     1
  3
ACAD_COLOR
350
3B
  3
ACAD_GROUP
350
36
  3
ACAD_LAYOUT
350
11
  3
ACAD_MATERIAL
350
D
  3
ACAD_MLEADERSTYLE
350
CE3
  3
ACAD_MLINESTYLE
350
37
  3
ACAD_PLOTSETTINGS
350
38
  3
ACAD_PLOTSTYLENAME
350
A
  3
ACAD_SCALELIST
350
CC1
  3
ACAD_TABLESTYLE
350
3C
  3
ACAD_VISUALSTYLE
350
2A
  3
ACDB_RECOMPOSE_DATA
350
D03
  3
ACDBHEADERROUNDTRIPXREC
350
D00
  3
AcDbVariableDictionary
350
274
  0
DICTIONARY
  5
2E
330
27
100
AcDbDictionary
280
     1
281
     1
  0
DICTIONARY
  5
1A
330
19
100
AcDbDictionary
280
     1
281
     1
  3
ACAD_LAYERFILTERS
360
1B
  3
ACAD_LAYERSTATES
360
1C
  3
ACLYDICTIONARY
360
1D
  0
DICTIONARY
  5
7
330
6
100
AcDbDictionary
280
     1
281
     1
  3
ADSK_XREC_LAYER_RECONCILED
360
8
  0
DICTIONARY
  5
3
330
2
100
AcDbDictionary
280
     1
281
     1
  3
ACAD_SORTENTS
360
24F
  0
DICTIONARY
  5
1AB
330
1AA
100
AcDbDictionary
280
     1
281
     1
  0
DICTIONARY
  5
1AF
330
1AE
100
AcDbDictionary
280
     1
281
     1
  0
DICTIONARY
  5
3B
102
{ACAD_REACTORS
330
B
102
}
330
B
100
AcDbDictionary
281
     1
  0
DICTIONARY
  5
36
102
{ACAD_REACTORS
330
B
102
}
330
B
100
AcDbDictionary
281
     1
  0
DICTIONARY
  5
11
102
{ACAD_REACTORS
330
B
102
}
330
B
100
AcDbDictionary
281
     1
  3
Model
350
10
  3
布局1
350
16
  0
DICTIONARY
  5
D
102
{ACAD_REACTORS
330
B
102
}
330
B
100
AcDbDictionary
281
     1
  3
ByBlock
350
3A
  3
ByLayer
350
39
  3
Global
350
C
  0
DICTIONARY
  5
CE3
102
{ACAD_REACTORS
330
B
102
}
330
B
100
AcDbDictionary
281
     1
  3
Standard
350
CE4
  0
DICTIONARY
  5
37
102
{ACAD_REACTORS
330
B
102
}
330
B
100
AcDbDictionary
281
     1
  3
Standard
350
3F
  0
DICTIONARY
  5
38
102
{ACAD_REACTORS
330
B
102
}
330
B
100
AcDbDictionary
281
     1
  0
ACDBDICTIONARYWDFLT
  5
A
102
{ACAD_REACTORS
330
B
102
}
330
B
100
AcDbDictionary
281
     1
  3
Normal
350
9
100
AcDbDictionaryWithDefault
340
9
  0
DICTIONARY
  5
CC1
102
{ACAD_REACTORS
330
B
102
}
330
B
100
AcDbDictionary
281
     1
  3
A0
350
CC2
  3
A1
350
CC3
  3
A2
350
CC4
  3
A3
350
CC5
  3
A4
350
CC6
  3
A5
350
CC7
  3
A6
350
CC8
  3
A7
350
CC9
  3
A8
350
CCA
  3
A9
350
CCB
  3
B0
350
CCC
  3
B1
350
CCD
  3
B2
350
CCE
  3
B3
350
CCF
  3
B4
350
CD0
  3
B5
350
CD1
  3
B6
350
CD2
  3
B7
350
CD3
  3
B8
350
CD4
  3
B9
350
CD5
  3
C0
350
CD6
  3
C1
350
CD7
  3
C2
350
CD8
  3
C3
350
CD9
  3
C4
350
CDA
  3
C5
350
CDB
  3
C6
350
CDC
  3
C7
350
CDD
  3
C8
350
CDE
  3
C9
350
CDF
  3
D0
350
CE0
  3
D1
350
CE1
  3
D2
350
CE2
  0
DICTIONARY
  5
3C
102
{ACAD_REACTORS
330
B
102
}
330
B
100
AcDbDictionary
281
     1
  3
Standard
350
40
  0
DICTIONARY
  5
2A
102
{ACAD_REACTORS
330
B
102
}
330
B
100
AcDbDictionary
281
     1
  3
2dWireframe
350
29
  3
3D Hidden
350
282
  3
3dWireframe
350
46
  3
Basic
350
281
  3
Brighten
350
285
  3
ColorChange
350
289
  3
Conceptual
350
283
  3
Dim
350
284
  3
Facepattern
350
288
  3
Flat
350
27D
  3
FlatWithEdges
350
27E
  3
Gouraud
350
27F
  3
GouraudWithEdges
350
280
  3
Linepattern
350
287
  3
Realistic
350
43
  3
Thicken
350
286
  0
XRECORD
  5
D03
102
{ACAD_REACTORS
330
B
102
}
330
B
100
AcDbXrecord
280
     1
 90
        1
330
40
  0
DICTIONARY
  5
D00
102
{ACAD_REACTORS
330
B
102
}
330
B
100
AcDbDictionary
281
     1
  0
DICTIONARY
  5
274
102
{ACAD_REACTORS
330
B
102
}
330
B
100
AcDbDictionary
281
     1
  3
CMLEADERSTYLE
350
CF9
  3
CTABLESTYLE
350
275
  3
DIMASSOC
350
279
  3
HIDETEXT
350
278
  3
INDEXCTL
350
277
  3
SORTENTS
350
276
  0
DICTIONARY
  5
1B
102
{ACAD_REACTORS
330
1A
102
}
330
1A
100
AcDbDictionary
281
     1
  0
DICTIONARY
  5
1C
102
{ACAD_REACTORS
330
1A
102
}
330
1A
100
AcDbDictionary
281
     1
  0
DICTIONARY
  5
1D
102
{ACAD_REACTORS
330
1A
102
}
330
1A
100
AcDbDictionary
281
     1
1001
ACAD
1000
<All
  0
XRECORD
  5
8
102
{ACAD_REACTORS
330
7
102
}
330
7
100
AcDbXrecord
280
     1
290
     1
  0
SORTENTSTABLE
  5
24F
102
{ACAD_REACTORS
330
3
102
}
330
3
100
AcDbSortentsTable
330
2
  0
LAYOUT
  5
10
102
{ACAD_REACTORS
330
11
102
}
330
11
100
AcDbPlotSettings
  1

  2
none_device
  4
ISO_A4_(210.00_x_297.00_MM)
  6

 40
7.5
 41
20.0
 42
7.5
 43
20.0
 44
210.0
 45
297.0
 46
11.54999923706054
 47
-13.65000009536743
 48
0.0
 49
0.0
140
0.0
141
0.0
142
1.0
143
25.72285449332643
 70
 11952
 72
     1
 73
     0
 74
     0
  7
acad.ctb
 75
     0
147
0.0388759342498105
 76
     0
 77
     2
 78
   300
148
462.3962705768454
149
687.6022625627119
100
AcDbLayout
  1
Model
 70
     1
 71
     0
 10
0.0
 20
0.0
 11
12.0
 21
9.0
 12
0.0
 22
0.0
 32
0.0
 14
0.0
 24
0.0
 34
0.0
 15
0.0
 25
0.0
 35
0.0
146
0.0
 13
0.0
 23
0.0
 33
0.0
 16
1.0
 26
0.0
 36
0.0
 17
0.0
 27
1.0
 37
0.0
 76
     0
330
2
1001
ACAD_PSEXT
1000
无
1000
无
1000
不可用
1000
在选择新的绘图仪配置名称之前，不能打印该布局。
1070
     0
  0
LAYOUT
  5
16
102
{ACAD_XDICTIONARY
360
17
102
}
102
{ACAD_REACTORS
330
11
102
}
330
11
100
AcDbPlotSettings
  1

  2
none_device
  4
ISO_A4_(210.00_x_297.00_MM)
  6

 40
7.5
 41
20.0
 42
7.5
 43
20.0
 44
210.0
 45
297.0
 46
0.0
 47
0.0
 48
0.0
 49
0.0
140
0.0
141
0.0
142
1.0
143
1.0
 70
   688
 72
     1
 73
     1
 74
     5
  7
acad.ctb
 75
    16
147
1.0
 76
     0
 77
     2
 78
   300
148
0.0
149
0.0
100
AcDbLayout
  1
布局1
 70
     1
 71
     1
 10
-20.0
 20
-7.5
 11
277.0
 21
202.5
 12
0.0
 22
0.0
 32
0.0
 14
25.69999999999999
 24
19.5
 34
0.0
 15
231.3
 25
175.5
 35
0.0
146
0.0
 13
0.0
 23
0.0
 33
0.0
 16
1.0
 26
0.0
 36
0.0
 17
0.0
 27
1.0
 37
0.0
 76
     0
330
13
1001
ACAD_PSEXT
1000
无
1000
无
1000
不可用
1000
在选择新的绘图仪配置名称之前，不能打印该布局。
1070
     0
  0
MATERIAL
  5
3A
102
{ACAD_REACTORS
330
D
102
}
330
D
100
AcDbMaterial
  1
ByBlock
  2

  0
MATERIAL
  5
39
102
{ACAD_REACTORS
330
D
102
}
330
D
100
AcDbMaterial
  1
ByLayer
  2

  0
MATERIAL
  5
C
102
{ACAD_REACTORS
330
D
102
}
330
D
100
AcDbMaterial
  1
Global
  2

  0
MLEADERSTYLE
  5
CE4
102
{ACAD_REACTORS
330
CE3
102
}
330
CE3
100
AcDbMLeaderStyle
170
     2
171
     1
172
     0
 90
        2
 40
0.0
 41
0.0
173
     1
 91
-1056964608
340
23
 92
       -2
290
     1
 42
0.09
291
     1
 43
8.0
  3
Standard
341
0
 44
0.18
300

342
20
174
     1
178
     1
175
     1
176
     0
 93
-1056964608
 45
0.18
292
     0
297
     0
 46
0.18
343
0
 94
-1056964608
 47
1.0
 49
1.0
140
1.0
293
     1
141
0.0
294
     1
177
     0
142
1.0
295
     0
296
     0
143
3.75
1001
ACAD_MLEADERVER
1070
     2
  0
MLINESTYLE
  5
3F
102
{ACAD_REACTORS
330
37
102
}
330
37
100
AcDbMlineStyle
  2
STANDARD
 70
     0
  3

 62
   256
 51
90.0
 52
90.0
 71
     2
 49
0.5
 62
   256
  6
BYLAYER
 49
-0.5
 62
   256
  6
BYLAYER
  0
ACDBPLACEHOLDER
  5
9
102
{ACAD_REACTORS
330
A
102
}
330
A
  0
SCALE
  5
CC2
102
{ACAD_REACTORS
330
CC1
102
}
330
CC1
100
AcDbScale
 70
     0
300
1:1
140
1.0
141
1.0
290
     1
  0
SCALE
  5
CC3
102
{ACAD_REACTORS
330
CC1
102
}
330
CC1
100
AcDbScale
 70
     0
300
1:2
140
1.0
141
2.0
290
     0
  0
SCALE
  5
CC4
102
{ACAD_REACTORS
330
CC1
102
}
330
CC1
100
AcDbScale
 70
     0
300
1:4
140
1.0
141
4.0
290
     0
  0
SCALE
  5
CC5
102
{ACAD_REACTORS
330
CC1
102
}
330
CC1
100
AcDbScale
 70
     0
300
1:5
140
1.0
141
5.0
290
     0
  0
SCALE
  5
CC6
102
{ACAD_REACTORS
330
CC1
102
}
330
CC1
100
AcDbScale
 70
     0
300
1:8
140
1.0
141
8.0
290
     0
  0
SCALE
  5
CC7
102
{ACAD_REACTORS
330
CC1
102
}
330
CC1
100
AcDbScale
 70
     0
300
1:10
140
1.0
141
10.0
290
     0
  0
SCALE
  5
CC8
102
{ACAD_REACTORS
330
CC1
102
}
330
CC1
100
AcDbScale
 70
     0
300
1:16
140
1.0
141
16.0
290
     0
  0
SCALE
  5
CC9
102
{ACAD_REACTORS
330
CC1
102
}
330
CC1
100
AcDbScale
 70
     0
300
1:20
140
1.0
141
20.0
290
     0
  0
SCALE
  5
CCA
102
{ACAD_REACTORS
330
CC1
102
}
330
CC1
100
AcDbScale
 70
     0
300
1:30
140
1.0
141
30.0
290
     0
  0
SCALE
  5
CCB
102
{ACAD_REACTORS
330
CC1
102
}
330
CC1
100
AcDbScale
 70
     0
300
1:40
140
1.0
141
40.0
290
     0
  0
SCALE
  5
CCC
102
{ACAD_REACTORS
330
CC1
102
}
330
CC1
100
AcDbScale
 70
     0
300
1:50
140
1.0
141
50.0
290
     0
  0
SCALE
  5
CCD
102
{ACAD_REACTORS
330
CC1
102
}
330
CC1
100
AcDbScale
 70
     0
300
1:100
140
1.0
141
100.0
290
     0
  0
SCALE
  5
CCE
102
{ACAD_REACTORS
330
CC1
102
}
330
CC1
100
AcDbScale
 70
     0
300
2:1
140
2.0
141
1.0
290
     0
  0
SCALE
  5
CCF
102
{ACAD_REACTORS
330
CC1
102
}
330
CC1
100
AcDbScale
 70
     0
300
4:1
140
4.0
141
1.0
290
     0
  0
SCALE
  5
CD0
102
{ACAD_REACTORS
330
CC1
102
}
330
CC1
100
AcDbScale
 70
     0
300
8:1
140
8.0
141
1.0
290
     0
  0
SCALE
  5
CD1
102
{ACAD_REACTORS
330
CC1
102
}
330
CC1
100
AcDbScale
 70
     0
300
10:1
140
10.0
141
1.0
290
     0
  0
SCALE
  5
CD2
102
{ACAD_REACTORS
330
CC1
102
}
330
CC1
100
AcDbScale
 70
     0
300
100:1
140
100.0
141
1.0
290
     0
  0
SCALE
  5
CD3
102
{ACAD_REACTORS
330
CC1
102
}
330
CC1
100
AcDbScale
 70
     0
300
1/128" = 1'-0"
140
0.0078125
141
12.0
290
     0
  0
SCALE
  5
CD4
102
{ACAD_REACTORS
330
CC1
102
}
330
CC1
100
AcDbScale
 70
     0
300
1/64" = 1'-0"
140
0.015625
141
12.0
290
     0
  0
SCALE
  5
CD5
102
{ACAD_REACTORS
330
CC1
102
}
330
CC1
100
AcDbScale
 70
     0
300
1/32" = 1'-0"
140
0.03125
141
12.0
290
     0
  0
SCALE
  5
CD6
102
{ACAD_REACTORS
330
CC1
102
}
330
CC1
100
AcDbScale
 70
     0
300
1/16" = 1'-0"
140
0.0625
141
12.0
290
     0
  0
SCALE
  5
CD7
102
{ACAD_REACTORS
330
CC1
102
}
330
CC1
100
AcDbScale
 70
     0
300
3/32" = 1'-0"
140
0.09375
141
12.0
290
     0
  0
SCALE
  5
CD8
102
{ACAD_REACTORS
330
CC1
102
}
330
CC1
100
AcDbScale
 70
     0
300
1/8" = 1'-0"
140
0.125
141
12.0
290
     0
  0
SCALE
  5
CD9
102
{ACAD_REACTORS
330
CC1
102
}
330
CC1
100
AcDbScale
 70
     0
300
3/16" = 1'-0"
140
0.1875
141
12.0
290
     0
  0
SCALE
  5
CDA
102
{ACAD_REACTORS
330
CC1
102
}
330
CC1
100
AcDbScale
 70
     0
300
1/4" = 1'-0"
140
0.25
141
12.0
290
     0
  0
SCALE
  5
CDB
102
{ACAD_REACTORS
330
CC1
102
}
330
CC1
100
AcDbScale
 70
     0
300
3/8" = 1'-0"
140
0.375
141
12.0
290
     0
  0
SCALE
  5
CDC
102
{ACAD_REACTORS
330
CC1
102
}
330
CC1
100
AcDbScale
 70
     0
300
1/2" = 1'-0"
140
0.5
141
12.0
290
     0
  0
SCALE
  5
CDD
102
{ACAD_REACTORS
330
CC1
102
}
330
CC1
100
AcDbScale
 70
     0
300
3/4" = 1'-0"
140
0.75
141
12.0
290
     0
  0
SCALE
  5
CDE
102
{ACAD_REACTORS
330
CC1
102
}
330
CC1
100
AcDbScale
 70
     0
300
1" = 1'-0"
140
1.0
141
12.0
290
     0
  0
SCALE
  5
CDF
102
{ACAD_REACTORS
330
CC1
102
}
330
CC1
100
AcDbScale
 70
     0
300
1-1/2" = 1'-0"
140
1.5
141
12.0
290
     0
  0
SCALE
  5
CE0
102
{ACAD_REACTORS
330
CC1
102
}
330
CC1
100
AcDbScale
 70
     0
300
3" = 1'-0"
140
3.0
141
12.0
290
     0
  0
SCALE
  5
CE1
102
{ACAD_REACTORS
330
CC1
102
}
330
CC1
100
AcDbScale
 70
     0
300
6" = 1'-0"
140
6.0
141
12.0
290
     0
  0
SCALE
  5
CE2
102
{ACAD_REACTORS
330
CC1
102
}
330
CC1
100
AcDbScale
 70
     0
300
1'-0" = 1'-0"
140
12.0
141
12.0
290
     0
  0
TABLESTYLE
  5
40
102
{ACAD_XDICTIONARY
360
41
102
}
102
{ACAD_REACTORS
330
3C
102
}
330
3C
100
AcDbTableStyle
  3
Standard
 70
     0
 71
     0
 40
0.06
 41
0.06
280
     0
281
     0
  7
Standard
140
4.5
170
     2
 62
     0
 63
   257
283
     1
274
    -2
284
     1
 64
     0
275
    -2
285
     1
 65
     0
276
    -2
286
     1
 66
     0
277
    -2
287
     1
 67
     0
278
    -2
288
     1
 68
     0
279
    -2
289
     1
 69
     0
  7
Standard
140
6.0
170
     5
 62
     0
 63
   257
283
     1
274
    -2
284
     1
 64
     0
275
    -2
285
     1
 65
     0
276
    -2
286
     1
 66
     0
277
    -2
287
     1
 67
     0
278
    -2
288
     1
 68
     0
279
    -2
289
     1
 69
     0
  7
Standard
140
4.5
170
     5
 62
     0
 63
   257
283
     1
274
    -2
284
     1
 64
     0
275
    -2
285
     1
 65
     0
276
    -2
286
     1
 66
     0
277
    -2
287
     1
 67
     0
278
    -2
288
     1
 68
     0
279
    -2
289
     1
 69
     0
  0
VISUALSTYLE
  5
29
102
{ACAD_XDICTIONARY
360
2B
102
}
102
{ACAD_REACTORS
330
2A
102
}
330
2A
100
AcDbVisualStyle
  2
2dWireframe
 70
     4
 71
     0
 72
     2
 73
     1
 90
        0
 40
-0.6
 41
-30.0
 62
     5
 63
     7
 74
     1
 91
        4
 64
     7
 65
   257
 75
     1
175
     1
 42
1.0
 92
        0
 66
   257
 43
1.0
 76
     1
 77
     6
 78
     2
 67
     7
 79
     5
170
     0
171
     0
290
     0
174
     0
 93
        1
 44
0.0
173
     0
291
     0
 45
0.0
1001
ACAD
1000
AcDbSavedByObjectVersion
1070
     0
  0
VISUALSTYLE
  5
282
102
{ACAD_XDICTIONARY
360
D0E
102
}
102
{ACAD_REACTORS
330
2A
102
}
330
2A
100
AcDbVisualStyle
  2
3D Hidden
 70
     6
 71
     1
 72
     2
 73
     2
 90
        0
 40
-0.6
 41
-30.0
 62
     5
 63
     7
421
 16777215
 74
     2
 91
        2
 64
     7
 65
   257
 75
     2
175
     1
 42
40.0
 92
        0
 66
   257
 43
1.0
 76
     1
 77
     6
 78
     2
 67
     7
 79
     3
170
     0
171
     0
290
     0
174
     0
 93
        1
 44
0.0
173
     0
291
     0
 45
0.0
1001
ACAD
1000
AcDbSavedByObjectVersion
1070
     0
  0
VISUALSTYLE
  5
46
102
{ACAD_XDICTIONARY
360
47
102
}
102
{ACAD_REACTORS
330
2A
102
}
330
2A
100
AcDbVisualStyle
  2
3dWireframe
 70
     5
 71
     0
 72
     2
 73
     1
 90
        0
 40
-0.6
 41
-30.0
 62
     5
 63
     7
 74
     1
 91
        4
 64
     7
 65
   257
 75
     1
175
     1
 42
1.0
 92
        0
 66
   257
 43
1.0
 76
     1
 77
     6
 78
     2
 67
     7
 79
     5
170
     0
171
     0
290
     0
174
     0
 93
        1
 44
0.0
173
     0
291
     0
 45
0.0
1001
ACAD
1000
AcDbSavedByObjectVersion
1070
     0
  0
VISUALSTYLE
  5
281
102
{ACAD_XDICTIONARY
360
D0C
102
}
102
{ACAD_REACTORS
330
2A
102
}
330
2A
100
AcDbVisualStyle
  2
Basic
 70
     7
 71
     1
 72
     0
 73
     1
 90
        0
 40
-0.6
 41
-30.0
 62
     5
 63
     7
421
 16777215
 74
     0
 91
        4
 64
     7
 65
   257
 75
     1
175
     1
 42
1.0
 92
        8
 66
     7
 43
1.0
 76
     1
 77
     6
 78
     2
 67
     7
 79
     5
170
     0
171
     0
290
     0
174
     0
 93
        1
 44
0.0
173
     0
291
     1
 45
0.0
1001
ACAD
1000
AcDbSavedByObjectVersion
1070
     0
  0
VISUALSTYLE
  5
285
102
{ACAD_XDICTIONARY
360
D14
102
}
102
{ACAD_REACTORS
330
2A
102
}
330
2A
100
AcDbVisualStyle
  2
Brighten
 70
    12
 71
     2
 72
     2
 73
     0
 90
        0
 40
-0.6
 41
-30.0
 62
     5
 63
     7
421
 16777215
 74
     1
 91
        4
 64
     7
 65
   257
 75
     1
175
     1
 42
1.0
 92
        8
 66
     7
 43
1.0
 76
     1
 77
     6
 78
     2
 67
     7
 79
     5
170
     0
171
     0
290
     0
174
     0
 93
        1
 44
50.0
173
     0
291
     1
 45
0.0
1001
ACAD
1000
AcDbSavedByObjectVersion
1070
     0
  0
VISUALSTYLE
  5
289
102
{ACAD_XDICTIONARY
360
D1C
102
}
102
{ACAD_REACTORS
330
2A
102
}
330
2A
100
AcDbVisualStyle
  2
ColorChange
 70
    16
 71
     2
 72
     2
 73
     3
 90
        0
 40
-0.6
 41
-30.0
 62
     5
 63
     8
421
  8421504
 74
     1
 91
        4
 64
     7
 65
   257
 75
     1
175
     1
 42
1.0
 92
        8
 66
     8
424
  8421504
 43
1.0
 76
     1
 77
     6
 78
     2
 67
     7
 79
     5
170
     0
171
     0
290
     0
174
     0
 93
        1
 44
0.0
173
     0
291
     1
 45
0.0
1001
ACAD
1000
AcDbSavedByObjectVersion
1070
     0
  0
VISUALSTYLE
  5
283
102
{ACAD_XDICTIONARY
360
D10
102
}
102
{ACAD_REACTORS
330
2A
102
}
330
2A
100
AcDbVisualStyle
  2
Conceptual
 70
     9
 71
     3
 72
     2
 73
     0
 90
        0
 40
-0.6
 41
-30.0
 62
     5
 63
     7
421
 16777215
 74
     2
 91
        2
 64
     7
 65
   257
 75
     1
175
     1
 42
40.0
 92
        8
 66
     7
 43
1.0
 76
     1
 77
     6
 78
     2
 67
     7
 79
     3
170
     0
171
     0
290
     0
174
     0
 93
        1
 44
0.0
173
     0
291
     0
 45
0.0
1001
ACAD
1000
AcDbSavedByObjectVersion
1070
     0
  0
VISUALSTYLE
  5
284
102
{ACAD_XDICTIONARY
360
D12
102
}
102
{ACAD_REACTORS
330
2A
102
}
330
2A
100
AcDbVisualStyle
  2
Dim
 70
    11
 71
     2
 72
     2
 73
     0
 90
        0
 40
-0.6
 41
-30.0
 62
     5
 63
     7
421
 16777215
 74
     1
 91
        4
 64
     7
 65
   257
 75
     1
175
     1
 42
1.0
 92
        8
 66
     7
 43
1.0
 76
     1
 77
     6
 78
     2
 67
     7
 79
     5
170
     0
171
     0
290
     0
174
     0
 93
        1
 44
-50.0
173
     0
291
     1
 45
0.0
1001
ACAD
1000
AcDbSavedByObjectVersion
1070
     0
  0
VISUALSTYLE
  5
288
102
{ACAD_XDICTIONARY
360
D1A
102
}
102
{ACAD_REACTORS
330
2A
102
}
330
2A
100
AcDbVisualStyle
  2
Facepattern
 70
    15
 71
     2
 72
     2
 73
     0
 90
        0
 40
-0.6
 41
-30.0
 62
     5
 63
     7
421
 16777215
 74
     1
 91
        4
 64
     7
 65
   257
 75
     1
175
     1
 42
1.0
 92
        8
 66
     7
 43
1.0
 76
     1
 77
     6
 78
     2
 67
     7
 79
     5
170
     0
171
     0
290
     0
174
     0
 93
        1
 44
0.0
173
     0
291
     1
 45
0.0
1001
ACAD
1000
AcDbSavedByObjectVersion
1070
     0
  0
VISUALSTYLE
  5
27D
102
{ACAD_XDICTIONARY
360
D04
102
}
102
{ACAD_REACTORS
330
2A
102
}
330
2A
100
AcDbVisualStyle
  2
Flat
 70
     0
 71
     2
 72
     1
 73
     1
 90
        2
 40
-0.6
 41
30.0
 62
     5
 63
     7
421
 16777215
 74
     0
 91
        4
 64
     7
 65
   257
 75
     1
175
     1
 42
1.0
 92
        8
 66
     7
 43
1.0
 76
     1
 77
     6
 78
     2
 67
     7
 79
     5
170
     0
171
     0
290
     0
174
     0
 93
       13
 44
0.0
173
     0
291
     1
 45
0.0
1001
ACAD
1000
AcDbSavedByObjectVersion
1070
     0
  0
VISUALSTYLE
  5
27E
102
{ACAD_XDICTIONARY
360
D06
102
}
102
{ACAD_REACTORS
330
2A
102
}
330
2A
100
AcDbVisualStyle
  2
FlatWithEdges
 70
     1
 71
     2
 72
     1
 73
     1
 90
        2
 40
-0.6
 41
30.0
 62
     5
 63
     7
421
 16777215
 74
     1
 91
        4
 64
     7
 65
   257
 75
     1
175
     1
 42
1.0
 92
        0
 66
   257
 43
1.0
 76
     1
 77
     6
 78
     2
 67
     7
 79
     5
170
     0
171
     0
290
     0
174
     0
 93
       13
 44
0.0
173
     0
291
     1
 45
0.0
1001
ACAD
1000
AcDbSavedByObjectVersion
1070
     0
  0
VISUALSTYLE
  5
27F
102
{ACAD_XDICTIONARY
360
D08
102
}
102
{ACAD_REACTORS
330
2A
102
}
330
2A
100
AcDbVisualStyle
  2
Gouraud
 70
     2
 71
     2
 72
     2
 73
     1
 90
        2
 40
-0.6
 41
30.0
 62
     5
 63
     7
421
 16777215
 74
     0
 91
        4
 64
     7
 65
   257
 75
     1
175
     1
 42
1.0
 92
        0
 66
     7
 43
1.0
 76
     1
 77
     6
 78
     2
 67
     7
 79
     5
170
     0
171
     0
290
     0
174
     0
 93
       13
 44
0.0
173
     0
291
     1
 45
0.0
1001
ACAD
1000
AcDbSavedByObjectVersion
1070
     0
  0
VISUALSTYLE
  5
280
102
{ACAD_XDICTIONARY
360
D0A
102
}
102
{ACAD_REACTORS
330
2A
102
}
330
2A
100
AcDbVisualStyle
  2
GouraudWithEdges
 70
     3
 71
     2
 72
     2
 73
     1
 90
        2
 40
-0.6
 41
30.0
 62
     5
 63
     7
421
 16777215
 74
     1
 91
        4
 64
     7
 65
   257
 75
     1
175
     1
 42
1.0
 92
        0
 66
   257
 43
1.0
 76
     1
 77
     6
 78
     2
 67
     7
 79
     5
170
     0
171
     0
290
     0
174
     0
 93
       13
 44
0.0
173
     0
291
     1
 45
0.0
1001
ACAD
1000
AcDbSavedByObjectVersion
1070
     0
  0
VISUALSTYLE
  5
287
102
{ACAD_XDICTIONARY
360
D18
102
}
102
{ACAD_REACTORS
330
2A
102
}
330
2A
100
AcDbVisualStyle
  2
Linepattern
 70
    14
 71
     2
 72
     2
 73
     0
 90
        0
 40
-0.6
 41
-30.0
 62
     5
 63
     7
421
 16777215
 74
     1
 91
        4
 64
     7
 65
   257
 75
     7
175
     7
 42
1.0
 92
        8
 66
     7
 43
1.0
 76
     1
 77
     6
 78
     2
 67
     7
 79
     5
170
     0
171
     0
290
     0
174
     0
 93
        1
 44
0.0
173
     0
291
     1
 45
0.0
1001
ACAD
1000
AcDbSavedByObjectVersion
1070
     0
  0
VISUALSTYLE
  5
43
102
{ACAD_XDICTIONARY
360
44
102
}
102
{ACAD_REACTORS
330
2A
102
}
330
2A
100
AcDbVisualStyle
  2
Realistic
 70
     8
 71
     2
 72
     2
 73
     1
 90
        0
 40
-0.6
 41
-30.0
 62
     5
 63
     7
 74
     1
 91
        0
 64
     7
 65
   257
 75
     1
175
     1
 42
1.0
 92
        8
 66
     8
 43
1.0
 76
     1
 77
     6
 78
     2
 67
     7
 79
     5
170
     0
171
     0
290
     0
174
     0
 93
       13
 44
0.0
173
     0
291
     0
 45
0.0
1001
ACAD
1000
AcDbSavedByObjectVersion
1070
     0
  0
VISUALSTYLE
  5
286
102
{ACAD_XDICTIONARY
360
D16
102
}
102
{ACAD_REACTORS
330
2A
102
}
330
2A
100
AcDbVisualStyle
  2
Thicken
 70
    13
 71
     2
 72
     2
 73
     0
 90
        0
 40
-0.6
 41
-30.0
 62
     5
 63
     7
421
 16777215
 74
     1
 91
        4
 64
     7
 65
   257
 75
     1
175
     1
 42
1.0
 92
       12
 66
     7
 43
1.0
 76
     1
 77
     6
 78
     2
 67
     7
 79
     5
170
     0
171
     0
290
     0
174
     0
 93
        1
 44
0.0
173
     0
291
     1
 45
0.0
1001
ACAD
1000
AcDbSavedByObjectVersion
1070
     0
  0
DICTIONARYVAR
  5
CF9
102
{ACAD_REACTORS
330
274
102
}
330
274
100
DictionaryVariables
280
     0
  1
STANDARD
  0
DICTIONARYVAR
  5
275
102
{ACAD_REACTORS
330
274
102
}
330
274
100
DictionaryVariables
280
     0
  1
STANDARD
  0
DICTIONARYVAR
  5
279
102
{ACAD_REACTORS
330
274
102
}
330
274
100
DictionaryVariables
280
     0
  1
2
  0
DICTIONARYVAR
  5
278
102
{ACAD_REACTORS
330
274
102
}
330
274
100
DictionaryVariables
280
     0
  1
1
  0
DICTIONARYVAR
  5
277
102
{ACAD_REACTORS
330
274
102
}
330
274
100
DictionaryVariables
280
     0
  1
0
  0
DICTIONARYVAR
  5
276
102
{ACAD_REACTORS
330
274
102
}
330
274
100
DictionaryVariables
280
     0
  1
127
  0
DICTIONARY
  5
17
330
16
100
AcDbDictionary
280
     1
281
     1
  3
ADSK_XREC_LAYOUTTHUMBNAIL
360
18
  0
DICTIONARY
  5
41
330
40
100
AcDbDictionary
280
     1
281
     1
  3
ACAD_ROUNDTRIP_2008_TABLESTYLE_CELLSTYLEMAP
360
D02
  3
ACAD_XREC_ROUNDTRIP
360
D01
  0
DICTIONARY
  5
2B
330
29
100
AcDbDictionary
280
     1
281
     1
  3
ACAD_XREC_ROUNDTRIP
360
2C
  0
DICTIONARY
  5
D0E
330
282
100
AcDbDictionary
280
     1
281
     1
  3
ACAD_XREC_ROUNDTRIP
360
D0F
  0
DICTIONARY
  5
47
330
46
100
AcDbDictionary
280
     1
281
     1
  3
ACAD_XREC_ROUNDTRIP
360
48
  0
DICTIONARY
  5
D0C
330
281
100
AcDbDictionary
280
     1
281
     1
  3
ACAD_XREC_ROUNDTRIP
360
D0D
  0
DICTIONARY
  5
D14
330
285
100
AcDbDictionary
280
     1
281
     1
  3
ACAD_XREC_ROUNDTRIP
360
D15
  0
DICTIONARY
  5
D1C
330
289
100
AcDbDictionary
280
     1
281
     1
  3
ACAD_XREC_ROUNDTRIP
360
D1D
  0
DICTIONARY
  5
D10
330
283
100
AcDbDictionary
280
     1
281
     1
  3
ACAD_XREC_ROUNDTRIP
360
D11
  0
DICTIONARY
  5
D12
330
284
100
AcDbDictionary
280
     1
281
     1
  3
ACAD_XREC_ROUNDTRIP
360
D13
  0
DICTIONARY
  5
D1A
330
288
100
AcDbDictionary
280
     1
281
     1
  3
ACAD_XREC_ROUNDTRIP
360
D1B
  0
DICTIONARY
  5
D04
330
27D
100
AcDbDictionary
280
     1
281
     1
  3
ACAD_XREC_ROUNDTRIP
360
D05
  0
DICTIONARY
  5
D06
330
27E
100
AcDbDictionary
280
     1
281
     1
  3
ACAD_XREC_ROUNDTRIP
360
D07
  0
DICTIONARY
  5
D08
330
27F
100
AcDbDictionary
280
     1
281
     1
  3
ACAD_XREC_ROUNDTRIP
360
D09
  0
DICTIONARY
  5
D0A
330
280
100
AcDbDictionary
280
     1
281
     1
  3
ACAD_XREC_ROUNDTRIP
360
D0B
  0
DICTIONARY
  5
D18
330
287
100
AcDbDictionary
280
     1
281
     1
  3
ACAD_XREC_ROUNDTRIP
360
D19
  0
DICTIONARY
  5
44
330
43
100
AcDbDictionary
280
     1
281
     1
  3
ACAD_XREC_ROUNDTRIP
360
45
  0
DICTIONARY
  5
D16
330
286
100
AcDbDictionary
280
     1
281
     1
  3
ACAD_XREC_ROUNDTRIP
360
D17
  0
XRECORD
  5
18
102
{ACAD_REACTORS
330
17
102
}
330
17
100
AcDbXrecord
280
     1
310
28000000B40000007F00000001000800000000004C59000000000000000000000001000000000000FFFFFF0000000000FFFFFF000000000000000000000000000000000000000000000000000000000000000000330000006600000099000000CC000000FF00000000330000333300006633000099330000CC330000FF3300
310
0000660000336600006666000099660000CC660000FF66000000990000339900006699000099990000CC990000FF99000000CC000033CC000066CC000099CC0000CCCC0000FFCC000000FF000033FF000066FF000099FF0000CCFF0000FFFF000000003300330033006600330099003300CC003300FF003300003333003333
310
33006633330099333300CC333300FF33330000663300336633006666330099663300CC663300FF66330000993300339933006699330099993300CC993300FF99330000CC330033CC330066CC330099CC3300CCCC3300FFCC330000FF330033FF330066FF330099FF3300CCFF3300FFFF330000006600330066006600660099
310
006600CC006600FF00660000336600333366006633660099336600CC336600FF33660000666600336666006666660099666600CC666600FF66660000996600339966006699660099996600CC996600FF99660000CC660033CC660066CC660099CC6600CCCC6600FFCC660000FF660033FF660066FF660099FF6600CCFF6600
310
FFFF660000009900330099006600990099009900CC009900FF00990000339900333399006633990099339900CC339900FF33990000669900336699006666990099669900CC669900FF66990000999900339999006699990099999900CC999900FF99990000CC990033CC990066CC990099CC9900CCCC9900FFCC990000FF99
310
0033FF990066FF990099FF9900CCFF9900FFFF99000000CC003300CC006600CC009900CC00CC00CC00FF00CC000033CC003333CC006633CC009933CC00CC33CC00FF33CC000066CC003366CC006666CC009966CC00CC66CC00FF66CC000099CC003399CC006699CC009999CC00CC99CC00FF99CC0000CCCC0033CCCC0066CC
310
CC0099CCCC00CCCCCC00FFCCCC0000FFCC0033FFCC0066FFCC0099FFCC00CCFFCC00FFFFCC000000FF003300FF006600FF009900FF00CC00FF00FF00FF000033FF003333FF006633FF009933FF00CC33FF00FF33FF000066FF003366FF006666FF009966FF00CC66FF00FF66FF000099FF003399FF006699FF009999FF00CC
310
99FF00FF99FF0000CCFF0033CCFF0066CCFF0099CCFF00CCCCFF00FFCCFF0000FFFF0033FFFF0066FFFF0099FFFF00CCFFFF00FFFFFF00000000000D0D0D001A1A1A00282828003535350043434300505050005D5D5D006B6B6B00787878008686860093939300A1A1A100AEAEAE00BBBBBB00C9C9C900D6D6D600E4E4E400
310
F1F1F100FFFFFF0000000000000000000000000000000000000000000000000000000000000000000000000000000000E2E2E2E2E2E2E2E2E2E2E2E2E2E2E2E2E2E2E2E2E2E2E2E2E2E2E2E2E2E2E2E2E2E2E2E2E2E2E2E2E2E2E2E2E2E2E2E2E2E2E2E2E2E2E2E2E2E2E2E2E2E2E2E2E2E2E2E2E2E2E2E2E2E2E2E2E2E2E2
310
E2E2E2E2E2E2E2E2E2E2E2E2E2E2E2E2E2E2E2E2E2E2E2E2E2E2E2E2E2E2E2E2E2E2E2E2E2E2E2E2E2E2E2E2E2E2E2E2E2E2E2E2E2E2E2E2E2E2E2E2E2E2E2E2E2E2E2E2E2E2E2E2E2E2E2E2E2E2E2E2E2E2E2E2E2E2E2E2E2E2E2E2E2E2E2E2E2E2E2E2E2E2F5F5F5F5F5F5F5F5F5F5F5F5F5F5F5F5F5F5F5F5F5F5F5F5F5
310
F5F5F5F5F5F5F5F5F5F5F5F5F5F5F5F5F5F5F5F5F5F5F5F5F5F5F5F5F5F5F5F5F5F5F5F5F5F5F5F5F5F5F5F5F5F5F5F5F5F5F5F5F5F5F5F5F5F5F5F5F5F5F5F5F5F5F5F5F5F5F5F5F5F5F5F5F5F5F5F5F5F5F5F5F5F5F5F5F5F5F5F5F5F5F5F5F5F5F5F5F5F5F5F5F5F5F5F5F5F5F5F5F5F5F5F5F5F5F5F5F5F5F5F5F5F5F5
310
F5F5F5F5F5F5F5F5F5F5F5F5F5F5F5F5F5F5F5F5F5F5F5F5F5E2E2E2F5F5F5F5F5F5F5F5F5F5F5F5F5F5F5F5F5F5F5F5F5F5F5F5F5F5F5F5F5F5F5F5F5F5F5F5F5F5F5F5F5F5F5F5F5F5F5F5F5F5F5F5F5F5F5F5F5F5F5F5F5F5F5F5F5F5F5F5F5F5F5F5F5F5F5F5F5F5F5F5F5F5F5F5F5F5F5F5F5F5F5F5F5F5F5F5F5F5F5
310
F5F5F5F5F5F5F5F5F5F5F5F5F5F5F5F5F5F5F5F5F5F5F5F5F5F5F5F5F5F5F5F5F5F5F5F5F5F5F5F5F5F5F5F5F5F5F5F5F5F5F5F5F5F5F5F5F5F5F5F5F5F5F5F5F5F5F5F5F5F5F5F5F5F5F5F5F5F5E2E2E2F5F5F5F5F5F5F5F5F5F5F5F5F5F5F5F5F5F5F5F5F5F5F5F5F5F5F5F5F5F5F5F5F5F5F5F5F5F5F5F5F5F5F5F5F5F5
310
F5F5F5F5F5F5F5F5F5F5F5F5F5F5F5F5F5F5F5F5F5F5F5F5F5F5F5F5F5F5F5F5F5F5F5F5F5F5F5F5F5F5F5F5F5F5F5F5F5F5F5F5F5F5F5F5F5F5F5F5F5F5F5F5F5F5F5F5F5F5F5F5F5F5F5F5F5F5F5F5F5F5F5F5F5F5F5F5F5F5F5F5F5F5F5F5F5F5F5F5F5F5F5F5F5F5F5F5F5F5F5F5F5F5F5F5F5F5F5F5F5F5F5F5F5F5F5
310
F5F5F5F5E2E2E2F5F5F5F5F5F5F5F5F5F5F5F5F5F5F5F5F5F5F5F5F5F5F5F5F5F5F5F5F5F5F5F5F5F5F5F5F5F5F5F5F5F5F5F5F5F5F5F5F5F5F5F5F5F5F5F5F5F5F5F5F5F5F5F5F5F5F5F5F5F5F5F5F5F5F5F5F5F5F5F5F5F5F5F5F5F5F5F5F5F5F5F5F5F5F5F5F5F5F5F5F5F5F5F5F5F5F5F5F5F5F5F5F5F5F5F5F5F5F5F5
310
F5F5F5F5F5F5F5F5F5F5F5F5F5F5F5F5F5F5F5F5F5F5F5F5F5F5F5F5F5F5F5F5F5F5F5F5F5F5F5F5F5F5F5F5F5F5F5F5F5F5F5F5F5F5F5F5F5E2E2E2F5F5F5F5F5F5F5F5F5F5F5E2E2E2E2E2E2E2E2E2F5F5F5F5F5F5F5F5F5E2E2E2E2E2E2E2E2E2E2E2E2E2E2E2E2F5F5F5F5F5F5F5F5F5F5E2E2E2E2E2E2E2E2E2E2E2E2
310
E2E2E2E2F5F5F5F5F5F5F5F5F5E2E2E2E2E2E2E2E2E2E2E2E2E2E2E2E2E2F5F5F5F5F5F5F5F5F5E2E2E2E2E2E2E2E2E2E2E2E2E2E2E2E2F5F5F5F5F5F5F5F5F5F5E2E2E2E2E2E2E2E2E2E2E2E2E2E2E2E2F5F5F5F5F5F5F5F5F5E2E2E2E2E2E2E2E2E2F5F5F5F5F5F5F5F5F5F5F5E2E2E2F5F5F5F5F5F5F5F5F5F5F5E2F5F5
310
F5F5F5F5F5F5F5F5F5F5F5F5F5F5F5F5F5F5F5F5F5F5F5F5F5F5F5F5F5F5F5F5F5F5F5F5F5F5F5F5F5F5F5F5F5F5F5F5F5F5F5F5F5F5F5F5F5F5F5F5F5F5F5F5F5F5F5F5F5F5F5F5F5F5F5F5F5F5F5F5F5F5F5F5F5F5F5F5F5F5F5F5F5F5F5F5F5F5F5F5F5F5F5F5F5F5F5F5F5F5F5F5F5F5F5F5F5F5F5F5F5F5F5F5F5F5F5
310
F5F5F5F5F5F5F5F5F5F5F5F5F5F5F5F5F5F5F5F5F5F5F5F5E2F5F5F5F5F5F5F5F5F5F5F5E2E2E2F5F5F5F5F5F5F5F5F5F5F5E2F5F5F5F5F5F5F5F5F5F5F5F5F5F5F5F5F5F5F5F5F5F5F5F5F5F5F5F5F5F5F5F5F5F5F5F5F5F5F5F5F5F5F5F5F5F5F5F5F5F5F5F5F5F5F5F5F5F5F5F5F5F5F5F5F5F5F5F5F5F5F5F5F5F5F5F5
310
F5F5F5F5F5F5F5F5F5F5F5F5F5F5F5F5F5F5F5F5F5F5F5F5F5F5F5F5F5F5F5F5F5F5F5F5F5F5F5F5F5F5F5F5F5F5F5F5F5F5F5F5F5F5F5F5F5F5F5F5F5F5F5F5F5F5F5F5F5F5F5F5F5F5F5F5F5E2F5F5F5F5F5F5F5F5F5F5F5E2E2E2F5F5F5F5F5F5F5F5F5F5F5E2F5F5F5F5F5F5F5F5F5F5F5F5F5F5F5F5F5F5F5F5F5F5F5
310
F5F5F5F5F5F5F5F5F5F5F5F5F5F5F5F5F5F5F5F5F5F5F5F5F5F5F5F5F5F5F5F5F5F5F5F5F5F5F5F5F5F5F5F5F5F5F5F5F5F5F5F5F5F5F5F5F5F5F5F5F5F5F5F5F5F5F5F5F5F5F5F5F5F5F5F5F5F5F5F5F5F5F5F5F5F5F5F5F5F5F5F5F5F5F5F5F5F5F5F5F5F5F5F5F5F5F5F5F5F5F5F5F5F5F5F5F5F5F5F5F5F5F5F5F5F5F5
310
F5F5F5E2F5F5F5F5F5F5F5F5F5F5F5E2E2E2F5F5F5F5F5F5F5F5F5F5F5E2F5F5F5F5F5F5F5F5F5F5F5F5F5F5F5F5F5F5F5F5F5F5F5F5F5F5F5F5F5F5F5F5F5F5F5F5F5F5F5F5F5F5F5F5F5F5F5F5F5F5F5F5F5F5F5F5F5F5F5F5F5F5F5F5F5F5F5F5F5F5F5F5F5F5F5F5F5F5F5F5F5F5F5F5F5F5F5F5F5F5F5F5F5F5F5F5F5
310
F5F5F5F5F5F5F5F5F5F5F5F5F5F5F5F5F5F5F5F5F5F5F5F5F5F5F5F5F5F5F5F5F5F5F5F5F5F5F5F5F5F5F5F5F5F5F5F5F5F5F5F5F5F5F5F5E2F5F5F5F5F5F5F5F5F5F5F5E2E2E2F5F5F5F5F5F5F5F5F5F5F5E2F5F5F5F5F5F5F5F5F5F5F5F5F5F5F5F5F5F5F5F5F5F5F5F5F5F5F5F5F5F5F5F5F5F5F5F5F5F5F5F5F5F5F5F5
310
F5F5F5F5F5F5F5F5F5F5F5F5F5F5F5F5F5F5F5F5F5F5F5F5F5F5F5F5F5F5F5F5F5F5F5F5F5F5F5F5F5F5F5F5F5F5F5F5F5F5F5F5F5F5F5F5F5F5F5F5F5F5F5F5F5F5F5F5F5F5F5F5F5F5F5F5F5F5F5F5F5F5F5F5F5F5F5F5F5F5F5F5F5F5F5F5F5F5F5F5F5F5F5F5F5F5F5F5F5E2F5F5F5F5F5F5F5F5F5F5F5E2E2E2F5F5F5
310
F5F5F5F5F5F5F5F5E2F5F5F5F5F5F5F5F5F5F5F5F5F5F5F5F5F5F5F5F5F5F5F5F5F5F5F5F5F5F5F5F5F5F5F5F5F5F5F5F5F5F5F5F5F5F5F5F5F5F5F5F5F5F5F5F5F5F5F5F5F5F5F5F5F5F5F5F5F5F5F5F5F5F5F5F5F5F5F5F5F5F5F5F5F5F5F5F5F5F5F5F5F5F5F5F5F5F5F5F5F5F5F5F5F5F5F5F5F5F5F5F5F5F5F5F5F5F5
310
F5F5F5F5F5F5F5F5F5F5F5F5F5F5F5F5F5F5F5F5F5F5F5F5F5F5F5F5F5F5F5F5F5F5F5E2F5F5F5F5F5F5F5F5F5F5F5E2E2E2F5F5F5F5F5F5F5F5F5F5F5E2F5F5F5F5F5F5F5F5F5F5F5F5F5F5F5F5F5F5F5F5F5F5F5F5F5F5F5F5F5F5F5F5F5F5F5F5F5F5F5F5F5F5F5F5F5F5F5F5F5F5F5F5F5F5F5F5F5F5F5F5F5F5F5F5F5
310
F5F5F5F5F5F5F5F5F5F5F5F5F5F5F5F5F5F5F5F5F5F5F5F5F5F5F5F5F5F5F5F5F5F5F5F5F5F5F5F5F5F5F5F5F5F5F5F5F5F5F5F5F5F5F5F5F5F5F5F5F5F5F5F5F5F5F5F5F5F5F5F5F5F5F5F5F5F5F5F5F5F5F5F5F5F5F5F5E2F5F5F5F5F5F5F5F5F5F5F5E2E2E2F5F5F5F5F5F5F5F5F5F5F5F5F5F5F5F5F5F5F5F5F5F5F5F5
310
F5F5F5F5F5F5F5F5F5F5F5F5F5F5F5F5F5F5F5F5F5F5F5F5F5F5F5F5F5F5F5F5F5F5F5F5F5F5F5F5F5F5F5F5F5F5F5F5F5F5F5F5F5F5F5F5F5F5F5F5F5F5F5F5F5F5F5F5F5F5F5F5F5F5F5F5F5F5F5F5F5F5F5F5F5F5F5F5F5F5F5F5F5F5F5F5F5F5F5F5F5F5F5F5F5F5F5F5F5F5F5F5F5F5F5F5F5F5F5F5F5F5F5F5F5F5F5
310
F5F5F5F5F5F5F5F5F5F5F5F5F5F5F5F5F5F5F5F5F5F5F5F5F5F5E2E2E2F5F5F5F5F5F5F5F5F5F5F5F5F5F5F5F5F5F5F5F5F5F5F5F5F5F5F5F5F5F5F5F5F5F5F5F5F5F5F5F5F5F5F5F5F5F5F5F5F5F5F5F5F5F5F5F5F5F5F5F5F5F5F5F5F5F5F5F5F5F5F5F5F5F5F5F5F5F5F5F5F5F5F5F5F5F5F5F5F5F5F5F5F5F5F5F5F5F5
310
F5F5F5F5F5F5F5F5F5F5F5F5F5F5F5F5F5F5F5F5F5F5F5F5F5F5F5F5F5F5F5F5F5F5F5F5F5F5F5F5F5F5F5F5F5F5F5F5F5F5F5F5F5F5F5F5F5F5F5F5F5F5F5F5F5F5F5F5F5F5F5F5F5F5F5F5F5F5F5E2E2E2F5F5F5F5F5F5F5F5F5F5F5F5F5F5F5F5F5F5F5F5F5F5F5F5F5F5F5F5F5F5F5F5F5F5F5F5F5F5F5F5F5F5F5F5F5
310
F5F5F5F5F5F5F5F5F5F5F5F5F5F5F5F5F5F5F5F5F5F5F5F5F5F5F5F5F5F5F5F5F5F5F5F5F5F5F5F5F5F5F5F5F5F5F5F5F5F5F5F5F5F5F5F5F5F5F5F5F5F5F5F5F5F5F5F5F5F5F5F5F5F5F5F5F5F5F5F5F5F5F5F5F5F5F5F5F5F5F5F5F5F5F5F5F5F5F5F5F5F5F5F5F5F5F5F5F5F5F5F5F5F5F5F5F5F5F5F5F5F5F5F5F5F5F5
310
F5F5F5F5F5E2E2E2F5F5F5F5F5F5F5F5F5F5F5F5F5F5F5F5F5F5F5F5F5F5F5F5F5F54C4C4C4C4C4C4C4C4C4C4C4C4C4C4C4C4C4C4C4C4C4C4C4C4C4C4C4C4C4C4C4C4C4C4C4C4C4C4C4C4C4C4C4C4C4C4C4C4C4C4C4C4C4C4C4C4C4C4C4C4C4C4C4C4C4C4C4C4C4C4C4C4C4C4C4C4C4C4C4C4C4C4C4C4C4C4C4C4C4C4C4C4C
310
4C4C4C4C4C4C4C4C4C4C4C4C4C4C4C4C4C4C4C4C4C4C4C4C4C4C4C4C4C4C4C4CF5F5F5F5F5F5F5F5F5F5F5F5F5F5F5F5F5F5F5F5F5F5F5F5F5F5E2E2E2F5F5F5F5F5F5F5F5F5F5F5F5F5F5F5F5F5F5F5F5F5F5F5F5F5F54CF5F5F5F5F5F5F5F5F5F5F5F5F5F54CF5F5E2E2F54C4CF5F5F5F5F5E2E2F5F5E2E2F54C4CF5F5F5
310
F5F5E2F5F5F5E2E2F5F5F5F5F5F5F5F5E2F5E2E2E2F54C4CF5F5F5F5F5E2F5E2E2E2F54C4CF5F5F5F5F5E2F5F5F5F5F5F5F5F5F5F5F5F5F5F5F5F5F5F5F5F5F5F5F5F5F5F5F5F5F5F5F5F5F5F5F5F5F5F5F5F5F54CF5F5F5F5F5F5F5F5F5F5F5F5F5F5F5F5F5F5F5F5F5F5F5F5F5F5E2E2E2F5F5F5F5F5F5F5F5F5F5F5F5F5
310
F5F5F5F5F5F5F5F5F5F5F5F5F54CF5F5F5F5F5F5F5F5F5F5F5F5F5F54CF5F5E2E2F54C4CF5F5F5F5F5E2E2F5F5E2E2F54C4CF5F5F5F5F5E2F5F5F5E2E2F54C28F5F5F5F5F5E2F5E2F5E24C2828F5F5F5F5F5E2F5E2F5E2F54CBEF5F5F5F5F5E2F5F5F5F5F5F5F5F5F5F5F5F5F5F5F5F5F5F5F5F5F5F5F5F5F5F5F5F5F5F5F5
310
F5F5F5F5F5F5F5F5F5F54CF5F5F5F5F5F5F5F5F5F5F5F5F5F5F5F5F5F5F5F5F5F5F5F5F5F5E2E2E2F5F5F5F5F5F5F5F5F5F5F5F5F5F5F5F5F5F5F5F5F5F5F5F5F5F54CF5F5F5F5F5F5F5F5F5F5F5F5F5F54CF5F5E2E2F54C4CF5F5E2F5F5E2E2F5F5E2E2F54C4CF5F5F5F5F5E2F5F5F5E2E2F54C28F5F5F5F5F5E2F5E2F5E2
310
4C284CF5F5F5F5F5E2F5E2F5E2F52828F5F5F5F5F5E2F5F5F5F5F5F5F5F5F5F5F5F5F5F5F5F5F5F5F5F5F5F5F5F5F5F5F5F5F5F5F5F5F5F5F5F5F5F5F5F5F54CF5F5F5F5F5F5F5F5F5F5F5F5F5F5F5F5F5F5F5F5F5F5F5F5F5F5E2E2E2F5F5F5F5F5F5F5F5F5F5F5F5F5F5F5F5F5F5F5F5F5F5F5F5F5F54CF5F5F5F5F5F5F5
310
F5F5F5F5F5F5F54CF5F5E2E2F5E2F5F5F5F5F5F5E2E2F5F5E2E2F5F5F5F5F5E2F5F5E2F5F5F5E2E2F54C4CF5F5F5F5F5E2F5E2F5E2F5E2F5F5F5F5F5F5E2F5E2F5E2F52828F5F5F5F5F5E2F5F5F5F5F5F5F5F5F5F5F5F5F5F5F5F5F5F5F5F5F5F5F5F5F5F5F5F5F5F5F5F5F5F5F5F5F5F5F5F5F54CF5F5F5F5F5F5F5F5F5F5
310
F5F5F5F5F5F5F5F5F5F5F5F5F5F5F5F5E2E2E2F5F5F5F5F5F5F5F5F5F5F5E2F5F5F5F5F5F5F5F5F5F5F5F5F5F54CF5F5F5F5F5F5F5F5F5F5F5F5F5F54CF5F5E2E2F528284CF5BE4CF5E2E2F5F5E2E2F5282828F5BE4CF5E2F5F5F5E2E2F54C4CF54CBE4CF5E2F5E2F5E2F54C4CF54CBE4CF5E2F5E2F5E2F54C4CF54CBE4CF5
310
E2F5F5F5F5F5F5F5F5F5F5F5F5F5F5F5F5F5F5F5F5F5F5F5F5F5F5F5F5F5F5F5F5F5F5F5F5F5F5F5F5F54CF5F5F5F5F5F5F5F5F5F5F5F5F5F5E2F5F5F5F5F5F5F5F5F5F5F5E2E2E2F5F5F5F5F5F5F5F5F5F5F5E2F5F5F5F5F5F5F5F5F5F5F5F5F5F54CF5F5F5F5F5F5F5F5F5F5F5F5F5F54CF5F5E2E2F528284CF54C4CF5E2
310
E2F5F5E2E2F5282828F54C4CF5E2F5F5F5E2E2F54CE2F54CBE4CF5E2F5E2F5E2F54CE2F54C4CE2F5E2F5E2F5E2F54CE2F54C4CE2F5E2F5F5F5F5F5F5F5F5F5F5F5F5F5F5F5F5F5F5F5F5F5F5F5F5F5F5F5F5F5F5F5F5F5F5F5F5F5F5F5F5F54CF5F5F5F5F5F5F5F5F5F5F5F5F5F5E2F5F5F5F5F5F5F5F5F5F5F5E2E2E2F5F5
310
F5F5F5F5F5F5F5F5F5E2F5F5F5F5F5F5F5F5F5F5F5F5F5F54CF5F5F5F5F5F5F5F5F5F5F5F5F5F54CF5F5E2E2F5F528F5F54CF5F5E2E2F5F5E2E2F5F54CF5F54CF5F5E2F5F5F5E2E2F5F5F5F54CF5F5F5E2F5E2F5E2F5F5F5F5F5F5F5F5E2F5E2F5E2F5F5F5F54CF5F5F5E2F5F5F5F5F5F5F5F5F5F5F5F5F5F5F5F5F5F5F5F5
310
F5F5F5F5F5F5F5F5F5F5F5F5F5F5F5F5F5F5F5F5F54CF5F5F5F5F5F5F5F5F5F5F5F5F5F5E2F5F5F5F5F5F5F5F5F5F5F5E2E2E2F5F5F5F5F5F5F5F5F5F5F5E2F5F5F5F5F5F5F5F5F5F5F5F5F5F54CF5F5F5F5F5F5F5F5F5F5F5F5F5F54CF5F5E2E2F5F5F5F5F5F5F5F5E2E2F5F5E2E2F5F5F5F5F5F5F5F5E2F5F5F5E2E2F5F5
310
F5F5F5F5F5F5E2F5E2F5E2F5F5F5F5F5F5F5F5E2F5E2F5E2F5F5F5F5F5F5F5F5E2F5F5F5F5F5F5F5F5F5F5F5F5F5F5F5F5F5F5F5F5F5F5F5F5F5F5F5F5F5F5F5F5F5F5F5F5F5F5F5F5F54CF5F5F5F5F5F5F5F5F5F5F5F5F5F5E2F5F5F5F5F5F5F5F5F5F5F5E2E2E2F5F5F5F5F5F5F5F5F5F5F5E2F5F5F5F5F5F5F5F5F5F5F5
310
F5F5F54CF5F5F5F5F5F5F5F5F5F5F5F5F5F54CF5F5E2E2F5F5F5F5F5F5F5F5E2E2F5F5E2E2F5F5F5F5F5F5F5F5E2F5F5F5E2E2F5F5F5F5F5F5F5F5E2F5E2F5E2F5F5F5F5F5F5F5F5E2F5E2F5E2F5F5F5F5F5F5F5F5E2F5F5F5F5F5F5F5F5F5F5F5F5F5F5F5F5F5F5F5F5F5F5F5F5F5F5F5F5F5F5F5F5F5F5F5F5F5F5F5F5F5
310
4CF5F5F5F5F5F5F5F5F5F5F5F5F5F5E2F5F5F5F5F5F5F5F5F5F5F5E2E2E2F5F5F5F5F5F5F5F5F5F5F5E2F5F5F5F5F5F5F5F5F5F5F5F5F5F54CF5F5F5F5F5F5F5F5F5F5F5F5F5F54CF5F5E2E2F5F5F5F5F5F5F5F5E2E2F5F5E2E2F5F5F5F5F5F5F5F5E2F5F5F5E2E2F5F5F5F5F5F5F5F5E2F5E2F5E2F5F5F5F5F5F5F5F5E2F5
310
E2F5E2F5F5F5F5F5F5F5F5E2F5F5F5F5F5F5F5F5F5F5F5F5F5F5F5F5F5F5F5F5F5F5F5F5F5F5F5F5F5F5F5F5F5F5F5F5F5F5F5F5F54CF5F5F5F5F5F5F5F5F5F5F5F5F5F5E2F5F5F5F5F5F5F5F5F5F5F5E2E2E2F5F5F5F5F5F5F5F5F5F5F5E2F5F5F5F5F5F5F5F5F5F5F5F5F5F54CF5F5F5F5F5F5F5F5F5F5F5F5F5F54CF5F5
310
E2E2F5F5F5F5E2E2E2E2E2E2F5F5E2E2F5F5F5F5E2E2E2E2E2F5F5F5E2E2F5F5F5F5E2E2E2E2E2F528F5E2F5F5F5F5E2E2E2E2E2F5E2F5E2F5F5F5F5E2E2E2E2E2F5F5F5F5F5F5F5F5F5F5F5F5F5F5F5F5F5F5F5F5F5F5F5F5F5F5F5F5F5F5F5F5F5F5F5F5F5F5F5F5F54CF5F5F5F5F5F5F5F5F5F5F5F5F5F5E2F5F5F5F5F5
310
F5F5F5F5F5F5E2E2E2F5F5F5F5F5F5F5F5F5F5F5E2F5F5F5F5F5F5F5F5F5F5F5F5F5F54CF5F5F5F5F5F5F5F5F5F5F5F5F5F54CF5F5E2E2E2E2E2E2E2E2E2E2E2E2F5F5E2E2E2E2E2E2E2E2E2E2E2F5F5F528E2E2E2E2E2E2E2E2E2E2F5E2E2E2E2E2E2E2E2E2E2E2E2F5E2E2E2E2E2E2E2E2E2E2E2E2F5F5F5F5F5F5F5F5F5
310
F5F5F5F5F5F5F5F5F5F5F5F5F5F5F5F5F5F5F5F5F5F5F5F5F5F5F5F5F5F5F5F54CF5F5F5F5F5F5F5F5F5F5F5F5F5F5E2F5F5F5F5F5F5F5F5F5F5F5E2E2E2F5F5F5F5F5F5F5F5F5F5F5E2F5F5F5F5F5F5F5F5F5F5F5F5F5F54CF5F5F5F5F5F5F5F5F5F5F5F5F5F54CF5F5F5F5F5F5F5F5F5F5F5F5F5F5F5F5F5F5F5F5F5F5F5
310
F5F5F5F5F5F5F5F5F5F5F5F5F5F5F5F5F5F5F5F5F5F5F5F5F5F5F5F5F5F5F5F5F5F5F5F5F5F5F5F5F5F5F5F5F5F5F5F5F5F5F5F5F5F5F5F5F5F5F5F5F5F5F5F5F5F5F5F5F5F5F5F5F5F5F5F5F5F5F5F5F5F5F5F5F54CF5F5F5F5F5F5F5F5F5F5F5F5F5F5E2F5F5F5F5F5F5F5F5F5F5F5E2E2E2F5F5F5F5F5F5F5F5F5F5F5E2
310
F5F5F5F5F5F5F5F5F5F5F5F5F5F54CF5F5F5F5F5F5F5F5F5F5F5F5F5F54CF5F5F5F5F5F5F5F5F5F5F5F5F5F5F5F5F5F5F5F5F5F5F5F5F5F5F5F5F5F5F5F5F5F5F5F5F5F5F5F5F5F5F5F5F5F5F5F5F5F5F5F5F5F5F5F5F5F5F5F5F5F5F5F5F5F5F5F5F5F5F5F5F5F5F5F5F5F5F5F5F5F5F5F5F5F5F5F5F5F5F5F5F5F5F5F5F5
310
F5F5F5F5F5F5F5F5F5F5F54CF5F5F5F5F5F5F5F5F5F5F5F5F5F5E2F5F5F5F5F5F5F5F5F5F5F5E2E2E2F5F5F5F5F5F5F5F5F5F5F5E2F5F5F5F5F5F5F5F5F5F5F5F5F5F54CF5F5F5F5F5F5F5F5F5F5F5F5F5F54C4C4C4C4C4C4C4C4C4C4C4C4C4C4C4C4C4C4C4C4C4C4C4C4C4C4C4C4C4C4C4C4C4C4C4C4C4C4C4C4C4C4C4C4C
310
4C4C4C4C4C4C4C4C4C4C4C4C4C4C4C4C4C4C4C4C4C4C4C4C4C4C4C4C4C4C4C4C4C4C4C4C4C4C4C4C4C4C4C4C4C4C4C4C4C4C4C4C4C4C4C4C4C4C4C4C4C4C4C4C4CF5F5F5F5F5F5F5F5F5F5F5F5F5F5E2F5F5F5F5F5F5F5F5F5F5F5E2E2E2F5F5F5F5F5F5F5F5F5F5F5E2F5F5F5F5F5F5F5F5F5F5F5F5F5F54CF5F5F5F5F5F5
310
F5F5F5F5F5F5F5F54CF5F5F5F5F5F5F5F5F5F5F5F5F5F5F5F5F5F5F5F5F5F5F5F5F5F5F5F5F5F5F5F5F5F5F5F5F5F5F5F5F5F5F5F5F5F5F5F5F5F5F5F5F5F5F5F5F5F5F5F5F5F5F5F5F5F5F5F5F5F5F5F5F5F5F5F5F5F5F5F5F5F5F5F5F5F5F5F5F5F5F5F5F5F5F5F5F5F5F5F5F5F5F5F5F5F5F5F54CF5F5F5F5F5F5F5F5F5
310
F5F5F5F5F5E2F5F5F5F5F5F5F5F5F5F5F5E2E2E2F5F5F5F5F5F5F5F5F5F5F5E2F5F5F5F5F5F5F5F5F5F5F5F5F5F54CF5F5F5F5F5F5F5F5F5F5F5F5F5F54CF5E2E2E2E2E2E2E2E2E2E2E2E2F5F5F5F5F5F5F5F5F5F5F5F5F5F5F5F5E2E2E2E2E2E2E2E2E2E2E2E2F5F5E2E2E2E2E2E2E2E2E2E2E2E2F5E2E2E2E2E2E2E2E2E2
310
E2E2E2F5F5F5F5F5F5F5F5F5F5F5F5F5F5F5F5F5F5F5F5F5F5F5F5F5F5F5F5F5F5F5F5F5F5F5F5F5F5F5F54CF5F5F5F5F5F5F5F5F5F5F5F5F5F5E2F5F5F5F5F5F5F5F5F5F5F5E2E2E2F5F5F5F5F5F5F5F5F5F5F5E2F5F5F5F5F5F5F5F5F5F5F5F5F5F54CF5F5F5F5F5F5F5F5F5F5F5F5F5F54CF5E2F5E2E2E2E2E2E2E2E2E2
310
E2F5F5F5E2E2E2E2E2E2E2E2E2E2E2F5F5E2E2E2E2E2E2E2E2E2E2E2E2F5F5E2E2E2E2E2E2E2E2E2E2E2E2F5E2E2E2E2E2E2E2E2E2E2E2E2F5F5F5F5F5F5F5F5F5F5F5F5F5F5F5F5F5F5F5F5F5F5F5F5F5F5F5F5F5F5F5F5F5F5F5F5F5F5F5F54CF5F5F5F5F5F5F5F5F5F5F5F5F5F5E2F5F5F5F5F5F5F5F5F5F5F5E2E2E2F5
310
F5F5F5F5F5F5F5F5F5F5E2F5F5F5F5F5F5F5F5F5F5F5F5F5F54CF5F5F5F5F5F5F5F5F5F5F5F5F5F54CF5E2F5E2E2E2E2E2E2E2E2E2E2F5F5F5E2E2E2E2E2E2E2E2E2E2E2F5F5E2E2E2E2E2E2E2E2E2E2E2E2F5F5E2E2E2E2E2E2E2E2E2E2E2E2F5E2E2E2E2E2E2E2E2E2E2E2E2F5F5F5F5F5F5F5F5F5F5F5F5F5F5F5F5F5F5
310
F5F5F5F5F5F5F5F5F5F5F5F5F5F5F5F5F5F5F5F5F5F54CF5F5F5F5F5F5F5F5F5F5F5F5F5F5E2F5F5F5F5F5F5F5F5F5F5F5E2E2E2F5F5F5F5F5F5F5F5F5F5F5F5F5F5F5F5F5F5F5F5F5F5F5F5F5F54CF5F5F5F5F5F5F5F5F5F5F5F5F5F54CF5E2F5E2E2E2E2E2E2E2E2E2E2F5F5F5E2E2E2E2E2E2E2E2E2E2E2F5F5E2E2E2E2
310
E2E2E2E2E2E2E2E2F5F5E2E2F5F5E2F5F5F5F5F5F5E2F5E2E2F5F5E2F5F5F5F5F5F5E2F5F5F5F5F5F5F5F5F5F5F5F5F5F5F5F5F5F5F5F5F5F5F5F5F5F5F5F5F5F5F5F5F5F5F5F5F5F5F5F54CF5F5F5F5F5F5F5F5F5F5F5F5F5F5F5F5F5F5F5F5F5F5F5F5F5F5E2E2E2F5F5F5F5F5F5F5F5F5F5F5F5F5F5F5F5F5F5F5F5F5F5
310
F5F5F5F54CF5F5F5F5F5F5F5F5F5F5F5F5F5F54CF5E2E2E2F5F5F5F5F5F5F5F5E2F5F5F5E2E2F5E2F5F5F5F5F5F5E2F5F5E2E2F5F5E2F5F5F5F5F5F5E2F5F5E2E2F5F5E2F5F5F5F5F5F5E2F5E2E2F5F5F5F5F5F5F5F5F5E2F5F5F5F5F5F5F5F5F5F5F5F5F5F5F5F5F5F5F5F5F5F5F5F5F5F5F5F5F5F5F5F5F5F5F5F5F5F5F5
310
F54CF5F5F5F5F5F5F5F5F5F5F5F5F5F5F5F5F5F5F5F5F5F5F5F5F5F5E2E2E2F5F5F5F5F5F5F5F5F5F5F5F5F5F5F5F5F5F5F5F5F5F5F5F5F5F54CF5F5F5F5F5F5F5F5F5F5F5F5F5F54CF5E2E2E2F54CBEF5F5F5F5F5E2F5F5F5E2E2F54CBEF5F5F5F5F5E2F5F5E2E2F54CBE4CF5F5F5F5F5E2F5F5E2E2F54CBE4CF5F5F5F5F5
310
E2F5E2E2F54C4C4CF5F5F5F5F5E2F5F5F5F5F5F5F5F5F5F5F5F5F5F5F5F5F5F5F5F5F5F5F5F5F5F5F5F5F5F5F5F5F5F5F5F5F5F5F5F54CF5F5F5F5F5F5F5F5F5F5F5F5F5F5F5F5F5F5F5F5F5F5F5F5F5F5E2E2E2F5F5F5F5F5F5F5F5F5F5F5F5F5F5F5F5F5F5F5F5F5F5F5F5F5F54CF5F5F5F5F5F5F5F5F5F5F5F5F5F54CF5
310
E2F5E2F54CBEF5F5F5F5F5E2F5F5F5E2E2F54CBEF5F5F5F5F5E2F5F5E2E2F5F5BE4CF5F5F5F5F5E2F5F5E2E2F54CBE4CF5F5F5F5F5E2F5E2E2F5F5F5F5F5F5F5F5F5E2F5F5F5F5F5F5F5F5F5F5F5F5F5F5F5F5F5F5F5F5F5F5F5F5F5F5F5F5F5F5F5F5F5F5F5F5F5F5F5F54CF5F5F5F5F5F5F5F5F5F5F5F5F5F5F5F5F5F5F5
310
F5F5F5F5F5F5F5E2E2E2F5F5F5F5F5F5F5F5F5F5F5F5F5F5F5F5F5F5F5F5F5F5F5F5F5F54CF5F5F5F5F5F5F5F5F5F5F5F5F5F54CF5E2F5E2F54CBEF5F5F5F5F5E2F5F5F5E2E2F54CBEF5F5F5F5F5E2F5F5E2E2F54CBE4CF5F5F5F5F5E2F5F5E2E2F54CE24CF5F5E2F5F5E2F5E2E2F5F5F5F5F5F5F5F5F5E2F5F5F5F5F5F5F5
310
F5F5F5F5F5F5F5F5F5F5F5F5F5F5F5F5F5F5F5F5F5F5F5F5F5F5F5F5F5F5F5F5F54CF5F5F5F5F5F5F5F5F5F5F5F5F5F5F5F5F5F5F5F5F5F5F5F5F5F5E2E2E2F5F5F5F5F5F5F5F5F5F5F5F5F5F5F5F5F5F5F5F5F5F5F5F5F5F54CF5F5F5F5F5F5F5F5F5F5F5F5F5F54CF5E2F5E2F5E2F5F5F5F5F5F5E2F5F5F5E2E2F5F5F5F5
310
F5F5F5F5E2F5F5E2E2F5F5E2F5F5F5F5F5F5E2F5F5E2E2F5F5F5F5F5F5F5F5F5E2F5E2E2F5F54CF5F5F5F5F5F5E2F5F5F5F5F5F5F5F5F5F5F5F5F5F5F5F5F5F5F5F5F5F5F5F5F5F5F5F5F5F5F5F5F5F5F5F5F5F5F5F54CF5F5F5F5F5F5F5F5F5F5F5F5F5F5F5F5F5F5F5F5F5F5F5F5F5F5E2E2E2F5F5F5F5F5F5F5F5F5F5F5
310
F5F5F5F5F5F5F5F5F5F5F5F5F5F5F54CF5F5F5F5F5F5F5F5F5F5F5F5F5F54CF5E2F5E2F54C4CF54C4C4CF5E2F5F5F5E2E2F54C4CF54C4C4CF5E2F5F5E2E2F54C4C4CF54C4C4CF5E2F5F5E2E2F54C4C4CF54C4C4CF5E2F5E2E2F54C4C4CF5F54CF5F5E2F5F5F5F5F5F5F5F5F5F5F5F5F5F5F5F5F5F5F5F5F5F5F5F5F5F5F5F5
310
F5F5F5F5F5F5F5F5F5F5F5F54CF5F5F5F5F5F5F5F5F5F5F5F5F5F5F5F5F5F5F5F5F5F5F5F5F5F5E2E2E2F5F5F5F5F5F5F5F5F5F5F5F5F5F5F5F5F5F5F5F5F5F5F5F5F5F54CF5F5F5F5F5F5F5F5F5F5F5F5F5F54CF5E2F5E2F54C4CF54CCFE2F5E2F5F5F5E2E2F54C4CF5BE4CE2F5E2F5F5E2E2F54C4C4CF54CCFE2F5E2F5F5
310
E2E2F54C4C4CF54CE2E2F5E2F5E2E2F54C4CE2F5F54CF5F5E2F5F5F5F5F5F5F5F5F5F5F5F5F5F5F5F5F5F5F5F5F5F5F5F5F5F5F5F5F5F5F5F5F5F5F5F5F5F5F5F54CF5F5F5F5F5F5F5F5F5F5F5F5F5F5F5F5F5F5F5F5F5F5F5F5F5F5E2E2E2F5F5F5F5F5F5F5F5F5F5F5E2F5F5F5F5F5F5F5F5F5F5F5F5F5F54CF5F5F5F5F5
310
F5F5F5F5F5F5F5F5F54CF5E2F5E2F5F5F5F5F5F5F5F5E2F5F5F5E2E2F5F5F5F5F5F5F5F5E2F5F5E2E2F5F5F5F5F5F5F5F5F5E2F5F5E2E2F54C4C4CF54CF5F5F5E2F5E2E2F54C4C4CF5F54CF5F5E2F5F5F5F5F5F5F5F5F5F5F5F5F5F5F5F5F5F5F5F5F5F5F5F5F5F5F5F5F5F5F5F5F5F5F5F5F5F5F5F54CF5F5F5F5F5F5F5F5
310
F5F5F5F5F5F5E2F5F5F5F5F5F5F5F5F5F5F5E2E2E2F5F5F5F5F5F5F5F5F5F5F5E2F5F5F5F5F5F5F5F5F5F5F5F5F5F54CF5F5F5F5F5F5F5F5F5F5F5F5F5F54CF5E2F5E2F5F5F5F5F5F5F5F5E2F5F5F5E2E2F5F5F5F5F5F5F5F5E2F5F5E2E2F5F5F5F5F5F5F5F5F5E2F5F5E2E2F5F5F5F5F5F5F5F5F5E2F5E2E2F5F5F5F5F5F5
310
F5F5F5E2F5F5F5F5F5F5F5F5F5F5F5F5F5F5F5F5F5F5F5F5F5F5F5F5F5F5F5F5F5F5F5F5F5F5F5F5F5F5F5F54CF5F5F5F5F5F5F5F5F5F5F5F5F5F5E2F5F5F5F5F5F5F5F5F5F5F5E2E2E2F5F5F5F5F5F5F5F5F5F5F5E2F5F5F5F5F5F5F5F5F5F5F5F5F5F54CF5F5F5F5F5F5F5F5F5F5F5F5F5F54CF5E2F5E2F5F5F5F5F5F5F5
310
F5E2F5F5F5E2E2F5F5F5F5F5F5F5F5E2F5F5E2E2F5F5F5F5F5F5F5F5F5E2F5F5E2E2F5F5F5F5F5F5F5F5F5E2F5E2E2F5F5F5F5F5F5F5F5F5E2F5F5F5F5F5F5F5F5F5F5F5F5F5F5F5F5F5F5F5F5F5F5F5F5F5F5F5F5F5F5F5F5F5F5F5F5F5F5F5F54CF5F5F5F5F5F5F5F5F5F5F5F5F5F5E2F5F5F5F5F5F5F5F5F5F5F5E2E2E2
310
F5F5F5F5F5F5F5F5F5F5F5E2F5F5F5F5F5F5F5F5F5F5F5F5F5F54CF5F5F5F5F5F5F5F5F5F5F5F5F5F54CF5E2F5E2F5F5F5F5E2E2E2E2E2F5F5F5E2E2F5F5F5F5E2E2E2E2E2F5F5E2E2F5F5F5F5F5E2E2E2E2E2F5F5E2E2F5F5F5F5F5E2E2E2E2E2F5E2E2F5F5F5F5E2E2E2E2E2E2F5F5F5F5F5F5F5F5F5F5F5F5F5F5F5F5F5
310
F5F5F5F5F5F5F5F5F5F5F5F5F5F5F5F5F5F5F5F5F5F5F54CF5F5F5F5F5F5F5F5F5F5F5F5F5F5E2F5F5F5F5F5F5F5F5F5F5F5E2E2E2F5F5F5F5F5F5F5F5F5F5F5E2F5F5F5F5F5F5F5F5F5F5F5F5F5F54CF5F5F5F5F5F5F5F5F5F5F5F5F5F54CF5E2F5E2F5F5F5F5E2E2E2E2E2F5F5F5E2E2F5F5F5F5E2E2E2E2E2F5F5E2E2F5
310
F5F5F5F5E2E2E2E2E2F5F5E2E2E2E2E2E2E2E2E2E2E2E2F5E2E2E2E2E2E2E2E2E2E2E2E2F5F5F5F5F5F5F5F5F5F5F5F5F5F5F5F5F5F5F5F5F5F5F5F5F5F5F5F5F5F5F5F5F5F5F5F5F5F5F5F54CF5F5F5F5F5F5F5F5F5F5F5F5F5F5E2F5F5F5F5F5F5F5F5F5F5F5E2E2E2F5F5F5F5F5F5F5F5F5F5F5E2F5F5F5F5F5F5F5F5F5
310
F5F5F5F5F54CF5F5F5F5F5F5F5F5F5F5F5F5F5F54CF5E2E2E2E2E2E2E2E2E2E2E2E2F5F5F5E2E2E2E2E2E2E2E2E2E2E2F5F5E2E2E2E2E2E2E2E2E2E2E2E2F5F5E2E2E2E2E2E2E2E2E2E2E2E2F5E2E2E2E2E2E2E2E2E2E2E2E2F5F5F5F5F5F5F5F5F5F5F5F5F5F5F5F5F5F5F5F5F5F5F5F5F5F5F5F5F5F5F5F5F5F5F5F5F5F5
310
F5F54CF5F5F5F5F5F5F5F5F5F5F5F5F5F5E2F5F5F5F5F5F5F5F5F5F5F5E2E2E2F5F5F5F5F5F5F5F5F5F5F5E2F5F5F5F5F5F5F5F5F5F5F5F5F5F54CF5F5F5F5F5F5F5F5F5F5F5F5F5F54CF5F5F5F5F5F5F5F5F5F5F5F5F5F5F5F5F5F5F5F5F5F5F5F5F5F5F5F5F5F5F5F5F5F5F5F5F5F5F5F5F5F5F5F5F5F5F5F5F5F5F5F5F5
310
F5F5F5F5F5F5F5F5F5F5F5F5F5F5F5F5F5F5F5F5F5F5F5F5F5F5F5F5F5F5F5F5F5F5F5F5F5F5F5F5F5F5F5F5F5F5F5F5F5F5F5F5F5F5F54CF5F5F5F5F5F5F5F5F5F5F5F5F5F5E2F5F5F5F5F5F5F5F5F5F5F5E2E2E2F5F5F5F5F5F5F5F5F5F5F5E2F5F5F5F5F5F5F5F5F5F5F5F5F5F54CF5F5F5F5F5F5F5F5F5F5F5F5F5F54C
310
4C4C4C4C4C4C4C4C4C4C4C4C4C4C4C4C4C4C4C4C4C4C4C4C4C4C4C4C4C4C4C4C4C4C4C4C4C4C4C4C4C4C4C4C4C4C4C4C4C4C4C4C4C4C4C4C4C4C4C4C4C4C4C4C4C4C4C4C4C4C4C4C4C4C4C4C4C4C4C4C4C4C4C4C4C4C4C4C4C4C4C4C4C4C4C4C4C4C4C4C4C4C4C4C4C4C4C4C4CF5F5F5F5F5F5F5F5F5F5F5F5F5F5E2F5F5F5
310
F5F5F5F5F5F5F5F5E2E2E2F5F5F5F5F5F5F5F5F5F5F5E2F5F5F5F5F5F5F5F5F5F5F5F5F5F54CF5F5F5F5F5F5F5F5F5F5F5F5F5F54CF5F5F5F5F5F5F5F5F5F5F5F5F5F5F5F5F5F5F5F5F5F5F5F5F5F5F5F5F5F5F5F5F5F5F5F5F5F5F5F5F5F5F5F5F5F5F5F5F5F5F5F5F5F5F5F5F5F5F5F5F5F5F5F5F5F5F5F5F5F5F5F5F5F5
310
F5F5F5F5F5F5F5F5F5F5F5F5F5F5F5F5F5F5F5F5F5F5F5F5F5F5F5F5F5F5F5F5F5F54CF5F5F5F5F5F5F5F5F5F5F5F5F5F5E2F5F5F5F5F5F5F5F5F5F5F5E2E2E2F5F5F5F5F5F5F5F5F5F5F5E2F5F5F5F5F5F5F5F5F5F5F5F5F5F54CF5F5F5F5F5F5F5F5F5F5F5F5F5F54CF5F5F5F5F5F5E2F5F5F5F5F5F5F5F5F5E2E2E2E2E2
310
E2E2E2E2E2E2F5F5E2E2E2E2E2E2E2E2E2E2E2E2F5F5F5F5F5F5F5F5F5F5F5F5F5F5F5E2E2E2E2E2E2E2E2E2E2E2E2F5E2E2E2E2E2E2E2E2E2E2E2F5F5F5F5F5F5F5F5F5F5F5F5F5F5F5F5F5F5F5F5F5F5F5F5F5F5F5F54CF5F5F5F5F5F5F5F5F5F5F5F5F5F5E2F5F5F5F5F5F5F5F5F5F5F5E2E2E2F5F5F5F5F5F5F5F5F5F5
310
F5E2F5F5F5F5F5F5F5F5F5F5F5F5F5F54CF5F5F5F5F5F5F5F5F5F5F5F5F5F54C2828E2E2E2E2E2E2E2E2E2E2E2F5F5F5E2E2E2E2E2E2E2E2E2E2E2F5F5E2E2E2E2E2E2E2E2E2E2E2E2F5E2E2E2E2E2E2E2E2E2E2E2E2F5F5E2E2E2E2E2E2E2E2E2E2E2E2F5E2E2E2E2E2E2E2E2E2E2E2F5F5F5F5F5F5F5F5F5F5F5F5F5F5F5
310
F5F5F5F5F5F5F5F5F5F5F5F5F54CF5F5F5F5F5F5F5F5F5F5F5F5F5F5E2F5F5F5F5F5F5F5F5F5F5F5E2E2E2F5F5F5F5F5F5F5F5F5F5F5E2F5F5F5F5F5F5F5F5F5F5F5F5F5F54CF5F5F5F5F5F5F5F5F5F5F5F5F5F54C28E2E2E2E2E2E2E2E2E2E2E2E2F5F5F5E2E2E2E2E2E2E2E2E2E2E2F5F5E2E2E2E2E2E2E2E2E2E2E2E2F5
310
E2E2E2E2E2E2E2E2E2E2E2E2F5F5E2E2E2E2E2E2E2E2E2E2E2E2F5E2E2E2E2E2E2E2E2E2E2E2F5F5F5F5F5F5F5F5F5F5F5F5F5F5F5F5F5F5F5F5F5F5F5F5F5F5F5F54CF5F5F5F5F5F5F5F5F5F5F5F5F5F5E2F5F5F5F5F5F5F5F5F5F5F5E2E2E2F5F5F5F5F5F5F5F5F5F5F5E2F5F5F5F5F5F5F5F5F5F5F5F5F5F54CF5F5F5F5
310
F5F5F5F5F5F5F5F5F5F54C28E2E2E2E2E2E2E2E2E2E2E2E2F5F5F5E2E2F5F5F5F5F5F5F5F5E2F5F5E2E2F5F5E2F5F5F5F5F5F5E2F5E2E2E2E2E2E2E2E2E2E2E2E2F5F5E2E2E2E2E2E2E2E2E2E2E2E2F5E2E2F5F5F5F5F5F5F5F5E2F5F5F5F5F5F5F5F5F5F5F5F5F5F5F5F5F5F5F5F5F5F5F5F5F5F5F5F54CF5F5F5F5F5F5F5
310
F5F5F5F5F5F5F5E2F5F5F5F5F5F5F5F5F5F5F5E2E2E2F5F5F5F5F5F5F5F5F5F5F5E2F5F5F5F5F5F5F5F5F5F5F5F5F5F54CF5F5F5F5F5F5F5F5F5F5F5F5F5F54C28E2E2F5F5F5F5F5F5F5F5F5E2F5F5F5E2E2F5E2F5F5F5F5F5F5E2F5F5E2E2F5F5F5F5F5F5F5F5F5E2F5E2E2F5F5F5F5F5F5F5F5F5E2F5F5E2E2F5F5F5F5F5
310
F5F5F5F5E2F5E2E2F5F5F5F5F5F5F5F5E2F5F5F5F5F5F5F5F5F5F5F5F5F5F5F5F5F5F5F5F5F5F5F5F5F5F5F5F54CF5F5F5F5F5F5F5F5F5F5F5F5F5F5E2F5F5F5F5F5F5F5F5F5F5F5E2E2E2F5F5F5F5F5F5F5F5F5F5F5E2F5F5F5F5F5F5F5F5F5F5F5F5F5F54CF5F5F5F5F5F5F5F5F5F5F5F5F5F54C28E2E2F54C2828F5F5F5
310
F5F5E2F5F5F5E2E2F54CBEF5F5F5F5F5E2F5F5E2E2F54CBE4CF5F5F5F5F5E2F5E2E2F54CBE4CF5F5F5F5F5E2F5F5E2E2F54CBE4CF5F5F5F5F5E2F5E2E2F54CBEF5F5F5F5F5E2F5F5F5F5F5F5F5F5F5F5F5F5F5F5F5F5F5F5F5F5F5F5F5F5F5F5F5F54CF5F5F5F5F5F5F5F5F5F5F5F5F5F5E2F5F5F5F5F5F5F5F5F5F5F5E2E2
310
E2F5F5F5F5F5F5F5F5F5F5F5F5F5F5F5F5F5F5F5F5F5F5F5F5F5F54CF5F5F5F5F5F5F5F5F5F5F5F5F5F54C28E2E2F54C2828F5F5F5F5F5E2F5F5F5E2E2F5E2BEF5F5F5F5F5E2F5F5E2E2F54CBE4CF5F5F5F5F5E2F5E2E2F54CBE4CF5F5F5F5F5E2F5F5E2E2F54CBE4CF5F5F5F5F5E2F5E2E2F54C4CF5F5F5F5F5E2F5F5F5F5
310
F5F5F5F5F5F5F5F5F5F5F5F5F5F5F5F5F5F5F5F5F5F5F5F54CF5F5F5F5F5F5F5F5F5F5F5F5F5F5F5F5F5F5F5F5F5F5F5F5F5F5E2E2E2F5F5F5F5F5F5F5F5F5F5F5F5F5F5F5F5F5F5F5F5F5F5F5F5F5F54CF5F5F5F5F5F5F5F5F5F5F5F5F5F54C28E2E2F54C4CBEF5F5F5F5F5E2F5F5F5E2E2F54CBEF5F5E2F5F5E2F5F5E2E2
310
F54CBE4CF5F5E2F5F5E2F5E2E2F54CBE4CF5F5F5F5F5E2F5F5E2E2F54CBE4CF5F5F5F5F5E2F5E2E2F5F5F5F5F5F5F5F5E2F5F5F5F5F5F5F5F5F5F5F5F5F5F5F5F5F5F5F5F5F5F5F5F5F5F5F5F54CF5F5F5F5F5F5F5F5F5F5F5F5F5F5F5F5F5F5F5F5F5F5F5F5F5F5E2E2E2F5F5F5F5F5F5F5F5F5F5F5F5F5F5F5F5F5F5F5F5
310
F5F5F5F5F5F54CF5F5F5F5F5F5F5F5F5F5F5F5F5F54C28E2E2F5F5E2F5F5F5F5F5F5E2F5F5F5E2E2F5F5F5F5F5F5F5F5E2F5F5E2E2F5F5F5F5F5F5F5F5F5E2F5E2E2F5F5F5F5F5F5F5F5F5E2F5F5E2E2F5F5F5F5F5F5F5F5F5E2F5E2E2F5E2F5F5F5E2F5F5E2F5F5F5F5F5F5F5F5F5F5F5F5F5F5F5F5F5F5F5F5F5F5F5F5F5
310
F5F5F54CF5F5F5F5F5F5F5F5F5F5F5F5F5F5F5F5F5F5F5F5F5F5F5F5F5F5E2E2E2F5F5F5F5F5F5F5F5F5F5F5F5F5F5F5F5F5F5F5F5F5F5F5F5F5F54CF5F5F5F5F5F5F5F5F5F5F5F5F5F54C28E2E2F54C4C4CF54C4C4CF5E2F5F5F5E2E2F54C4CF54C4C4CF5E2F5F5E2E2F54C4C4C4C4C4CF5F5E2F5E2E2F54C4C4CF54C4C4C
310
F5E2F5F5E2E2F54C4C4CF54C4C4CF5E2F5E2E2F54C4CF528284CF5E2F5F5F5F5F5F5F5F5F5F5F5F5F5F5F5F5F5F5F5F5F5F5F5F5F5F5F5F54CF5F5F5F5F5F5F5F5F5F5F5F5F5F5F5F5F5F5F5F5F5F5F5F5F5F5E2E2E2F5F5F5F5F5F5F5F5F5F5F5F5F5F5F5F5F5F5F5F5F5F5F5F5F5F54CF5F5F5F5F5F5F5F5F5F5F5F5F5F5
310
4C28E2E2F54CBE4CF54C4C4CF5E2F5F5F5E2E2F54C4CF54C4C4CF5E2F5F5E2E2F54C4C4C4C4C4CF5F5E2F5E2E2F54C4C4CF54CCF4CF5E2F5F5E2E2F54C4C4CF54CCF4CF5E2F5E2E2F54C4CF54CC34CF5E2F5F5F5F5F5F5F5F5F5F5F5F5F5F5F5F5F5F5F5F5F5F5F5F5F5F5F5F54CF5F5F5F5F5F5F5F5F5F5F5F5F5F5F5F5F5
310
F5F5F5F5F5F5F5F5F5E2E2E2F5F5F5F5F5F5F5F5F5F5F5F5F5F5F5F5F5F5F5F5F5F5F5F5F5F54CF5F5F5F5F5F5F5F5F5F5F5F5F5F54C28E2E2F5F54C4CF54CF5F5F5E2F5F5F5E2E2F5F5F5F5F5F5F5F5E2F5F5E2E2F5F5F5F5F5F5F5F5F5E2F5E2E2F5F5F5F5F5F5F5F5F5E2F5F5E2E2F5F5F5F5F5F5F5F5F5E2F5E2E2F5F5
310
F5F5F5F5F5F5E2F5F5F5F5F5F5F5F5F5F5F5F5F5F5F5F5F5F5F5F5F5F5F5F5F5F5F5F54CF5F5F5F5F5F5F5F5F5F5F5F5F5F5F5F5F5F5F5F5F5F5F5F5F5F5E2E2E2F5F5F5F5F5F5F5F5F5F5F5F5F5F5F5F5F5F5F5F5F5F5F5F5F5F54CF5F5F5F5F5F5F5F5F5F5F5F5F5F54C28E2E2F5F5F5F5F5F5F5F5F5E2F5F5F5E2E2F5F5
310
F5F5F5F5F5F5E2F5F5E2E2F5F5F5F5F5F5F5F5F5E2F5E2E2F5F5F5F5F5F5F5F5F5E2F5F5E2E2F5F5F5F5F5F5F5F5F5E2F5E2E2F5F5F5F5F5F5F5F5E2F5F5F5F5F5F5F5F5F5F5F5F5F5F5F5F5F5F5F5F5F5F5F5F5F5F5F5F54CF5F5F5F5F5F5F5F5F5F5F5F5F5F5F5F5F5F5F5F5F5F5F5F5F5F5E2E2E2F5F5F5F5F5F5F5F5F5
310
F5F5F5F5F5F5F5F5F5F5F5F5F5F5F5F5F54CF5F5F5F5F5F5F5F5F5F5F5F5F5F54C28E2E2F5F5F5F5F5F5F5F5F5E2F5F5F5E2E2F5F5F5F5F5F5F5F5E2F5F5E2E2F5F5F5F5F5F5F5F5F5E2F5E2E2F5F5F5F5F5F5F5F5F5E2F5F5E2E2F5F5F5F5F5F5F5F5F5E2F5E2E2F5F5F5F5F5F5F5F5E2F5F5F5F5F5F5F5F5F5F5F5F5F5F5
310
F5F5F5F5F5F5F5F5F5F5F5F5F5F54CF5F5F5F5F5F5F5F5F5F5F5F5F5F5F5F5F5F5F5F5F5F5F5F5F5F5E2E2E2F5F5F5F5F5F5F5F5F5F5F5F5F5F5F5F5F5F5F5F5F5F5F5F5F5F54CF5F5F5F5F5F5F5F5F5F5F5F5F5F54C28E2E2F5F5F5F5F5E2E2E2E2E2F5F5F5E2E2F5F5F5F5E2E2E2E2E2F5F5E2E2F5F5F5F5E2E2E2E2E2E2
310
F5E2E2F5F5F5F5E2E2E2E2E2E2F5F5E2E2F5F5F5F5E2E2E2E2E2E2F5E2E2F5F5F5F5E2E2E2E2E2F5F5F5F5F5F5F5F5F5F5F5F5F5F5F5F5F5F5F5F5F5F5F5F5F5F5F5F54CF5F5F5F5F5F5F5F5F5F5F5F5F5F5F5F5F5F5F5F5F5F5F5F5F5F5E2E2E2F5F5F5F5F5F5F5F5F5F5F5E2F5F5F5F5F5F5F5F5F5F5F5F5F5F54CF5F5F5
310
F5F5F5F5F5F5F5F5F5F5F54C28E2E2F5F5F5F5F5E2E2E2E2E2F5F5F5E2E2E2E2E2E2E2E2E2E2E2F5F528E2E2E2E2E2E2E2E2E2E2E2F528E2F5F5F5F5E2E2E2E2E2E2F5F528E2F5F5F5F5E2E2E2E2E2E2F5E2E2F5F5F5F5E2E2E2E2E2F5F5F5F5F5F5F5F5F5F5F5F5F5F5F5F5F5F5F5F5F5F5F5F5F5F5F5F54CF5F5F5F5F5F5
310
F5F5F5F5F5F5F5F5E2F5F5F5F5F5F5F5F5F5F5F5E2E2E2F5F5F5F5F5F5F5F5F5F5F5E2F5F5F5F5F5F5F5F5F5F5F5F5F5F54CF5F5F5F5F5F5F5F5F5F5F5F5F5F54C2828E2E2E2E2E2E2E2E2E2E2E2F5F5F5E2E2E2E2E2E2E2E2E2E2E2F5F5E2E2E2E2E2E2E2E2E2E2E2E2F5E2E2E2E2E2E2E2E2E2E2E2E2F5F5E2E2E2E2E2E2
310
E2E2E2E2E2E2F5E2E2E2E2E2E2E2E2E2E2E2F5F5F5F5F5F5F5F5F5F5F5F5F5F5F5F5F5F5F5F5F5F5F5F5F5F5F5F54CF5F5F5F5F5F5F5F5F5F5F5F5F5F5E2F5F5F5F5F5F5F5F5F5F5F5E2E2E2F5F5F5F5F5F5F5F5F5F5F5E2F5F5F5F5F5F5F5F5F5F5F5F5F5F54CF5F5F5F5F5F5F5F5F5F5F5F5F5F54CF5F5F5F5F5F5F5F5F5
310
F5F5F5F5F5F5F5F5F5F5F5F5F5F5F5F5F5F5F5F5F5F5F5F5F5F5F5F5F5F5F5F5F5F5F5F5F5F5F5F5F5F5F5F5F5F5F5F5F5F5F5F5F5F5F5F5F5F5F5F5F5F5F5F5F5F5F5F5F5F5F5F5F5F5F5F5F5F5F5F5F5F5F5F5F5F5F5F5F5F5F5F5F5F5F5F5F5F5F54CF5F5F5F5F5F5F5F5F5F5F5F5F5F5E2F5F5F5F5F5F5F5F5F5F5F5E2
310
E2E2F5F5F5F5F5F5F5F5F5F5F5E2F5F5F5F5F5F5F5F5F5F5F5F5F5F54CF5F5F5F5F5F5F5F5F5F5F5F5F5F54C4C4C4C4C4C4C4C4C4C4C4C4C4C4C4C4C4C4C4C4C4C4C4C4C4C4C4C4C4C4C4C4C4C4C4C4C4C4C4C4C4C4C4C4C4C4C4C4C4C4C4C4C4C4C4C4C4C4C4C4C4C4C4C4C4C4C4C4C4C4C4C4C4C4C4C4C4C4C4C4C4C4C4C
310
4C4C4C4C4C4C4C4C4C4C4C4C4C4C4C4C4C4C4C4C4C4C4C4C4C4CF5F5F5F5F5F5F5F5F5F5F5F5F5F5E2F5F5F5F5F5F5F5F5F5F5F5E2E2E2F5F5F5F5F5F5F5F5F5F5F5E2F5F5F5F5F5F5F5F5F5F5F5F5F5F54CF5F5F5F5F5F5F5F5F5F5F5F5F5F54CF5F5F5F5F5F5E2E2E2F5F5F5F5F5F5F5F5F5F5F5E2E2E2F5F5F5F5F5F5F5
310
F5F5F5E2F5E2F5F5F5F5F5F5F5F5F5F5F5E2F5F5F5F5F5F5F5E2E2E2E2E2E2E2E2E2E2E2E2F5E2E2E2E2E2E2E2E2E2E2E2E2F5F5F5F5F5F5F5F5F5F5F5F5F5F5F5F5F5F5F5F5F5F5F5F5F5F5F5F54CF5F5F5F5F5F5F5F5F5F5F5F5F5F5E2F5F5F5F5F5F5F5F5F5F5F5E2E2E2F5F5F5F5F5F5F5F5F5F5F5E2F5F5F5F5F5F5F5
310
F5F5F5F5F5F5F54CF5F5F5F5F5F5F5F5F5F5F5F5F5F54CF5E2E2E2E2E2E2E2E2E2E2E2E2F5F5E2E2E2E2E2E2E2E2E2E2E2E2F5F5E2E2E2E2E2E2E2E2E2E2E2E2F5E2E2E2E2E2E2E2E2E2E2E2E2F5E2F5E2E2E2E2E2E2E2E2E2E2F5E2F5E2E2E2E2E2E2E2E2E2E2F5F5F5F5F5F5F5F5F5F5F5F5F5F5F5F5F5F5F5F5F5F5F5F5
310
F5F5F5F54CF5F5F5F5F5F5F5F5F5F5F5F5F5F5E2F5F5F5F5F5F5F5F5F5F5F5E2E2E2F5F5F5F5F5F5F5F5F5F5F5E2F5F5F5F5F5F5F5F5F5F5F5F5F5F54CF5F5F5F5F5F5F5F5F5F5F5F5F5F54CF5E2F5E2E2E2E2E2E2E2E2E2E2F5F5E2F5E2E2E2E2E2E2E2E2E2E2F5F5E2E2E2E2E2E2E2E2E2E2E2E2F5E2E2E2E2E2E2E2E2E2
310
E2E2E2F5E2F5E2E2E2E2E2E2E2E2E2E2F5E2F5E2E2E2E2E2E2E2E2E2E2F5F5F5F5F5F5F5F5F5F5F5F5F5F5F5F5F5F5F5F5F5F5F5F5F5F5F5F54CF5F5F5F5F5F5F5F5F5F5F5F5F5F5E2F5F5F5F5F5F5F5F5F5F5F5E2E2E2F5F5F5F5F5F5F5F5F5F5F5E2F5F5F5F5F5F5F5F5F5F5F5F5F5F54CF5F5F5F5F5F5F5F5F5F5F5F5F5
310
F54CF5E2F5E2E2E2E2E2E2E2E2E2E2F5F5E2F5E2E2E2E2E2E2E2E2E2E2F5F5E2E2E2E2E2E2E2E2E2E2E2E2F5E2E2E2E2E2E2E2E2E2E2E2E2F5E2F5E2F5F5F5F5F5F5F5F5E2F5E2F5E2F5E2F5F5F5F5F5F5E2F5F5F5F5F5F5F5F5F5F5F5F5F5F5F5F5F5F5F5F5F5F5F5F5F5F5F5F54CF5F5F5F5F5F5F5F5F5F5F5F5F5F5E2F5
310
F5F5F5F5F5F5F5F5F5F5E2E2E2F5F5F5F5F5F5F5F5F5F5F5E2F5F5F5F5F5F5F5F5F5F5F5F5F5F54CF5F5F5F5F5F5F5F5F5F5F5F5F5F54CF5E2E2E2F5F5F5F5F5F5F5F5E2F5F5E2E2E2F5F5F5F5F5F5F5F5E2F5F5E2E2F5F5F5F5F5F5F5F5E2E2F5E2E2F5F5F5F5F5F5F5F5F5E2F5E2E2E2F5F5F5F5F5F5F5F5E2F5E2E2E2F5
310
F5F5F5F5F5F5F5E2F5F5F5F5F5F5F5F5F5F5F5F5F5F5F5F5F5F5F5F5F5F5F5F5F5F5F5F54CF5F5F5F5F5F5F5F5F5F5F5F5F5F5E2F5F5F5F5F5F5F5F5F5F5F5E2E2E2F5F5F5F5F5F5F5F5F5F5F5E2F5F5F5F5F5F5F5F5F5F5F5F5F5F54CF5F5F5F5F5F5F5F5F5F5F5F5F5F54CF5E2E2E2F54C4CF5F5F5F5F5E2F5F5E2E2E2F5
310
4C4CF5F5F5F5F5E2F5F5E2E2F54C4CF5F5F5F5F5E2E2F5E2E2F54C4C4CF5F5F5F5F5E2F5E2E2E2F54C4CF5F5F5F5F5E2F5E2F5E24C4C4CF5F5F5F5F5E2F5F5F5F5F5F5F5F5F5F5F5F5F5F5F5F5F5F5F5F5F5F5F5F5F5F5F5F54CF5F5F5F5F5F5F5F5F5F5F5F5F5F5E2F5F5F5F5F5F5F5F5F5F5F5E2E2E2F5F5F5F5F5F5F5F5
310
F5F5F5E2F5F5F5F5F5F5F5F5F5F5F5F5F5F54CF5F5F5F5F5F5F5F5F5F5F5F5F5F54CF5E2F5E2284C4CF5F5F5F5F5E2F5F5E2F5E24C4C4CF5F5F5F5F5E2F5F5E2E2F54C4CF5F5F5F5F5E2E2F5E2E2F54C4C4CF5F5F5F5F5E2F5E2F5E2F5E24CF5F5F5F5F5E2F5E2F5E24C4C4CF5F5F5F5F5E2F5F5F5F5F5F5F5F5F5F5F5F5F5
310
F5F5F5F5F5F5F5F5F5F5F5F5F5F5F54CF5F5F5F5F5F5F5F5F5F5F5F5F5F5E2F5F5F5F5F5F5F5F5F5F5F5E2E2E2F5F5F5F5F5F5F5F5F5F5F5E2F5F5F5F5F5F5F5F5F5F5F5F5F5F54CF5F5F5F5F5F5F5F5F5F5F5F5F5F54CF5E2F5E2F54C4CF5F5F5F5F5E2F5F5E2F5E24C4C4CF5F5F5F5F5E2F5F5E2E2F54C4C2DF5F5F5F5E2
310
E2F5E2E2F54C4C4CF5F5F5F5F5E2F5E2F5E2F54C4CF5F5F5F5F5E2F5E2F5E24C4C4CF5F5F5F5F5E2F5F5F5F5F5F5F5F5F5F5F5F5F5F5F5F5F5F5F5F5F5F5F5F5F5F5F5F54CF5F5F5F5F5F5F5F5F5F5F5F5F5F5E2F5F5F5F5F5F5F5F5F5F5F5E2E2E2F5F5F5F5F5F5F5F5F5F5F5E2F5F5F5F5F5F5F5F5F5F5F5F5F5F54CF5F5
310
F5F5F5F5F5F5F5F5F5F5F5F54CF5E2F5E2F54C4CF5F5F5F5F5E2F5F5E2F5E2F54C4CF5F5F5F5F5E2F5F5E2E2F54C4CF5F5F5F5F5E2E2F5E2E2F5F54C4CF5F5F5F5F5E2F5E2F5E2F5E2F5F5F5F5F5F5E2F5E2F5E2F5F5F5F5F5F5F5F5E2F5F5F5F5F5F5F5F5F5F5F5F5F5F5F5F5F5F5F5F5F5F5F5F5F5F5F5F54CF5F5F5F5F5
310
F5F5F5F5F5F5F5F5F5E2F5F5F5F5F5F5F5F5F5F5F5E2E2E2F5F5F5F5F5F5F5F5F5F5F5E2F5F5F5F5F5F5F5F5F5F5F5F5F5F54CF5F5F5F5F5F5F5F5F5F5F5F5F5F54CF5E2F5E2F5BEF5F54C4CF5F5E2F5F5E2F5E2F54C4CF54C4C4CF5E2F5F5E2E2F54C4C4CF54C4C4CE2E2F5E2E2F54C4C4CF54C4C4CF5E2F5E2F5E2F54C4C
310
F54C4C4CF5E2F5E2F5E2F54C4CF54C4CE2F5E2F5F5F5F5F5F5F5F5F5F5F5F5F5F5F5F5F5F5F5F5F5F5F5F5F5F5F5F54CF5F5F5F5F5F5F5F5F5F5F5F5F5F5E2F5F5F5F5F5F5F5F5F5F5F5E2E2E2F5F5F5F5F5F5F5F5F5F5F5E2F5F5F5F5F5F5F5F5F5F5F5F5F5F54CF5F5F5F5F5F5F5F5F5F5F5F5F5F54CF5E2F5E24C4C4CF5
310
4C4C4CF5E2F5F5E2F5E2284CE2F54CBE4CF5E2F5F5E2E2F54CBEF5F54CCF4CE2E2F5E2E2F54CBEE2F54CE24CF5E2F5E2F5E2F54CE2F54C4C4CF5E2F5E2F5E2F54CE2F5E2E2E2F5E2F5F5F5F5F5F5F5F5F5F5F5F5F5F5F5F5F5F5F5F5F5F5F5F5F5F5F5F54CF5F5F5F5F5F5F5F5F5F5F5F5F5F5E2F5F5F5F5F5F5F5F5F5F5F5
310
E2E2E2F5F5F5F5F5F5F5F5F5F5F5F5F5F5F5F5F5F5F5F5F5F5F5F5F5F54CF5F5F5F5F5F5F5F5F5F5F5F5F5F54CF5E2F5E24CBEE2F54CE24CF5E2F5F5E2F5E2F5E2E2F54CE24CF5E2F5F5E2E2F54CBEF5F54C4C4CE2E2F5E2E2F54C4C4CF54CF5F5F5E2F5E2F5E2F54C4CF54CE2F5F5E2F5E2F5E2F54C4CF5E2E2F5F5E2F5F5
310
F5F5F5F5F5F5F5F5F5F5F5F5F5F5F5F5F5F5F5F5F5F5F5F5F5F54CF5F5F5F5F5F5F5F5F5F5F5F5F5F5F5F5F5F5F5F5F5F5F5F5F5F5E2E2E2F5F5F5F5F5F5F5F5F5F5F5F5F5F5F5F5F5F5F5F5F5F5F5F5F5F54CF5F5F5F5F5F5F5F5F5F5F5F5F5F54CF5E2F5E24C4C4CF54CE2F5F5E2F5F5E2F5E2F54C4CF54CE2F5F5E2F5F5
310
E2E2F54C4CF5F54CF5F5E2E2F5E2E2F5F54C4CF54CF5F5F5E2F5E2F5E2F5F5F5F5F5F5F5F5E2F5E2F5E2F5F5F5F5F5F5F5F5E2F5F5F5F5F5F5F5F5F5F5F5F5F5F5F5F5F5F5F5F5F5F5F5F5F5F5F5F54CF5F5F5F5F5F5F5F5F5F5F5F5F5F5F5F5F5F5F5F5F5F5F5F5F5F5E2E2E2F5F5F5F5F5F5F5F5F5F5F5F5F5F5F5F5F5F5
310
F5F5F5F5F5F5F5F54CF5F5F5F5F5F5F5F5F5F5F5F5F5F54CF5E2F5E2F5F5F5F5F5F5F5F5E2F5F5E2F5E2F5F5F5F5F5F5F5F5E2F5F5E2E2F5F5F5F5F5F5F5F5E2E2F5E2E2F5F5F5F5F5F5F5F5F5E2F5E2F5E2F5F5F5F5F5F5F5F5E2F5E2F5E2F5F5F5F5F5F5F5F5E2F5F5F5F5F5F5F5F5F5F5F5F5F5F5F5F5F5F5F5F5F5F5F5
310
F5F5F5F5F54CF5F5F5F5F5F5F5F5F5F5F5F5F5F5F5F5F5F5F5F5F5F5F5F5F5F5E2E2E2F5F5F5F5F5F5F5F5F5F5F5F5F5F5F5F5F5F5F5F5F5F5F5F5F5F54CF5F5F5F5F5F5F5F5F5F5F5F5F5F54CF5E2F5E2F5F5F5F5F5F5F5F5E2F5F5E2F5E2F5F5F5F5F5F5F5F5E2F5F5E2E2F5F5F5F5E2E2E2E2E2E2F5E2E2F5F5F5F5E2E2
310
E2E2E2E2F5E2F5E2F5F5F5F5E2E2E2E2E2F5E2F5E2F5F5F5F5E2E2E2E2E2F5F5F5F5F5F5F5F5F5F5F5F5F5F5F5F5F5F5F5F5F5F5F5F5F5F5F5F54CF5F5F5F5F5F5F5F5F5F5F5F5F5F5F5F5F5F5F5F5F5F5F5F5F5F5E2E2E2F5F5F5F5F5F5F5F5F5F5F5F5F5F5F5F5F5F5F5F5F5F5F5F5F5F54CF5F5F5F5F5F5F5F5F5F5F5F5
310
F5F54CF5E2F5E2F5F5F5F5E2E2E2E2E2F5F5E2F5E2F5F5F5F5E2E2E2E2E2F5F5E2E2F5F5F5F5E2E2E2E2E2E2F5E2E2F5F5F5F5E2E2E2E2E2E2F5E2F5E2F5F5F5F5E2E2E2E2E2F5E2F5E2E2E2E2E2E2E2E2E2E2F5F5F5F5F5F5F5F5F5F5F5F5F5F5F5F5F5F5F5F5F5F5F5F5F5F5F5F54CF5F5F5F5F5F5F5F5F5F5F5F5F5F5F5
310
F5F5F5F5F5F5F5F5F5F5F5E2E2E2F5F5F5F5F5F5F5F5F5F5F5F5F5F5F5F5F5F5F5F5F5F5F5F5F5F54CF5F5F5F5F5F5F5F5F5F5F5F5F5F54CF5E2E2E2E2E2E2E2E2E2E2E2E2F5F5E2E2E2E2E2E2E2E2E2E2E2E2F5F5E2E2E2E2E2E2E2E2E2E2E2E2F5E2E2E2E2E2E2E2E2E2E2E2E2F5E2E2E2E2E2E2E2E2E2E2E2E2F5E2E2E2
310
E2E2E2E2E2E2E2E2E2F5F5F5F5F5F5F5F5F5F5F5F5F5F5F5F5F5F5F5F5F5F5F5F5F5F5F5F54CF5F5F5F5F5F5F5F5F5F5F5F5F5F5F5F5F5F5F5F5F5F5F5F5F5F5E2E2E2F5F5F5F5F5F5F5F5F5F5F5F5F5F5F5F5F5F5F5F5F5F5F5F5F5F54CF5F5F5F5F5F5F5F5F5F5F5F5F5F54CF5F5F5F5F5F5F5F5F5F5F5F5F5F5F5F5F5F5
310
F5F5F5F5F5F5F5F5F5F5F5F5F5F5F5F5F5F5F5F5F5F5F5F5F5F5F5F5F5F5F5F5F5F5F5F5F5F5F5F5F5F5F5F5F5F5F5F5F5F5F5F5F5F5F5F5F5F5F5F5F5F5F5F5F5F5F5F5F5F5F5F5F5F5F5F5F5F5F5F5F5F5F5F5F5F5F5F5F5F54CF5F5F5F5F5F5F5F5F5F5F5F5F5F5F5F5F5F5F5F5F5F5F5F5F5F5E2E2E2F5F5F5F5F5F5F5
310
F5F5F5F5F5F5F5F5F5F5F5F5F5F5F5F5F5F5F54CF5F5F5F5F5F5F5F5F5F5F5F5F5F54C4C4C4C4C4C4C4C4C4C4C4C4C4C4C4C4C4C4C4C4C4C4C4C4C4C4C4C4C4C4C4C4C4C4C4C4C4C4C4C4C4C4C4C4C4C4C4C4C4C4C4C4C4C4C4C4C4C4C4C4C4C4C4C4C4C4C4C4C4C4C4C4C4C4C4C4C4C4C4C4C4C4C4C4C4C4C4C4C4C4C4C4C
310
4C4C4C4C4C4C4C4C4C4C4C4C4C4C4C4C4CF5F5F5F5F5F5F5F5F5F5F5F5F5F5F5F5F5F5F5F5F5F5F5F5F5F5E2E2E2F5F5F5F5F5F5F5F5F5F5F5E2F5F5F5F5F5F5F5F5F5F5F5F5F5F54CF5F5F5F5F5F5F5F5F5F5F5F5F5F54CF5F5F5F5F5F5F5F5F5F5F5F5F5F5F5F5F5F5F5F5F5F5F5F5F5F5F5F5F5F5F5F5F5F5F5F5F5F5F5
310
F5F5F5F5F5F5F5F5F5F5F5F5F5F5F5F5F5F5F5F5F5F5F5F5F5F5F5F5F5F5F5F5F5F5F5F5F5F5F5F5F5F5F5F5F5F5F5F5F5F5F5F5F5F5F5F5F5F5F5F5F5F5F5F5F5F5F5F5F54CF5F5F5F5F5F5F5F5F5F5F5F5F5F5E2F5F5F5F5F5F5F5F5F5F5F5E2E2E2F5F5F5F5F5F5F5F5F5F5F5E2F5F5F5F5F5F5F5F5F5F5F5F5F5F54CF5
310
F5F5F5F5F5F5F5F5F5F5F5F5F54CF5E2E2E2E2E2E2E2E2E2E2E2E2F5F5E2E2E2E2E2E2E2E2E2E2E2E2F5F5E2E2E2E2E2E2E2E2E2E2E2F5F5E2E2E2E2E2E2E2E2E2E2E2E2F5E2E2E2E2E2E2E2E2E2E2E2E2E2E2E2E2E2E2E2E2E2E2E2E2F5F5F5E2E2E2E2E2E2E2E2E2E2E2F5F5E2E2E2E2E2E2E2E2E2E2E2F5F54CF5F5F5F5
310
F5F5F5F5F5F5F5F5F5F5E2F5F5F5F5F5F5F5F5F5F5F5E2E2E2F5F5F5F5F5F5F5F5F5F5F5E2F5F5F5F5F5F5F5F5F5F5F5F5F5F54CF5F5F5F5F5F5F5F5F5F5F5F5F5F54CF5E2E2E2E2E2E2E2E2E2E2E2E2F5F5E2E2E2E2E2E2E2E2E2E2E2E2F5F5E2E2E2E2E2E2E2E2E2E2E2F5F5E2E2E2E2E2E2E2E2E2E2E2E2F5E2E2E2E2E2
310
E2E2E2E2E2E2E2E2F5E2E2E2E2E2E2E2E2E2E2F5F5F5E2E2E2E2E2E2E2E2E2E2E2F5F5E2E2E2E2E2E2E2E2E2E2E2F5F54CF5F5F5F5F5F5F5F5F5F5F5F5F5F5E2F5F5F5F5F5F5F5F5F5F5F5E2E2E2F5F5F5F5F5F5F5F5F5F5F5E2F5F5F5F5F5F5F5F5F5F5F5F5F5F54CF5F5F5F5F5F5F5F5F5F5F5F5F5F54CF5E2E2E2E2E2E2
310
E2E2E2E2E2E2F5F5E2E2E2E2E2E2E2E2E2E2E2E2F5F5E2E2E2E2E2E2E2E2E2E2E2F5F5E2E2E2E2E2E2E2E2E2E2E2E2F5E2E2E2E2E2E2E2E2E2E2E2E2E2F5E2E2E2E2E2E2E2E2E2E2F5F5F5E2E2E2E2E2E2E2E2E2E2E2F5F5E2E2E2E2E2E2E2E2E2E2E2F5F54CF5F5F5F5F5F5F5F5F5F5F5F5F5F5E2F5F5F5F5F5F5F5F5F5F5
310
F5E2E2E2F5F5F5F5F5F5F5F5F5F5F5E2F5F5F5F5F5F5F5F5F5F5F5F5F5F54CF5F5F5F5F5F5F5F5F5F5F5F5F5F54CF5E2E2F5F5E2F5F5F5F5F5F5E2F5F5E2E2F5F5F5F5F5F5F5F5F5E2F5F5E2E2F5F5E2F5F5F5F5F5E2F5F5E2E2F5F5E2F5F5F5F5F5E2E2F5E2E2F5F5F5F5F5F5F5F5E2E2E2F5E2F5F5E2F5F5F5F5F5E2F5F5
310
F5E2E2F5F5E2F5F5F5F5F5E2F5F5E2E2F5F5E2F5F5F5F5F5E2F5F54CF5F5F5F5F5F5F5F5F5F5F5F5F5F5E2F5F5F5F5F5F5F5F5F5F5F5E2E2E2F5F5F5F5F5F5F5F5F5F5F5E2F5F5F5F5F5F5F5F5F5F5F5F5F5F54CF5F5F5F5F5F5F5F5F5F5F5F5F5F54CF5E2E2F5F5E2F5F5F5F5F5F5E2F5F5E2E2F5F5E2F5F5F5F5F5F5E2F5
310
F5E2E2F5F5F5F5F5F5F5F5E2F5F5E2E2F5F5F5F5F5F5F5F5E2E2F5E2E2F54C4CF5F5F5F5F5E2E2E2E2E2F5E2F5F5F5F5F5F5E2F5F5F5E2E2F5E2F5F5F5F5F5F5E2F5F5E2E2F5E2F5F5F5F5F5F5E2F5F54CF5F5F5F5F5F5F5F5F5F5F5F5F5F5E2F5F5F5F5F5F5F5F5F5F5F5E2E2E2F5F5F5F5F5F5F5F5F5F5F5E2F5F5F5F5F5
310
F5F5F5F5F5F5F5F5F54CF5F5F5F5F5F5F5F5F5F5F5F5F5F54CF5E2E2F54C4C4CF5F5F5F5F5E2F5F5E2E2F54C4C4CF5F5F5F5F5E2F5F5E2E2F5E2E2F5F5F5F5F5E2F5F5E2E2F54C4CF5F5F5F5F5E2E2F5E2E2F54C4CF5F5F5F5F5E2E2E2F5E2F54C4CF5F5F5F5F5E2F5F5F5E2E2F54C4CF5F5F5F5F5E2F5F5E2E2F54C4CF5F5
310
F5F5F5E2F5F54CF5F5F5F5F5F5F5F5F5F5F5F5F5F5E2F5F5F5F5F5F5F5F5F5F5F5E2E2E2F5F5F5F5F5F5F5F5F5F5F5E2F5F5F5F5F5F5F5F5F5F5F5F5F5F54CF5F5F5F5F5F5F5F5F5F5F5F5F5F54CF5E2E2F54C4CBEF5F5F5F5F5E2F5F5E2E2F54C4CBEF5F5F5F5F5E2F5F5E2E2F5E2E2F5F5F5F5F5E2F5F5E2E2F54C4CF5F5
310
F5F5F5E2E2F5E2E2F54C4CF5F5F5F5F5E2E2E2F5E2F54C4CF5F5F5F5F5E2F5F5F5E2E2F5E24CF5F5F5F5F5E2F5F5E2E2F54CE2F5F5F5F5F5E2F5F54CF5F5F5F5F5F5F5F5F5F5F5F5F5F5E2F5F5F5F5F5F5F5F5F5F5F5E2E2E2F5F5F5F5F5F5F5F5F5F5F5E2F5F5F5F5F5F5F5F5F5F5F5F5F5F54CF5F5F5F5F5F5F5F5F5F5F5
310
F5F5F54CF5E2E2F54C4C4CF5F5F5F5F5E2F5F5E2E2F54C4C4CF5F5E2F5F5E2F5F5E2E2F54C4C4CF5F5F5F5E2F5F5E2E2F54C4C4CF5F5F5F5E2E2F5E2E2F54C4C4CF5F5F5F5E2E2E2F5E2F54C4CF5F5F5F5F5E2F5F5F5E2E2F54C4CF5F5F5F5F5E2F5F5E2E2F54CE2F5F5F5F5F5E2F5F54CF5F5F5F5F5F5F5F5F5F5F5F5F5F5
310
E2F5F5F5F5F5F5F5F5F5F5F5E2E2E2F5F5F5F5F5F5F5F5F5F5F5E2F5F5F5F5F5F5F5F5F5F5F5F5F5F54CF5F5F5F5F5F5F5F5F5F5F5F5F5F54CF5E2E2F5F5F5F5F5F5F5F5F5E2F5F5E2E2F5F5F5F5F5F5F5F5F5E2F5F5E2E2F5F5F5F5F54CF5F5E2F5F5E2E2F5F5F5F5F5F5F5F5E2E2F5E2E2F5F5F5F5F54CF5F5E2E2E2F5E2
310
F5F5F5F5F5F5F5F5E2F5F5F5E2E2F5F5F5F5F5F5F5F5E2F5F5E2E2F5F5F5F5F5F5F5F5E2F5F54CF5F5F5F5F5F5F5F5F5F5F5F5F5F5E2F5F5F5F5F5F5F5F5F5F5F5E2E2E2F5F5F5F5F5F5F5F5F5F5F5E2F5F5F5F5F5F5F5F5F5F5F5F5F5F54CF5F5F5F5F5F5F5F5F5F5F5F5F5F54CF5E2E2F54C4C4CF528284CF5E2F5F5E2E2
310
F54C4CE2F528284CF5E2F5F5E2E2F54C4CF54C4C4C2DE2F5F5E2E2F54C4C4C4C4C4C4CE2E2F5E2E2F54C4C2DF54C4C2DE2E2E2F5E2F54C4CF54C4C4CF5E2F5F5F5E2E2F54C4CF528284CF5E2F5F5E2E2F54C4CF54C4C4CF5E2F5F54CF5F5F5F5F5F5F5F5F5F5F5F5F5F5E2F5F5F5F5F5F5F5F5F5F5F5E2E2E2F5F5F5F5F5F5
310
F5F5F5F5F5E2F5F5F5F5F5F5F5F5F5F5F5F5F5F54CF5F5F5F5F5F5F5F5F5F5F5F5F5F54CF5E2E2F54CE2E2F54CE24CF5E2F5F5E2E2F54CE2E2F5E2E24CF5E2F5F5E2E2F5E2E2F54C4CE24CE2F5F5E2E2F5E2E2F54CE24C4CE2E2F5E2E2F54CBEF5F54C4C4CE2E2E2F5E2F54CE2F54CCF4CF5E2F5F5F5E2E2F54C4CF54CE24C
310
F5E2F5F5E2E2F54CBEF54CCF4CF5E2F5F54CF5F5F5F5F5F5F5F5F5F5F5F5F5F5E2F5F5F5F5F5F5F5F5F5F5F5E2E2E2F5F5F5F5F5F5F5F5F5F5F5E2F5F5F5F5F5F5F5F5F5F5F5F5F5F54CF5F5F5F5F5F5F5F5F5F5F5F5F5F54CF5E2E2F54C4C4CF54CF5F5F5E2F5F5E2E2F54C4C4CF5E2F5F5F5E2F5F5E2E2F5E2E2F54C4CF5
310
F5E2F5F5E2E2F54C4CF54CE2F5F5E2E2F5E2E2F54C4CF5F54CF5F5E2E2E2F5E2F54C4CF54CE2F5F5E2F5F5F5E2E2F54C4CF54CF5F5F5E2F5F5E2E2F54C4CF54CE2F5F5E2F5F54CF5F5F5F5F5F5F5F5F5F5F5F5F5F5E2F5F5F5F5F5F5F5F5F5F5F5E2E2E2F5F5F5F5F5F5F5F5F5F5F5E2F5F5F5F5F5F5F5F5F5F5F5F5F5F54C
310
F5F5F5F5F5F5F5F5F5F5F5F5F5F54CF5E2E2F5F5F5F5F5F5F5F5F5E2F5F5E2E2F5F5F5F5F5F5F5F5F5E2F5F5E2E2F5F5F5F5F5F5F5F5E2F5F5E2E2F5F5F5F5F5F5F5F5E2E2F5E2E2F5F5F5F5F5F5F5F5E2E2E2F5E2F5F5F5F5F5F5F5F5E2F5F5F5E2E2F5F5F5F5F5F5F5F5E2F5F5E2E2F5F5F5F5F5F5F5F5E2F5F54CF5F5F5
310
F5F5F5F5F5F5F5F5F5F5F5E2F5F5F5F5F5F5F5F5F5F5F5E2E2E2F5F5F5F5F5F5F5F5F5F5F5E2F5F5F5F5F5F5F5F5F5F5F5F5F5F54CF5F5F5F5F5F5F5F5F5F5F5F5F5F54CF5E2E2F5F5F5F5F5F5F5F5F5E2F5F5E2E2F5F5F5F5F5F5F5F5F5E2F5F5E2E2F5F5F5F5F5F5F5F5E2F5F5E2E2F5F5F5F5F5F5F5F5E2E2F5E2E2F5F5
310
F5F5F5F5F5F5E2E2E2F5E2F5F5F5F5F5F5F5F5E2F5F5F5E2E2F5F5F5F5F5F5F5F5E2F5F5E2E2F5F5F5F5F5F5F5F5E2F5F54CF5F5F5F5F5F5F5F5F5F5F5F5F5F5E2F5F5F5F5F5F5F5F5F5F5F5E2E2E2F5F5F5F5F5F5F5F5F5F5F5F5F5F5F5F5F5F5F5F5F5F5F5F5F5F54CF5F5F5F5F5F5F5F5F5F5F5F5F5F54CF5E2E2F5F5F5
310
F5E2E2E2E2E2E2F5F5E2E2F5F5F5F5E2E2E2E2E2E2F5F5E2E2F5F5F5F5E2E2E2E2E2F5F5E2E2F5F5F5F5E2E2E2E2E2E2F5E2E2F5F5F5F5E2E2E2E2E2E2E2F5E2F5F5F5F5E2E2E2E2E2F5F5F5E2E2F5F5F5F5E2E2E2E2E2F5F5E2E2F5F5F5F5E2E2E2E2E2F5F54CF5F5F5F5F5F5F5F5F5F5F5F5F5F5F5F5F5F5F5F5F5F5F5F5
310
F5F5E2E2E2F5F5F5F5F5F5F5F5F5F5F5F5F5F5F5F5F5F5F5F5F5F5F5F5F5F54CF5F5F5F5F5F5F5F5F5F5F5F5F5F54CF5E2E2E2E2E2E2E2E2E2E2E2E2F5F5E2E2E2E2E2E2E2E2E2E2E2E2F5F5E2E2E2E2E2E2E2E2E2E2E2F5F5E2E2E2E2E2E2E2E2E2E2E2E2F5E2E2E2E2E2E2E2E2E2E2E2E2E2F5E2E2E2E2E2E2E2E2E2E2F5
310
F5F5E2E2E2E2E2E2E2E2E2E2E2F5F5E2E2E2E2E2E2E2E2E2E2E2F5F54CF5F5F5F5F5F5F5F5F5F5F5F5F5F5F5F5F5F5F5F5F5F5F5F5F5F5E2E2E2F5F5F5F5F5F5F5F5F5F5F5F5F5F5F5F5F5F5F5F5F5F5F5F5F5F54CF5F5F5F5F5F5F5F5F5F5F5F5F5F54CF5E2E2E2E2E2E2E2E2E2E2E2E2F5F5E2E2E2E2E2E2E2E2E2E2E2E2
310
F5F5E2E2E2E2E2E2E2E2E2E2E2F5F5E2E2E2E2E2E2E2E2E2E2E2E2F5E2E2E2E2E2E2E2E2E2E2E2E2E2E2E2E2E2E2E2E2E2E2E2E2F5F5F5E2E2E2E2E2E2E2E2E2E2E2F5F5E2E2E2E2E2E2E2E2E2E2E2F5F54CF5F5F5F5F5F5F5F5F5F5F5F5F5F5F5F5F5F5F5F5F5F5F5F5F5F5E2E2E2F5F5F5F5F5F5F5F5F5F5F5F5F5F5F5F5
310
F5F5F5F5F5F5F5F5F5F54CF5F5F5F5F5F5F5F5F5F5F5F5F5F54CF5F5F5F5F5F5F5F5F5F5F5F5F5F5F5F5F5F5F5F5F5F5F5F5F5F5F5F5F5F5F5F5F5F5F5F5F5F5F5F5F5F5F5F5F5F5F5F5F5F5F5F5F5F5F5F5F5F5F5F5F5F5F5F5F5F5F5F5F5F5F5F5F5F5F5F5F5F5F5F5F5F5F5F5F5F5F5F5F5F5F5F5F5F5F5F5F5F5F5F5F5
310
F5F5F5F5F5F5F54CF5F5F5F5F5F5F5F5F5F5F5F5F5F5F5F5F5F5F5F5F5F5F5F5F5F5E2E2E2F5F5F5F5F5F5F5F5F5F5F5F5F5F5F5F5F5F5F5F5F5F5F5F5F5F54C4C4C4C4C4C4C4C4C4C4C4C4C4C4C4C4C4C4C4C4C4C4C4C4C4C4C4C4C4C4C4C4C4C4C4C4C4C4C4C4C4C4C4C4C4C4C4C4C4C4C4C4C4C4C4C4C4C4C4C4C4C4C4C
310
4C4C4C4C4C4C4C4C4C4C4C4C4C4C4C4C4C4C4C4C4C4C4C4C4C4C4C4C4C4C4C4C4C4C4C4C4C4C4C4C4C4C4C4C4C4C4C4C4C4C4C4C4C4C4C4C4C4C4C4C4CF5F5F5F5F5F5F5F5F5F5F5F5F5F5F5F5F5F5F5F5F5F5F5F5F5F5E2E2E2F5F5F5F5F5F5F5F5F5F5F5F5F5F5F5F5F5F5F5F5F5F5F5F5F5F5F5F5F5F5F5F5F5F5F5F5F5
310
F5F5F5F5F5F5F5F5F5F5F5F5F5F5F5F5F5F5F5F5F5F5F5F5F5F5F5F5F5F5F5F5F5F5F5F5F5F5F5F5F5F5F5F5F5F5F5F5F5F5F5F5F5F5F5F5F5F5F5F5F5F5F5F5F5F5F5F5F5F5F5F5F5F5F5F5F5F5F5F5F5F5F5F5F5F5F5F5F5F5F5F5F5F5F5F5F5F5F5F5F5F5F5F5F5F5F5F5F5F5F5F5F5F5F5F5F5F5F5F5F5F5F5F5F5F5F5
310
F5F5F5F5F5F5F5F5F5F5F5F5F5E2E2E2F5F5F5F5F5F5F5F5F5F5F5F5F5F5F5F5F5F5F5F5F5F5F5F5F5F5F5F5F5F5F5F5F5F5F5F5F5F5F5F5F5F5F5F5F5F5F5F5F5F5F5F5F5F5F5F5F5F5F5F5F5F5F5F5F5F5F5F5F5F5F5F5F5F5F5F5F5F5F5F5F5F5F5F5F5F5F5F5F5F5F5F5F5F5F5F5F5F5F5F5F5F5F5F5F5F5F5F5F5F5F5
310
F5F5F5F5F5F5F5F5F5F5F5F5F5F5F5F5F5F5F5F5F5F5F5F5F5F5F5F5F5F5F5F5F5F5F5F5F5F5F5F5F5F5F5F5F5F5F5F5F5F5F5F5F5F5F5F5F5F5F5F5F5F5F5F5F5F5E2E2E2F5F5F5F5F5F5F5F5F5F5F5F5F5F5F5F5F5F5F5F5F5F5F5F5F5F5F5F5F5F5F5F5F5F5F5F5F5F5F5F5F5F5F5F5F5F5F5F5F5F5F5F5F5F5F5F5F5F5
310
F5F5F5F5F5F5F5F5F5F5F5F5F5F5F5F5F5F5F5F5F5F5F5F5F5F5F5F5F5F5F5F5F5F5F5F5F5F5F5F5F5F5F5F5F5F5F5F5F5F5F5F5F5F5F5F5F5F5F5F5F5F5F5F5F5F5F5F5F5F5F5F5F5F5F5F5F5F5F5F5F5F5F5F5F5F5F5F5F5F5F5F5F5F5F5F5F5F5F5F5F5F5F5F5F5F5F5F5F5F5F5F5F5F5F5F5F5F5F5E2E2E2F5F5F5F5F5
310
F5F5F5F5F5F5E2F5F5F5F5F5F5F5F5F5F5F5F5F5F5F5F5F5F5F5F5F5F5F5F5F5F5F5F5F5F5F5F5F5F5F5F5F5F5F5F5F5F5F5F5F5F5F5F5F5F5F5F5F5F5F5F5F5F5F5F5F5F5F5F5F5F5F5F5F5F5F5F5F5F5F5F5F5F5F5F5F5F5F5F5F5F5F5F5F5F5F5F5F5F5F5F5F5F5F5F5F5F5F5F5F5F5F5F5F5F5F5F5F5F5F5F5F5F5F5F5
310
F5F5F5F5F5F5F5F5F5F5F5F5F5F5F5F5F5F5F5F5F5F5F5F5F5F5F5F5F5F5F5F5F5E2F5F5F5F5F5F5F5F5F5F5F5E2E2E2F5F5F5F5F5F5F5F5F5F5F5E2F5F5F5F5F5F5F5F5F5F5F5F5F5F5F5F5F5F5F5F5F5F5F5F5F5F5F5F5F5F5F5F5F5F5F5F5F5F5F5F5F5F5F5F5F5F5F5F5F5F5F5F5F5F5F5F5F5F5F5F5F5F5F5F5F5F5F5
310
F5F5F5F5F5F5F5F5F5F5F5F5F5F5F5F5F5F5F5F5F5F5F5F5F5F5F5F5F5F5F5F5F5F5F5F5F5F5F5F5F5F5F5F5F5F5F5F5F5F5F5F5F5F5F5F5F5F5F5F5F5F5F5F5F5F5F5F5F5F5F5F5F5F5F5F5F5F5F5F5F5F5F5F5F5F5E2F5F5F5F5F5F5F5F5F5F5F5E2E2E2F5F5F5F5F5F5F5F5F5F5F5E2F5F5F5F5F5F5F5F5F5F5F5F5F5F5
310
F5F5F5F5F5F5F5F5F5F5F5F5F5F5F5F5F5F5F5F5F5F5F5F5F5F5F5F5F5F5F5F5F5F5F5F5F5F5F5F5F5F5F5F5F5F5F5F5F5F5F5F5F5F5F5F5F5F5F5F5F5F5F5F5F5F5F5F5F5F5F5F5F5F5F5F5F5F5F5F5F5F5F5F5F5F5F5F5F5F5F5F5F5F5F5F5F5F5F5F5F5F5F5F5F5F5F5F5F5F5F5F5F5F5F5F5F5F5F5F5F5F5F5F5F5F5F5
310
F5F5F5F5F5F5F5F5F5F5F5F5E2F5F5F5F5F5F5F5F5F5F5F5E2E2E2F5F5F5F5F5F5F5F5F5F5F5E2F5F5F5F5F5F5F5F5F5F5F5F5F5F5F5F5F5F5F5F5F5F5F5F5F5F5F5F5F5F5F5F5F5F5F5F5F5F5F5F5F5F5F5F5F5F5F5F5F5F5F5F5F5F5F5F5F5F5F5F5F5F5F5F5F5F5F5F5F5F5F5F5F5F5F5F5F5F5F5F5F5F5F5F5F5F5F5F5
310
F5F5F5F5F5F5F5F5F5F5F5F5F5F5F5F5F5F5F5F5F5F5F5F5F5F5F5F5F5F5F5F5F5F5F5F5F5F5F5F5F5F5F5F5F5F5F5F5F5F5F5F5F5F5F5F5F5F5F5F5F5F5F5F5F5E2F5F5F5F5F5F5F5F5F5F5F5E2E2E2F5F5F5F5F5F5F5F5F5F5F5E2F5F5F5F5F5F5F5F5F5F5F5F5F5F5F5F5F5F5F5F5F5F5F5F5F5F5F5F5F5F5F5F5F5F5F5
310
F5F5F5F5F5F5F5F5F5F5F5F5F5F5F5F5F5F5F5F5F5F5F5F5F5F5F5F5F5F5F5F5F5F5F5F5F5F5F5F5F5F5F5F5F5F5F5F5F5F5F5F5F5F5F5F5F5F5F5F5F5F5F5F5F5F5F5F5F5F5F5F5F5F5F5F5F5F5F5F5F5F5F5F5F5F5F5F5F5F5F5F5F5F5F5F5F5F5F5F5F5F5F5F5F5F5F5F5F5F5F5F5F5F5F5F5F5F5E2F5F5F5F5F5F5F5F5
310
F5F5F5E2E2E2F5F5F5F5F5F5F5F5F5F5F5E2F5F5F5F5F5F5F5F5F5F5F5F5F5F5F5F5F5F5F5F5F5F5F5F5F5F5F5F5F5F5F5F5F5F5F5F5F5F5F5F5F5F5F5F5F5F5F5F5F5F5F5F5F5F5F5F5F5F5F5F5F5F5F5F5F5F5F5F5F5F5F5F5F5F5F5F5F5F5F5F5F5F5F5F5F5F5F5F5F5F5F5F5F5F5F5F5F5F5F5F5F5F5F5F5F5F5F5F5F5
310
F5F5F5F5F5F5F5F5F5F5F5F5F5F5F5F5F5F5F5F5F5F5F5F5F5F5F5F5F5F5F5F5F5F5F5F5F5F5F5F5F5F5F5F5E2F5F5F5F5F5F5F5F5F5F5F5E2E2E2F5F5F5F5F5F5F5F5F5F5F5E2F5F5F5F5F5F5F5F5F5F5F5F5F5F5F5F5F5F5F5F5F5F5F5F5F5F5F5F5F5F5F5F5F5F5F5F5F5F5F5F5F5F5F5F5F5F5F5F5F5F5F5F5F5F5F5F5
310
F5F5F5F5F5F5F5F5F5F5F5F5F5F5F5F5F5F5F5F5F5F5F5F5F5F5F5F5F5F5F5F5F5F5F5F5F5F5F5F5F5F5F5F5F5F5F5F5F5F5F5F5F5F5F5F5F5F5F5F5F5F5F5F5F5F5F5F5F5F5F5F5F5F5F5F5F5F5F5F5F5F5F5F5F5F5F5F5F5F5F5F5F5F5F5F5F5E2F5F5F5F5F5F5F5F5F5F5F5E2E2E2F5F5F5F5F5F5F5F5F5F5F5E2E2E2E2
310
E2E2E2E2E2F5F5F5F5F5F5F5F5F5E2E2E2E2E2E2E2E2E2E2E2E2E2E2E2E2F5F5F5F5F5F5F5F5F5F5E2E2E2E2E2E2E2E2E2E2E2E2E2E2E2E2F5F5F5F5F5F5F5F5F5E2E2E2E2E2E2E2E2E2E2E2E2E2E2E2E2E2F5F5F5F5F5F5F5F5F5E2E2E2E2E2E2E2E2E2E2E2E2E2E2E2E2F5F5F5F5F5F5F5F5F5F5E2E2E2E2E2E2E2E2E2E2
310
E2E2E2E2E2E2F5F5F5F5F5F5F5F5F5E2E2E2E2E2E2E2E2E2F5F5F5F5F5F5F5F5F5F5F5E2E2E2F5F5F5F5F5F5F5F5F5F5F5F5F5F5F5F5F5F5F5F5F5F5F5F5F5F5F5F5F5F5F5F5F5F5F5F5F5F5F5F5F5F5F5F5F5F5F5F5F5F5F5F5F5F5F5F5F5F5F5F5F5F5F5F5F5F5F5F5F5F5F5F5F5F5F5F5F5F5F5F5F5F5F5F5F5F5F5F5F5
310
F5F5F5F5F5F5F5F5F5F5F5F5F5F5F5F5F5F5F5F5F5F5F5F5F5F5F5F5F5F5F5F5F5F5F5F5F5F5F5F5F5F5F5F5F5F5F5F5F5F5F5F5F5F5F5F5F5F5F5F5F5F5F5F5F5F5F5F5F5F5F5F5F5F5F5F5F5F5F5F5F5F5F5F5F5F5F5F5E2E2E2F5F5F5F5F5F5F5F5F5F5F5F5F5F5F5F5F5F5F5F5F5F5F5F5F5F5F5F5F5F5F5F5F5F5F5F5
310
F5F5F5F5F5F5F5F5F5F5F5F5F5F5F5F5F5F5F5F5F5F5F5F5F5F5F5F5F5F5F5F5F5F5F5F5F5F5F5F5F5F5F5F5F5F5F5F5F5F5F5F5F5F5F5F5F5F5F5F5F5F5F5F5F5F5F5F5F5F5F5F5F5F5F5F5F5F5F5F5F5F5F5F5F5F5F5F5F5F5F5F5F5F5F5F5F5F5F5F5F5F5F5F5F5F5F5F5F5F5F5F5F5F5F5F5F5F5F5F5F5F5F5F5F5F5F5
310
F5F5F5F5F5F5F5F5F5F5F5F5F5F5E2E2E2F5F5F5F5F5F5F5F5F5F5F5F5F5F5F5F5F5F5F5F5F5F5F5F5F5F5F5F5F5F5F5F5F5F5F5F5F5F5F5F5F5F5F5F5F5F5F5F5F5F5F5F5F5F5F5F5F5F5F5F5F5F5F5F5F5F5F5F5F5F5F5F5F5F5F5F5F5F5F5F5F5F5F5F5F5F5F5F5F5F5F5F5F5F5F5F5F5F5F5F5F5F5F5F5F5F5F5F5F5F5
310
F5F5F5F5F5F5F5F5F5F5F5F5F5F5F5F5F5F5F5F5F5F5F5F5F5F5F5F5F5F5F5F5F5F5F5F5F5F5F5F5F5F5F5F5F5F5F5F5F5F5F5F5F5F5F5F5F5F5F5F5F5F5F5F5F5F5F5E2E2E2F5F5F5F5F5F5F5F5F5F5F5F5F5F5F5F5F5F5F5F5F5F5F5F5F5F5F5F5F5F5F5F5F5F5F5F5F5F5F5F5F5F5F5F5F5F5F5F5F5F5F5F5F5F5F5F5F5
310
F5F5F5F5F5F5F5F5F5F5F5F5F5F5F5F5F5F5F5F5F5F5F5F5F5F5F5F5F5F5F5F5F5F5F5F5F5F5F5F5F5F5F5F5F5F5F5F5F5F5F5F5F5F5F5F5F5F5F5F5F5F5F5F5F5F5F5F5F5F5F5F5F5F5F5F5F5F5F5F5F5F5F5F5F5F5F5F5F5F5F5F5F5F5F5F5F5F5F5F5F5F5F5F5F5F5F5F5F5F5F5F5F5F5F5F5F5F5F5F5E2EFE2E2E2E2E2
310
E2E2E2E2E2E2E2E2E2E2E2E2E2E2E2E2E2E2E2E2E2E2E2E2E2E2E2E2E2E2E2E2E2E2E2E2E2E2E2E2E2E2E2E2E2E2E2E2E2E2E2E2E2E2E2E2E2E2E2E2E2E2E2E2E2E2E2E2E2E2E2E2E2E2E2E2E2E2E2E2E2E2E2E2E2E2E2E2E2E2E2E2E2E2E2E2E2E2E2E2E2E2E2E2E2E2E2E2E2E2E2E2E2E2E2E2E2E2E2E2E2E2E2E2E2E2E2
310
E2E2E2E2E2E2E2E2E2E2E2E2E2E2E2E2E2E2E2E2E2E2E2E2E2E2E2E2E2E2E2E2E2E2E2E2E2E2E2E2E2E2E2E2E2E2E2EF
  0
CELLSTYLEMAP
  5
D02
102
{ACAD_REACTORS
330
41
102
}
330
41
100
AcDbCellStyleMap
 90
        3
300
CELLSTYLE
  1
TABLEFORMAT_BEGIN
 90
        5
170
     1
 91
        0
 92
        0
 62
   257
 93
        1
300
CONTENTFORMAT
  1
CONTENTFORMAT_BEGIN
 90
        0
 91
        0
 92
        4
 93
        0
300

 40
0.0
140
1.0
 94
        5
 62
     0
340
20
144
6.0
309
CONTENTFORMAT_END
171
     1
301
MARGIN
  1
CELLMARGIN_BEGIN
 40
1.5
 40
1.5
 40
1.5
 40
1.5
 40
4.5
 40
4.5
309
CELLMARGIN_END
 94
        6
 95
        1
302
GRIDFORMAT
  1
GRIDFORMAT_BEGIN
 90
        0
 91
        1
 62
     0
 92
       -2
340
0
 93
        0
 40
0.045
309
GRIDFORMAT_END
 95
        2
302
GRIDFORMAT
  1
GRIDFORMAT_BEGIN
 90
        0
 91
        1
 62
     0
 92
       -2
340
0
 93
        0
 40
0.045
309
GRIDFORMAT_END
 95
        4
302
GRIDFORMAT
  1
GRIDFORMAT_BEGIN
 90
        0
 91
        1
 62
     0
 92
       -2
340
0
 93
        0
 40
0.045
309
GRIDFORMAT_END
 95
        8
302
GRIDFORMAT
  1
GRIDFORMAT_BEGIN
 90
        0
 91
        1
 62
     0
 92
       -2
340
0
 93
        0
 40
0.045
309
GRIDFORMAT_END
 95
       16
302
GRIDFORMAT
  1
GRIDFORMAT_BEGIN
 90
        0
 91
        1
 62
     0
 92
       -2
340
0
 93
        0
 40
0.045
309
GRIDFORMAT_END
 95
       32
302
GRIDFORMAT
  1
GRIDFORMAT_BEGIN
 90
        0
 91
        1
 62
     0
 92
       -2
340
0
 93
        0
 40
0.045
309
GRIDFORMAT_END
309
TABLEFORMAT_END
  1
CELLSTYLE_BEGIN
 90
        1
 91
        1
300
_TITLE
309
CELLSTYLE_END
300
CELLSTYLE
  1
TABLEFORMAT_BEGIN
 90
        5
170
     1
 91
        0
 92
        0
 62
   257
 93
        1
300
CONTENTFORMAT
  1
CONTENTFORMAT_BEGIN
 90
        0
 91
        0
 92
        4
 93
        0
300

 40
0.0
140
1.0
 94
        5
 62
     0
340
20
144
4.5
309
CONTENTFORMAT_END
171
     1
301
MARGIN
  1
CELLMARGIN_BEGIN
 40
1.5
 40
1.5
 40
1.5
 40
1.5
 40
4.5
 40
4.5
309
CELLMARGIN_END
 94
        6
 95
        1
302
GRIDFORMAT
  1
GRIDFORMAT_BEGIN
 90
        0
 91
        1
 62
     0
 92
       -2
340
0
 93
        0
 40
0.045
309
GRIDFORMAT_END
 95
        2
302
GRIDFORMAT
  1
GRIDFORMAT_BEGIN
 90
        0
 91
        1
 62
     0
 92
       -2
340
0
 93
        0
 40
0.045
309
GRIDFORMAT_END
 95
        4
302
GRIDFORMAT
  1
GRIDFORMAT_BEGIN
 90
        0
 91
        1
 62
     0
 92
       -2
340
0
 93
        0
 40
0.045
309
GRIDFORMAT_END
 95
        8
302
GRIDFORMAT
  1
GRIDFORMAT_BEGIN
 90
        0
 91
        1
 62
     0
 92
       -2
340
0
 93
        0
 40
0.045
309
GRIDFORMAT_END
 95
       16
302
GRIDFORMAT
  1
GRIDFORMAT_BEGIN
 90
        0
 91
        1
 62
     0
 92
       -2
340
0
 93
        0
 40
0.045
309
GRIDFORMAT_END
 95
       32
302
GRIDFORMAT
  1
GRIDFORMAT_BEGIN
 90
        0
 91
        1
 62
     0
 92
       -2
340
0
 93
        0
 40
0.045
309
GRIDFORMAT_END
309
TABLEFORMAT_END
  1
CELLSTYLE_BEGIN
 90
        2
 91
        1
300
_HEADER
309
CELLSTYLE_END
300
CELLSTYLE
  1
TABLEFORMAT_BEGIN
 90
        5
170
     1
 91
        0
 92
        0
 62
   257
 93
        1
300
CONTENTFORMAT
  1
CONTENTFORMAT_BEGIN
 90
        0
 91
        0
 92
        4
 93
        0
300

 40
0.0
140
1.0
 94
        2
 62
     0
340
20
144
4.5
309
CONTENTFORMAT_END
171
     1
301
MARGIN
  1
CELLMARGIN_BEGIN
 40
1.5
 40
1.5
 40
1.5
 40
1.5
 40
4.5
 40
4.5
309
CELLMARGIN_END
 94
        6
 95
        1
302
GRIDFORMAT
  1
GRIDFORMAT_BEGIN
 90
        0
 91
        1
 62
     0
 92
       -2
340
0
 93
        0
 40
0.045
309
GRIDFORMAT_END
 95
        2
302
GRIDFORMAT
  1
GRIDFORMAT_BEGIN
 90
        0
 91
        1
 62
     0
 92
       -2
340
0
 93
        0
 40
0.045
309
GRIDFORMAT_END
 95
        4
302
GRIDFORMAT
  1
GRIDFORMAT_BEGIN
 90
        0
 91
        1
 62
     0
 92
       -2
340
0
 93
        0
 40
0.045
309
GRIDFORMAT_END
 95
        8
302
GRIDFORMAT
  1
GRIDFORMAT_BEGIN
 90
        0
 91
        1
 62
     0
 92
       -2
340
0
 93
        0
 40
0.045
309
GRIDFORMAT_END
 95
       16
302
GRIDFORMAT
  1
GRIDFORMAT_BEGIN
 90
        0
 91
        1
 62
     0
 92
       -2
340
0
 93
        0
 40
0.045
309
GRIDFORMAT_END
 95
       32
302
GRIDFORMAT
  1
GRIDFORMAT_BEGIN
 90
        0
 91
        1
 62
     0
 92
       -2
340
0
 93
        0
 40
0.045
309
GRIDFORMAT_END
309
TABLEFORMAT_END
  1
CELLSTYLE_BEGIN
 90
        3
 91
        2
300
_DATA
309
CELLSTYLE_END
  0
XRECORD
  5
D01
102
{ACAD_REACTORS
330
41
102
}
330
41
100
AcDbXrecord
280
     1
102
ACAD_ROUNDTRIP_PRE2007_TABLESTYLE
 90
        4
 91
        0
  1

 92
        4
 93
        0
  2

 94
        4
 95
        0
  3

  0
XRECORD
  5
2C
102
{ACAD_REACTORS
330
2B
102
}
330
2B
100
AcDbXrecord
280
     1
102
RTVSPropertyOp0
 70
     1
102
RTVSPropertyOp1
 70
     1
102
RTVSPropertyOp2
 70
     1
102
RTVSPropertyOp3
 70
     1
102
RTVSPropertyOp4
 70
     1
102
RTVSPropertyOp5
 70
     1
102
RTVSPropertyOp6
 70
     1
102
RTVSPropertyOp7
 70
     1
102
RTVSPropertyOp8
 70
     1
102
RTVSPropertyOp9
 70
     1
102
RTVSPropertyOp10
 70
     1
102
RTVSPropertyOp11
 70
     1
102
RTVSPropertyOp12
 70
     1
102
RTVSPropertyOp13
 70
     1
102
RTVSPropertyOp14
 70
     1
102
RTVSPropertyOp15
 70
     1
102
RTVSPropertyOp16
 70
     1
102
RTVSPropertyOp17
 70
     1
102
RTVSPropertyOp18
 70
     1
102
RTVSPropertyOp19
 70
     1
102
RTVSPropertyOp20
 70
     1
102
RTVSPropertyOp21
 70
     1
102
RTVSPropertyOp22
 70
     1
102
RTVSPropertyOp23
 70
     1
102
RTVSPropertyOp24
 70
     1
102
RTVSPropertyOp25
 70
     1
102
RTVSPropertyOp26
 70
     1
102
RTVSPropertyOp27
 70
     1
  0
XRECORD
  5
D0F
102
{ACAD_REACTORS
330
D0E
102
}
330
D0E
100
AcDbXrecord
280
     1
102
RTVSPropertyOp0
 70
     1
102
RTVSPropertyOp1
 70
     1
102
RTVSPropertyOp2
 70
     1
102
RTVSPropertyOp3
 70
     1
102
RTVSPropertyOp4
 70
     1
102
RTVSPropertyOp5
 70
     1
102
RTVSPropertyOp6
 70
     1
102
RTVSPropertyOp7
 70
     1
102
RTVSPropertyOp8
 70
     1
102
RTVSPropertyOp9
 70
     1
102
RTVSPropertyOp10
 70
     1
102
RTVSPropertyOp11
 70
     1
102
RTVSPropertyOp12
 70
     1
102
RTVSPropertyOp13
 70
     1
102
RTVSPropertyOp14
 70
     1
102
RTVSPropertyOp15
 70
     1
102
RTVSPropertyOp16
 70
     1
102
RTVSPropertyOp17
 70
     1
102
RTVSPropertyOp18
 70
     1
102
RTVSPropertyOp19
 70
     1
102
RTVSPropertyOp20
 70
     1
102
RTVSPropertyOp21
 70
     1
102
RTVSPropertyOp22
 70
     1
102
RTVSPropertyOp23
 70
     1
102
RTVSPropertyOp24
 70
     1
102
RTVSPropertyOp25
 70
     1
102
RTVSPropertyOp26
 70
     1
102
RTVSPropertyOp27
 70
     1
  0
XRECORD
  5
48
102
{ACAD_REACTORS
330
47
102
}
330
47
100
AcDbXrecord
280
     1
102
RTVSPropertyOp0
 70
     1
102
RTVSPropertyOp1
 70
     1
102
RTVSPropertyOp2
 70
     1
102
RTVSPropertyOp3
 70
     1
102
RTVSPropertyOp4
 70
     1
102
RTVSPropertyOp5
 70
     1
102
RTVSPropertyOp6
 70
     1
102
RTVSPropertyOp7
 70
     1
102
RTVSPropertyOp8
 70
     1
102
RTVSPropertyOp9
 70
     1
102
RTVSPropertyOp10
 70
     1
102
RTVSPropertyOp11
 70
     1
102
RTVSPropertyOp12
 70
     1
102
RTVSPropertyOp13
 70
     1
102
RTVSPropertyOp14
 70
     1
102
RTVSPropertyOp15
 70
     1
102
RTVSPropertyOp16
 70
     1
102
RTVSPropertyOp17
 70
     1
102
RTVSPropertyOp18
 70
     1
102
RTVSPropertyOp19
 70
     1
102
RTVSPropertyOp20
 70
     1
102
RTVSPropertyOp21
 70
     1
102
RTVSPropertyOp22
 70
     1
102
RTVSPropertyOp23
 70
     1
102
RTVSPropertyOp24
 70
     1
102
RTVSPropertyOp25
 70
     1
102
RTVSPropertyOp26
 70
     1
102
RTVSPropertyOp27
 70
     1
  0
XRECORD
  5
D0D
102
{ACAD_REACTORS
330
D0C
102
}
330
D0C
100
AcDbXrecord
280
     1
102
RTVSPropertyOp0
 70
     1
102
RTVSPropertyOp1
 70
     1
102
RTVSPropertyOp2
 70
     1
102
RTVSPropertyOp3
 70
     1
102
RTVSPropertyOp4
 70
     1
102
RTVSPropertyOp5
 70
     1
102
RTVSPropertyOp6
 70
     1
102
RTVSPropertyOp7
 70
     1
102
RTVSPropertyOp8
 70
     1
102
RTVSPropertyOp9
 70
     1
102
RTVSPropertyOp10
 70
     1
102
RTVSPropertyOp11
 70
     1
102
RTVSPropertyOp12
 70
     1
102
RTVSPropertyOp13
 70
     1
102
RTVSPropertyOp14
 70
     1
102
RTVSPropertyOp15
 70
     1
102
RTVSPropertyOp16
 70
     1
102
RTVSPropertyOp17
 70
     1
102
RTVSPropertyOp18
 70
     1
102
RTVSPropertyOp19
 70
     1
102
RTVSPropertyOp20
 70
     1
102
RTVSPropertyOp21
 70
     1
102
RTVSPropertyOp22
 70
     1
102
RTVSPropertyOp23
 70
     1
102
RTVSPropertyOp24
 70
     1
102
RTVSPropertyOp25
 70
     1
102
RTVSPropertyOp26
 70
     1
102
RTVSPropertyOp27
 70
     1
  0
XRECORD
  5
D15
102
{ACAD_REACTORS
330
D14
102
}
330
D14
100
AcDbXrecord
280
     1
102
RTVSPropertyOp0
 70
     1
102
RTVSPropertyOp1
 70
     1
102
RTVSPropertyOp2
 70
     1
102
RTVSPropertyOp3
 70
     1
102
RTVSPropertyOp4
 70
     1
102
RTVSPropertyOp5
 70
     1
102
RTVSPropertyOp6
 70
     1
102
RTVSPropertyOp7
 70
     1
102
RTVSPropertyOp8
 70
     1
102
RTVSPropertyOp9
 70
     1
102
RTVSPropertyOp10
 70
     1
102
RTVSPropertyOp11
 70
     1
102
RTVSPropertyOp12
 70
     1
102
RTVSPropertyOp13
 70
     1
102
RTVSPropertyOp14
 70
     1
102
RTVSPropertyOp15
 70
     1
102
RTVSPropertyOp16
 70
     1
102
RTVSPropertyOp17
 70
     1
102
RTVSPropertyOp18
 70
     1
102
RTVSPropertyOp19
 70
     1
102
RTVSPropertyOp20
 70
     1
102
RTVSPropertyOp21
 70
     1
102
RTVSPropertyOp22
 70
     1
102
RTVSPropertyOp23
 70
     1
102
RTVSPropertyOp24
 70
     1
102
RTVSPropertyOp25
 70
     1
102
RTVSPropertyOp26
 70
     1
102
RTVSPropertyOp27
 70
     1
  0
XRECORD
  5
D1D
102
{ACAD_REACTORS
330
D1C
102
}
330
D1C
100
AcDbXrecord
280
     1
102
RTVSPropertyOp0
 70
     1
102
RTVSPropertyOp1
 70
     1
102
RTVSPropertyOp2
 70
     1
102
RTVSPropertyOp3
 70
     1
102
RTVSPropertyOp4
 70
     1
102
RTVSPropertyOp5
 70
     1
102
RTVSPropertyOp6
 70
     1
102
RTVSPropertyOp7
 70
     1
102
RTVSPropertyOp8
 70
     1
102
RTVSPropertyOp9
 70
     1
102
RTVSPropertyOp10
 70
     1
102
RTVSPropertyOp11
 70
     1
102
RTVSPropertyOp12
 70
     1
102
RTVSPropertyOp13
 70
     1
102
RTVSPropertyOp14
 70
     1
102
RTVSPropertyOp15
 70
     1
102
RTVSPropertyOp16
 70
     1
102
RTVSPropertyOp17
 70
     1
102
RTVSPropertyOp18
 70
     1
102
RTVSPropertyOp19
 70
     1
102
RTVSPropertyOp20
 70
     1
102
RTVSPropertyOp21
 70
     1
102
RTVSPropertyOp22
 70
     1
102
RTVSPropertyOp23
 70
     1
102
RTVSPropertyOp24
 70
     1
102
RTVSPropertyOp25
 70
     1
102
RTVSPropertyOp26
 70
     1
102
RTVSPropertyOp27
 70
     1
  0
XRECORD
  5
D11
102
{ACAD_REACTORS
330
D10
102
}
330
D10
100
AcDbXrecord
280
     1
102
RTVSPropertyOp0
 70
     1
102
RTVSPropertyOp1
 70
     1
102
RTVSPropertyOp2
 70
     1
102
RTVSPropertyOp3
 70
     1
102
RTVSPropertyOp4
 70
     1
102
RTVSPropertyOp5
 70
     1
102
RTVSPropertyOp6
 70
     1
102
RTVSPropertyOp7
 70
     1
102
RTVSPropertyOp8
 70
     1
102
RTVSPropertyOp9
 70
     1
102
RTVSPropertyOp10
 70
     1
102
RTVSPropertyOp11
 70
     1
102
RTVSPropertyOp12
 70
     1
102
RTVSPropertyOp13
 70
     1
102
RTVSPropertyOp14
 70
     1
102
RTVSPropertyOp15
 70
     1
102
RTVSPropertyOp16
 70
     1
102
RTVSPropertyOp17
 70
     1
102
RTVSPropertyOp18
 70
     1
102
RTVSPropertyOp19
 70
     1
102
RTVSPropertyOp20
 70
     1
102
RTVSPropertyOp21
 70
     1
102
RTVSPropertyOp22
 70
     1
102
RTVSPropertyOp23
 70
     1
102
RTVSPropertyOp24
 70
     1
102
RTVSPropertyOp25
 70
     1
102
RTVSPropertyOp26
 70
     1
102
RTVSPropertyOp27
 70
     1
  0
XRECORD
  5
D13
102
{ACAD_REACTORS
330
D12
102
}
330
D12
100
AcDbXrecord
280
     1
102
RTVSPropertyOp0
 70
     1
102
RTVSPropertyOp1
 70
     1
102
RTVSPropertyOp2
 70
     1
102
RTVSPropertyOp3
 70
     1
102
RTVSPropertyOp4
 70
     1
102
RTVSPropertyOp5
 70
     1
102
RTVSPropertyOp6
 70
     1
102
RTVSPropertyOp7
 70
     1
102
RTVSPropertyOp8
 70
     1
102
RTVSPropertyOp9
 70
     1
102
RTVSPropertyOp10
 70
     1
102
RTVSPropertyOp11
 70
     1
102
RTVSPropertyOp12
 70
     1
102
RTVSPropertyOp13
 70
     1
102
RTVSPropertyOp14
 70
     1
102
RTVSPropertyOp15
 70
     1
102
RTVSPropertyOp16
 70
     1
102
RTVSPropertyOp17
 70
     1
102
RTVSPropertyOp18
 70
     1
102
RTVSPropertyOp19
 70
     1
102
RTVSPropertyOp20
 70
     1
102
RTVSPropertyOp21
 70
     1
102
RTVSPropertyOp22
 70
     1
102
RTVSPropertyOp23
 70
     1
102
RTVSPropertyOp24
 70
     1
102
RTVSPropertyOp25
 70
     1
102
RTVSPropertyOp26
 70
     1
102
RTVSPropertyOp27
 70
     1
  0
XRECORD
  5
D1B
102
{ACAD_REACTORS
330
D1A
102
}
330
D1A
100
AcDbXrecord
280
     1
102
RTVSPropertyOp0
 70
     1
102
RTVSPropertyOp1
 70
     1
102
RTVSPropertyOp2
 70
     1
102
RTVSPropertyOp3
 70
     1
102
RTVSPropertyOp4
 70
     1
102
RTVSPropertyOp5
 70
     1
102
RTVSPropertyOp6
 70
     1
102
RTVSPropertyOp7
 70
     1
102
RTVSPropertyOp8
 70
     1
102
RTVSPropertyOp9
 70
     1
102
RTVSPropertyOp10
 70
     1
102
RTVSPropertyOp11
 70
     1
102
RTVSPropertyOp12
 70
     1
102
RTVSPropertyOp13
 70
     1
102
RTVSPropertyOp14
 70
     1
102
RTVSPropertyOp15
 70
     1
102
RTVSPropertyOp16
 70
     1
102
RTVSPropertyOp17
 70
     1
102
RTVSPropertyOp18
 70
     1
102
RTVSPropertyOp19
 70
     1
102
RTVSPropertyOp20
 70
     1
102
RTVSPropertyOp21
 70
     1
102
RTVSPropertyOp22
 70
     1
102
RTVSPropertyOp23
 70
     1
102
RTVSPropertyOp24
 70
     1
102
RTVSPropertyOp25
 70
     1
102
RTVSPropertyOp26
 70
     1
102
RTVSPropertyOp27
 70
     1
  0
XRECORD
  5
D05
102
{ACAD_REACTORS
330
D04
102
}
330
D04
100
AcDbXrecord
280
     1
102
RTVSPropertyOp0
 70
     1
102
RTVSPropertyOp1
 70
     1
102
RTVSPropertyOp2
 70
     1
102
RTVSPropertyOp3
 70
     1
102
RTVSPropertyOp4
 70
     1
102
RTVSPropertyOp5
 70
     1
102
RTVSPropertyOp6
 70
     1
102
RTVSPropertyOp7
 70
     1
102
RTVSPropertyOp8
 70
     1
102
RTVSPropertyOp9
 70
     1
102
RTVSPropertyOp10
 70
     1
102
RTVSPropertyOp11
 70
     1
102
RTVSPropertyOp12
 70
     1
102
RTVSPropertyOp13
 70
     1
102
RTVSPropertyOp14
 70
     1
102
RTVSPropertyOp15
 70
     1
102
RTVSPropertyOp16
 70
     1
102
RTVSPropertyOp17
 70
     1
102
RTVSPropertyOp18
 70
     1
102
RTVSPropertyOp19
 70
     1
102
RTVSPropertyOp20
 70
     1
102
RTVSPropertyOp21
 70
     1
102
RTVSPropertyOp22
 70
     1
102
RTVSPropertyOp23
 70
     1
102
RTVSPropertyOp24
 70
     1
102
RTVSPropertyOp25
 70
     1
102
RTVSPropertyOp26
 70
     1
102
RTVSPropertyOp27
 70
     1
  0
XRECORD
  5
D07
102
{ACAD_REACTORS
330
D06
102
}
330
D06
100
AcDbXrecord
280
     1
102
RTVSPropertyOp0
 70
     1
102
RTVSPropertyOp1
 70
     1
102
RTVSPropertyOp2
 70
     1
102
RTVSPropertyOp3
 70
     1
102
RTVSPropertyOp4
 70
     1
102
RTVSPropertyOp5
 70
     1
102
RTVSPropertyOp6
 70
     1
102
RTVSPropertyOp7
 70
     1
102
RTVSPropertyOp8
 70
     1
102
RTVSPropertyOp9
 70
     1
102
RTVSPropertyOp10
 70
     1
102
RTVSPropertyOp11
 70
     1
102
RTVSPropertyOp12
 70
     1
102
RTVSPropertyOp13
 70
     1
102
RTVSPropertyOp14
 70
     1
102
RTVSPropertyOp15
 70
     1
102
RTVSPropertyOp16
 70
     1
102
RTVSPropertyOp17
 70
     1
102
RTVSPropertyOp18
 70
     1
102
RTVSPropertyOp19
 70
     1
102
RTVSPropertyOp20
 70
     1
102
RTVSPropertyOp21
 70
     1
102
RTVSPropertyOp22
 70
     1
102
RTVSPropertyOp23
 70
     1
102
RTVSPropertyOp24
 70
     1
102
RTVSPropertyOp25
 70
     1
102
RTVSPropertyOp26
 70
     1
102
RTVSPropertyOp27
 70
     1
  0
XRECORD
  5
D09
102
{ACAD_REACTORS
330
D08
102
}
330
D08
100
AcDbXrecord
280
     1
102
RTVSPropertyOp0
 70
     1
102
RTVSPropertyOp1
 70
     1
102
RTVSPropertyOp2
 70
     1
102
RTVSPropertyOp3
 70
     1
102
RTVSPropertyOp4
 70
     1
102
RTVSPropertyOp5
 70
     1
102
RTVSPropertyOp6
 70
     1
102
RTVSPropertyOp7
 70
     1
102
RTVSPropertyOp8
 70
     1
102
RTVSPropertyOp9
 70
     1
102
RTVSPropertyOp10
 70
     1
102
RTVSPropertyOp11
 70
     1
102
RTVSPropertyOp12
 70
     1
102
RTVSPropertyOp13
 70
     1
102
RTVSPropertyOp14
 70
     1
102
RTVSPropertyOp15
 70
     1
102
RTVSPropertyOp16
 70
     1
102
RTVSPropertyOp17
 70
     1
102
RTVSPropertyOp18
 70
     1
102
RTVSPropertyOp19
 70
     1
102
RTVSPropertyOp20
 70
     1
102
RTVSPropertyOp21
 70
     1
102
RTVSPropertyOp22
 70
     1
102
RTVSPropertyOp23
 70
     1
102
RTVSPropertyOp24
 70
     1
102
RTVSPropertyOp25
 70
     1
102
RTVSPropertyOp26
 70
     1
102
RTVSPropertyOp27
 70
     1
  0
XRECORD
  5
D0B
102
{ACAD_REACTORS
330
D0A
102
}
330
D0A
100
AcDbXrecord
280
     1
102
RTVSPropertyOp0
 70
     1
102
RTVSPropertyOp1
 70
     1
102
RTVSPropertyOp2
 70
     1
102
RTVSPropertyOp3
 70
     1
102
RTVSPropertyOp4
 70
     1
102
RTVSPropertyOp5
 70
     1
102
RTVSPropertyOp6
 70
     1
102
RTVSPropertyOp7
 70
     1
102
RTVSPropertyOp8
 70
     1
102
RTVSPropertyOp9
 70
     1
102
RTVSPropertyOp10
 70
     1
102
RTVSPropertyOp11
 70
     1
102
RTVSPropertyOp12
 70
     1
102
RTVSPropertyOp13
 70
     1
102
RTVSPropertyOp14
 70
     1
102
RTVSPropertyOp15
 70
     1
102
RTVSPropertyOp16
 70
     1
102
RTVSPropertyOp17
 70
     1
102
RTVSPropertyOp18
 70
     1
102
RTVSPropertyOp19
 70
     1
102
RTVSPropertyOp20
 70
     1
102
RTVSPropertyOp21
 70
     1
102
RTVSPropertyOp22
 70
     1
102
RTVSPropertyOp23
 70
     1
102
RTVSPropertyOp24
 70
     1
102
RTVSPropertyOp25
 70
     1
102
RTVSPropertyOp26
 70
     1
102
RTVSPropertyOp27
 70
     1
  0
XRECORD
  5
D19
102
{ACAD_REACTORS
330
D18
102
}
330
D18
100
AcDbXrecord
280
     1
102
RTVSPropertyOp0
 70
     1
102
RTVSPropertyOp1
 70
     1
102
RTVSPropertyOp2
 70
     1
102
RTVSPropertyOp3
 70
     1
102
RTVSPropertyOp4
 70
     1
102
RTVSPropertyOp5
 70
     1
102
RTVSPropertyOp6
 70
     1
102
RTVSPropertyOp7
 70
     1
102
RTVSPropertyOp8
 70
     1
102
RTVSPropertyOp9
 70
     1
102
RTVSPropertyOp10
 70
     1
102
RTVSPropertyOp11
 70
     1
102
RTVSPropertyOp12
 70
     1
102
RTVSPropertyOp13
 70
     1
102
RTVSPropertyOp14
 70
     1
102
RTVSPropertyOp15
 70
     1
102
RTVSPropertyOp16
 70
     1
102
RTVSPropertyOp17
 70
     1
102
RTVSPropertyOp18
 70
     1
102
RTVSPropertyOp19
 70
     1
102
RTVSPropertyOp20
 70
     1
102
RTVSPropertyOp21
 70
     1
102
RTVSPropertyOp22
 70
     1
102
RTVSPropertyOp23
 70
     1
102
RTVSPropertyOp24
 70
     1
102
RTVSPropertyOp25
 70
     1
102
RTVSPropertyOp26
 70
     1
102
RTVSPropertyOp27
 70
     1
  0
XRECORD
  5
45
102
{ACAD_REACTORS
330
44
102
}
330
44
100
AcDbXrecord
280
     1
102
RTVSPropertyOp0
 70
     1
102
RTVSPropertyOp1
 70
     1
102
RTVSPropertyOp2
 70
     1
102
RTVSPropertyOp3
 70
     1
102
RTVSPropertyOp4
 70
     1
102
RTVSPropertyOp5
 70
     1
102
RTVSPropertyOp6
 70
     1
102
RTVSPropertyOp7
 70
     1
102
RTVSPropertyOp8
 70
     1
102
RTVSPropertyOp9
 70
     1
102
RTVSPropertyOp10
 70
     1
102
RTVSPropertyOp11
 70
     1
102
RTVSPropertyOp12
 70
     1
102
RTVSPropertyOp13
 70
     1
102
RTVSPropertyOp14
 70
     1
102
RTVSPropertyOp15
 70
     1
102
RTVSPropertyOp16
 70
     1
102
RTVSPropertyOp17
 70
     1
102
RTVSPropertyOp18
 70
     1
102
RTVSPropertyOp19
 70
     1
102
RTVSPropertyOp20
 70
     1
102
RTVSPropertyOp21
 70
     1
102
RTVSPropertyOp22
 70
     1
102
RTVSPropertyOp23
 70
     1
102
RTVSPropertyOp24
 70
     1
102
RTVSPropertyOp25
 70
     1
102
RTVSPropertyOp26
 70
     1
102
RTVSPropertyOp27
 70
     1
  0
XRECORD
  5
D17
102
{ACAD_REACTORS
330
D16
102
}
330
D16
100
AcDbXrecord
280
     1
102
RTVSPropertyOp0
 70
     1
102
RTVSPropertyOp1
 70
     1
102
RTVSPropertyOp2
 70
     1
102
RTVSPropertyOp3
 70
     1
102
RTVSPropertyOp4
 70
     1
102
RTVSPropertyOp5
 70
     1
102
RTVSPropertyOp6
 70
     1
102
RTVSPropertyOp7
 70
     1
102
RTVSPropertyOp8
 70
     1
102
RTVSPropertyOp9
 70
     1
102
RTVSPropertyOp10
 70
     1
102
RTVSPropertyOp11
 70
     1
102
RTVSPropertyOp12
 70
     1
102
RTVSPropertyOp13
 70
     1
102
RTVSPropertyOp14
 70
     1
102
RTVSPropertyOp15
 70
     1
102
RTVSPropertyOp16
 70
     1
102
RTVSPropertyOp17
 70
     1
102
RTVSPropertyOp18
 70
     1
102
RTVSPropertyOp19
 70
     1
102
RTVSPropertyOp20
 70
     1
102
RTVSPropertyOp21
 70
     1
102
RTVSPropertyOp22
 70
     1
102
RTVSPropertyOp23
 70
     1
102
RTVSPropertyOp24
 70
     1
102
RTVSPropertyOp25
 70
     1
102
RTVSPropertyOp26
 70
     1
102
RTVSPropertyOp27
 70
     1
  0
ENDSEC
  0
EOF
