  0
SECTION
  2
HEADER
  9
$ACADVER
  1
AC1018
  9
$ACADMAINTVER
 70
   104
  9
$DWGCODEPAGE
  3
ANSI_936
  9
$LASTSAVEDBY
  1
chaxiu.zhu
  9
$INSBASE
 10
0.0
 20
0.0
 30
0.0
  9
$EXTMIN
 10
73183.3417751056
 20
-21153.75989079691
 30
-0.00000001
  9
$EXTMAX
 10
74237.07206407001
 20
-20018.92803993988
 30
0.00000001
  9
$LIMMIN
 10
0.0
 20
0.0
  9
$LIMMAX
 10
420.0
 20
297.0
  9
$ORTHOMODE
 70
     1
  9
$REGENMODE
 70
     1
  9
$FILLMODE
 70
     1
  9
$QTEXTMODE
 70
     0
  9
$MIRRTEXT
 70
     0
  9
$LTSCALE
 40
1.0
  9
$ATTMODE
 70
     1
  9
$TEXTSIZE
 40
2.5
  9
$TRACEWID
 40
1.0
  9
$TEXTSTYLE
  7
Standard
  9
$CLAYER
  8
轮廓线.
  9
$CELTYPE
  6
ByLayer
  9
$CECOLOR
 62
   256
  9
$CELTSCALE
 40
1.0
  9
$DISPSILH
 70
     0
  9
$DIMSCALE
 40
9.0
  9
$DIMASZ
 40
1.5
  9
$DIMEXO
 40
0.625
  9
$DIMDLI
 40
3.75
  9
$DIMRND
 40
0.0
  9
$DIMDLE
 40
0.0
  9
$DIMEXE
 40
0.5
  9
$DIMTP
 40
0.0
  9
$DIMTM
 40
0.0
  9
$DIMTXT
 40
2.5
  9
$DIMCEN
 40
2.5
  9
$DIMTSZ
 40
0.0
  9
$DIMTOL
 70
     0
  9
$DIMLIM
 70
     0
  9
$DIMTIH
 70
     0
  9
$DIMTOH
 70
     1
  9
$DIMSE1
 70
     0
  9
$DIMSE2
 70
     0
  9
$DIMTAD
 70
     1
  9
$DIMZIN
 70
     8
  9
$DIMBLK
  1

  9
$DIMASO
 70
     1
  9
$DIMSHO
 70
     1
  9
$DIMPOST
  1

  9
$DIMAPOST
  1

  9
$DIMALT
 70
     0
  9
$DIMALTD
 70
     3
  9
$DIMALTF
 40
0.03937007874016
  9
$DIMLFAC
 40
1.0
  9
$DIMTOFL
 70
     1
  9
$DIMTVP
 40
0.0
  9
$DIMTIX
 70
     0
  9
$DIMSOXD
 70
     0
  9
$DIMSAH
 70
     0
  9
$DIMBLK1
  1

  9
$DIMBLK2
  1

  9
$DIMSTYLE
  2
副本 ISO-25
  9
$DIMCLRD
 70
     0
  9
$DIMCLRE
 70
     0
  9
$DIMCLRT
 70
     0
  9
$DIMTFAC
 40
1.0
  9
$DIMGAP
 40
0.3
  9
$DIMJUST
 70
     0
  9
$DIMSD1
 70
     0
  9
$DIMSD2
 70
     0
  9
$DIMTOLJ
 70
     0
  9
$DIMTZIN
 70
     8
  9
$DIMALTZ
 70
     0
  9
$DIMALTTZ
 70
     0
  9
$DIMUPT
 70
     0
  9
$DIMDEC
 70
     0
  9
$DIMTDEC
 70
     0
  9
$DIMALTU
 70
     2
  9
$DIMALTTD
 70
     3
  9
$DIMTXSTY
  7
Standard
  9
$DIMAUNIT
 70
     0
  9
$DIMADEC
 70
     0
  9
$DIMALTRND
 40
0.0
  9
$DIMAZIN
 70
     0
  9
$DIMDSEP
 70
    46
  9
$DIMATFIT
 70
     3
  9
$DIMFRAC
 70
     0
  9
$DIMLDRBLK
  1

  9
$DIMLUNIT
 70
     2
  9
$DIMLWD
 70
    -2
  9
$DIMLWE
 70
    -2
  9
$DIMTMOVE
 70
     0
  9
$LUNITS
 70
     2
  9
$LUPREC
 70
     4
  9
$SKETCHINC
 40
1.0
  9
$FILLETRAD
 40
0.0
  9
$AUNITS
 70
     0
  9
$AUPREC
 70
     0
  9
$MENU
  1
.
  9
$ELEVATION
 40
0.0
  9
$PELEVATION
 40
0.0
  9
$THICKNESS
 40
0.0
  9
$LIMCHECK
 70
     0
  9
$CHAMFERA
 40
0.0
  9
$CHAMFERB
 40
0.0
  9
$CHAMFERC
 40
0.0
  9
$CHAMFERD
 40
0.0
  9
$SKPOLY
 70
     0
  9
$TDCREATE
 40
2455843.370532037
  9
$TDUCREATE
 40
2455843.037198704
  9
$TDUPDATE
 40
2458858.502522766
  9
$TDUUPDATE
 40
2458858.169189433
  9
$TDINDWG
 40
20.1550287384
  9
$TDUSRTIMER
 40
20.1550285648
  9
$USRTIMER
 70
     1
  9
$ANGBASE
 50
0.0
  9
$ANGDIR
 70
     0
  9
$PDMODE
 70
     0
  9
$PDSIZE
 40
0.0
  9
$PLINEWID
 40
0.0
  9
$SPLFRAME
 70
     0
  9
$SPLINETYPE
 70
     6
  9
$SPLINESEGS
 70
     8
  9
$HANDSEED
  5
205
  9
$SURFTAB1
 70
     6
  9
$SURFTAB2
 70
     6
  9
$SURFTYPE
 70
     6
  9
$SURFU
 70
     6
  9
$SURFV
 70
     6
  9
$UCSBASE
  2

  9
$UCSNAME
  2

  9
$UCSORG
 10
0.0
 20
0.0
 30
0.0
  9
$UCSXDIR
 10
1.0
 20
0.0
 30
0.0
  9
$UCSYDIR
 10
0.0
 20
1.0
 30
0.0
  9
$UCSORTHOREF
  2

  9
$UCSORTHOVIEW
 70
     0
  9
$UCSORGTOP
 10
0.0
 20
0.0
 30
0.0
  9
$UCSORGBOTTOM
 10
0.0
 20
0.0
 30
0.0
  9
$UCSORGLEFT
 10
0.0
 20
0.0
 30
0.0
  9
$UCSORGRIGHT
 10
0.0
 20
0.0
 30
0.0
  9
$UCSORGFRONT
 10
0.0
 20
0.0
 30
0.0
  9
$UCSORGBACK
 10
0.0
 20
0.0
 30
0.0
  9
$PUCSBASE
  2

  9
$PUCSNAME
  2

  9
$PUCSORG
 10
0.0
 20
0.0
 30
0.0
  9
$PUCSXDIR
 10
1.0
 20
0.0
 30
0.0
  9
$PUCSYDIR
 10
0.0
 20
1.0
 30
0.0
  9
$PUCSORTHOREF
  2

  9
$PUCSORTHOVIEW
 70
     0
  9
$PUCSORGTOP
 10
0.0
 20
0.0
 30
0.0
  9
$PUCSORGBOTTOM
 10
0.0
 20
0.0
 30
0.0
  9
$PUCSORGLEFT
 10
0.0
 20
0.0
 30
0.0
  9
$PUCSORGRIGHT
 10
0.0
 20
0.0
 30
0.0
  9
$PUCSORGFRONT
 10
0.0
 20
0.0
 30
0.0
  9
$PUCSORGBACK
 10
0.0
 20
0.0
 30
0.0
  9
$USERI1
 70
     0
  9
$USERI2
 70
     0
  9
$USERI3
 70
     0
  9
$USERI4
 70
     0
  9
$USERI5
 70
     0
  9
$USERR1
 40
0.0
  9
$USERR2
 40
0.0
  9
$USERR3
 40
0.0
  9
$USERR4
 40
0.0
  9
$USERR5
 40
2.5
  9
$WORLDVIEW
 70
     1
  9
$SHADEDGE
 70
     3
  9
$SHADEDIF
 70
    70
  9
$TILEMODE
 70
     1
  9
$MAXACTVP
 70
    64
  9
$PINSBASE
 10
0.0
 20
0.0
 30
0.0
  9
$PLIMCHECK
 70
     0
  9
$PEXTMIN
 10
0.0
 20
0.0
 30
0.0
  9
$PEXTMAX
 10
0.0
 20
0.0
 30
0.0
  9
$PLIMMIN
 10
0.0
 20
0.0
  9
$PLIMMAX
 10
12.0
 20
9.0
  9
$UNITMODE
 70
     0
  9
$VISRETAIN
 70
     1
  9
$PLINEGEN
 70
     0
  9
$PSLTSCALE
 70
     1
  9
$TREEDEPTH
 70
  3020
  9
$CMLSTYLE
  2
Standard
  9
$CMLJUST
 70
     0
  9
$CMLSCALE
 40
20.0
  9
$PROXYGRAPHICS
 70
     1
  9
$MEASUREMENT
 70
     1
  9
$CELWEIGHT
370
    -1
  9
$ENDCAPS
280
     0
  9
$JOINSTYLE
280
     0
  9
$LWDISPLAY
290
     0
  9
$INSUNITS
 70
     4
  9
$HYPERLINKBASE
  1

  9
$STYLESHEET
  1

  9
$XEDIT
290
     1
  9
$CEPSNTYPE
380
     0
  9
$PSTYLEMODE
290
     1
  9
$FINGERPRINTGUID
  2
{676D30C8-5816-438C-ACBD-8050CE78EB13}
  9
$VERSIONGUID
  2
{27573593-2E95-4DFF-9211-55333B7F9B81}
  9
$EXTNAMES
290
     1
  9
$PSVPSCALE
 40
0.0
  9
$OLESTARTUP
290
     0
  9
$SORTENTS
280
   127
  9
$INDEXCTL
280
     0
  9
$HIDETEXT
280
     1
  9
$XCLIPFRAME
290
     0
  9
$HALOGAP
280
     0
  9
$OBSCOLOR
 70
   257
  9
$OBSLTYPE
280
     0
  9
$INTERSECTIONDISPLAY
280
     0
  9
$INTERSECTIONCOLOR
 70
   257
  9
$DIMASSOC
280
     2
  9
$PROJECTNAME
  1

  0
ENDSEC
  0
SECTION
  2
CLASSES
  0
CLASS
  1
ACDBDICTIONARYWDFLT
  2
AcDbDictionaryWithDefault
  3
ObjectDBX Classes
 90
        0
 91
        1
280
     0
281
     0
  0
CLASS
  1
DICTIONARYVAR
  2
AcDbDictionaryVar
  3
ObjectDBX Classes
 90
        0
 91
        3
280
     0
281
     0
  0
CLASS
  1
TABLESTYLE
  2
AcDbTableStyle
  3
ObjectDBX Classes
 90
     4095
 91
        1
280
     0
281
     0
  0
CLASS
  1
MATERIAL
  2
AcDbMaterial
  3
ObjectDBX Classes
 90
        0
 91
        3
280
     0
281
     0
  0
CLASS
  1
VISUALSTYLE
  2
AcDbVisualStyle
  3
ObjectDBX Classes
 90
     4095
 91
       16
280
     0
281
     0
  0
CLASS
  1
VLO-VL
  2
vlo_VL
  3
VL|AutoLISP based application
 90
        0
 91
        0
280
     0
281
     0
  0
CLASS
  1
SORTENTSTABLE
  2
AcDbSortentsTable
  3
ObjectDBX Classes
 90
        0
 91
        1
280
     0
281
     0
  0
CLASS
  1
DIMASSOC
  2
AcDbDimAssoc
  3
"ZcDbDimAssoc|Product Desc:     ZwDim ZRX App For Dimension|Company:          ZwSoft.|WEB Address:      www.zwsoft.com"
 90
        0
 91
        0
280
     0
281
     0
  0
CLASS
  1
EXACXREFPANELOBJECT
  2
ExAcXREFPanelObject
  3
EXAC_ESW
 90
     1025
 91
        0
280
     1
281
     0
  0
CLASS
  1
NPOCOLLECTION
  2
AcDbImpNonPersistentObjectsCollection
  3
ObjectDBX Classes
 90
     1153
 91
        0
280
     0
281
     0
  0
CLASS
  1
SCALE
  2
AcDbScale
  3
ObjectDBX Classes
 90
     1153
 91
       33
280
     0
281
     0
  0
CLASS
  1
MLEADERSTYLE
  2
AcDbMLeaderStyle
  3
ACDB_MLEADERSTYLE_CLASS
 90
     4095
 91
        1
280
     0
281
     0
  0
CLASS
  1
CELLSTYLEMAP
  2
AcDbCellStyleMap
  3
ObjectDBX Classes
 90
     1152
 91
        1
280
     0
281
     0
  0
ENDSEC
  0
SECTION
  2
TABLES
  0
TABLE
  2
VPORT
  5
23
330
0
100
AcDbSymbolTable
 70
     2
  0
VPORT
  5
1DE
330
23
100
AcDbSymbolTableRecord
100
AcDbViewportTableRecord
  2
*Active
 70
     0
 10
0.0
 20
0.0
 11
1.0
 21
1.0
 12
74259.85677169119
 22
-20678.68431747617
 13
0.0
 23
0.0
 14
10.0
 24
10.0
 15
10.0
 25
10.0
 16
0.0
 26
0.0
 36
1.0
 17
0.0
 27
0.0
 37
0.0
 40
1587.831155411675
 41
1.857503152585119
 42
50.0
 43
0.0
 44
0.0
 50
0.0
 51
0.0
 71
     0
 72
  1000
 73
     1
 74
     3
 75
     0
 76
     1
 77
     0
 78
     0
281
     0
 65
     1
110
0.0
120
0.0
130
0.0
111
1.0
121
0.0
131
0.0
112
0.0
122
1.0
132
0.0
 79
     0
146
0.0
  0
ENDTAB
  0
TABLE
  2
LTYPE
  5
1E
330
0
100
AcDbSymbolTable
 70
     2
  0
LTYPE
  5
1F
330
1E
100
AcDbSymbolTableRecord
100
AcDbLinetypeTableRecord
  2
ByBlock
 70
     0
  3

 72
    65
 73
     0
 40
0.0
  0
LTYPE
  5
20
330
1E
100
AcDbSymbolTableRecord
100
AcDbLinetypeTableRecord
  2
ByLayer
 70
     0
  3

 72
    65
 73
     0
 40
0.0
  0
LTYPE
  5
C
330
1E
100
AcDbSymbolTableRecord
100
AcDbLinetypeTableRecord
  2
Continuous
 70
     0
  3
Solid line
 72
    65
 73
     0
 40
0.0
  0
LTYPE
  5
F9
330
1E
100
AcDbSymbolTableRecord
100
AcDbLinetypeTableRecord
  2
CENTER2
 70
     0
  3
Center (.5x) ___ _ ___ _ ___ _ ___ _ ___ _ ___
 72
    65
 73
     4
 40
28.575
 49
19.05
 74
     0
 49
-3.174999999999999
 74
     0
 49
3.174999999999999
 74
     0
 49
-3.174999999999999
 74
     0
  0
ENDTAB
  0
TABLE
  2
LAYER
  5
15
102
{ACAD_XDICTIONARY
360
16
102
}
330
0
100
AcDbSymbolTable
 70
     6
  0
LAYER
  5
6
330
15
100
AcDbSymbolTableRecord
100
AcDbLayerTableRecord
  2
0
 70
     0
 62
     7
  6
Continuous
370
    -3
390
7
  0
LAYER
  5
39
330
15
100
AcDbSymbolTableRecord
100
AcDbLayerTableRecord
  2
轮廓线.
 70
     0
 62
   255
  6
Continuous
370
    30
390
7
1001
AcAecLayerStandard
1000

1000

  0
LAYER
  5
C0
330
15
100
AcDbSymbolTableRecord
100
AcDbLayerTableRecord
  2
尺寸标注
 70
     0
 62
    80
  6
Continuous
370
    18
390
7
1001
AcAecLayerStandard
1000

1000

  0
LAYER
  5
40
330
15
100
AcDbSymbolTableRecord
100
AcDbLayerTableRecord
  2
06___PRT_ALL_SURFS
 70
     0
 62
     7
  6
Continuous
370
    -3
390
7
  0
LAYER
  5
FA
330
15
100
AcDbSymbolTableRecord
100
AcDbLayerTableRecord
  2
Defpoints
 70
     0
 62
     7
  6
Continuous
290
     0
370
    -3
390
7
  0
LAYER
  5
FB
330
15
100
AcDbSymbolTableRecord
100
AcDbLayerTableRecord
  2
中心线
 70
     0
 62
    10
  6
CENTER2
370
    18
390
7
1001
AcAecLayerStandard
1000

1000

  0
ENDTAB
  0
TABLE
  2
STYLE
  5
1B
330
0
100
AcDbSymbolTable
 70
     4
  0
STYLE
  5
1C
330
1B
100
AcDbSymbolTableRecord
100
AcDbTextStyleTableRecord
  2
Standard
 70
     0
 40
0.0
 41
1.0
 50
0.0
 71
     0
 42
2.5
  3
SimSun.ttf
  4

1001
ACAD
1000
SimSun
1071
    34306
  0
STYLE
  5
30
330
1B
100
AcDbSymbolTableRecord
100
AcDbTextStyleTableRecord
  2
Arial
 70
     0
 40
0.0
 41
1.0
 50
0.0
 71
     0
 42
2.5
  3
arial.ttf
  4

1001
ACAD
1000
Arial
1071
       34
  0
STYLE
  5
2E
330
1B
100
AcDbSymbolTableRecord
100
AcDbTextStyleTableRecord
  2
TXT
 70
     0
 40
0.0
 41
1.0
 50
0.0
 71
     0
 42
2.5
  3
txt.shx
  4

  0
STYLE
  5
2C
330
1B
100
AcDbSymbolTableRecord
100
AcDbTextStyleTableRecord
  2
TT宋体
 70
     0
 40
0.0
 41
1.0
 50
0.0
 71
     0
 42
2.5
  3
SimSun.ttf
  4

1001
ACAD
1000
SimSun
1071
    34306
  0
ENDTAB
  0
TABLE
  2
VIEW
  5
21
330
0
100
AcDbSymbolTable
 70
     0
  0
ENDTAB
  0
TABLE
  2
UCS
  5
22
330
0
100
AcDbSymbolTable
 70
     0
  0
ENDTAB
  0
TABLE
  2
APPID
  5
27
330
0
100
AcDbSymbolTable
 70
     4
  0
APPID
  5
1A
330
27
100
AcDbSymbolTableRecord
100
AcDbRegAppTableRecord
  2
ACAD
 70
     0
  0
APPID
  5
10
330
27
100
AcDbSymbolTableRecord
100
AcDbRegAppTableRecord
  2
ACAD_PSEXT
 70
     0
  0
APPID
  5
3A
330
27
100
AcDbSymbolTableRecord
100
AcDbRegAppTableRecord
  2
AcAecLayerStandard
 70
     0
  0
APPID
  5
204
330
27
100
AcDbSymbolTableRecord
100
AcDbRegAppTableRecord
  2
ACAD_MLEADERVER
 70
     0
  0
ENDTAB
  0
TABLE
  2
DIMSTYLE
  5
28
330
0
100
AcDbSymbolTable
 70
     5
100
AcDbDimStyleTable
 71
     5
340
29
340
2A
340
2B
340
2D
340
2F
  0
DIMSTYLE
105
2A
330
28
100
AcDbSymbolTableRecord
100
AcDbDimStyleTableRecord
  2
宋体
 70
     0
 40
0.5
 41
20.0
 42
0.0
 43
3.75
 44
10.0
 73
     0
 78
     8
140
30.0
141
0.0
143
0.03937007874016
147
20.0
171
     3
172
     1
271
     0
272
     0
274
     3
279
     1
284
     8
340
1C
  0
DIMSTYLE
105
2F
330
28
100
AcDbSymbolTableRecord
100
AcDbDimStyleTableRecord
  2
Arial
 70
     0
 40
0.7
 41
20.0
 42
0.0
 43
3.75
 44
10.0
 73
     0
 78
     8
140
30.0
141
0.0
143
0.03937007874016
147
20.0
171
     3
172
     1
271
     0
272
     0
274
     3
279
     1
284
     8
340
30
  0
DIMSTYLE
105
2D
330
28
100
AcDbSymbolTableRecord
100
AcDbDimStyleTableRecord
  2
TXT
 70
     0
 40
0.7
 41
20.0
 42
0.0
 43
3.75
 44
10.0
 73
     0
 78
     8
140
30.0
141
0.0
143
0.03937007874016
147
20.0
171
     3
172
     1
271
     0
272
     0
274
     3
279
     1
284
     8
340
2E
  0
DIMSTYLE
105
2B
330
28
100
AcDbSymbolTableRecord
100
AcDbDimStyleTableRecord
  2
新标注1比10 无框
 70
     0
 40
0.6
 41
20.0
 42
5.0
 43
3.75
 44
5.0
 73
     0
 78
     8
140
30.0
141
5.0
143
0.03937007874016
147
20.0
171
     3
172
     1
176
   256
177
   256
271
     0
272
     0
274
     3
279
     1
284
     8
340
2C
  0
DIMSTYLE
105
29
330
28
100
AcDbSymbolTableRecord
100
AcDbDimStyleTableRecord
  2
副本 ISO-25
 70
     0
 40
9.0
 41
1.5
 42
0.625
 43
3.75
 44
0.5
 73
     0
 77
     1
 78
     8
140
2.5
141
2.5
143
0.03937007874016
147
0.3
171
     3
172
     1
271
     0
272
     0
274
     3
283
     0
284
     8
340
1C
  0
ENDTAB
  0
TABLE
  2
BLOCK_RECORD
  5
1
330
0
100
AcDbSymbolTable
 70
     1
  0
BLOCK_RECORD
  5
2
102
{ACAD_XDICTIONARY
360
3
102
}
330
1
100
AcDbSymbolTableRecord
100
AcDbBlockTableRecord
  2
*Model_Space
340
E
  0
BLOCK_RECORD
  5
11
330
1
100
AcDbSymbolTableRecord
100
AcDbBlockTableRecord
  2
*Paper_Space
340
14
  0
BLOCK_RECORD
  5
154
330
1
100
AcDbSymbolTableRecord
100
AcDbBlockTableRecord
  2
DGFHDGFH
340
0
310
2800000020000000200000000100080000000000000400000000000000000000000000000000000000000000000080000080000000808000800000008000800080800000C0C0C000C0DCC000F0CAA6000020400000206000002080000020A0000020C0000020E00000400000004020000040400000406000004080000040A0
310
000040C0000040E00000600000006020000060400000606000006080000060A0000060C0000060E00000800000008020000080400000806000008080000080A0000080C0000080E00000A0000000A0200000A0400000A0600000A0800000A0A00000A0C00000A0E00000C0000000C0200000C0400000C0600000C0800000C0
310
A00000C0C00000C0E00000E0000000E0200000E0400000E0600000E0800000E0A00000E0C00000E0E00040000000400020004000400040006000400080004000A0004000C0004000E00040200000402020004020400040206000402080004020A0004020C0004020E000404000004040200040404000404060004040800040
310
40A0004040C0004040E00040600000406020004060400040606000406080004060A0004060C0004060E00040800000408020004080400040806000408080004080A0004080C0004080E00040A0000040A0200040A0400040A0600040A0800040A0A00040A0C00040A0E00040C0000040C0200040C0400040C0600040C08000
310
40C0A00040C0C00040C0E00040E0000040E0200040E0400040E0600040E0800040E0A00040E0C00040E0E00080000000800020008000400080006000800080008000A0008000C0008000E00080200000802020008020400080206000802080008020A0008020C0008020E00080400000804020008040400080406000804080
310
008040A0008040C0008040E00080600000806020008060400080606000806080008060A0008060C0008060E00080800000808020008080400080806000808080008080A0008080C0008080E00080A0000080A0200080A0400080A0600080A0800080A0A00080A0C00080A0E00080C0000080C0200080C0400080C0600080C0
310
800080C0A00080C0C00080C0E00080E0000080E0200080E0400080E0600080E0800080E0A00080E0C00080E0E000C0000000C0002000C0004000C0006000C0008000C000A000C000C000C000E000C0200000C0202000C0204000C0206000C0208000C020A000C020C000C020E000C0400000C0402000C0404000C0406000C0
310
408000C040A000C040C000C040E000C0600000C0602000C0604000C0606000C0608000C060A000C060C000C060E000C0800000C0802000C0804000C0806000C0808000C080A000C080C000C080E000C0A00000C0A02000C0A04000C0A06000C0A08000C0A0A000C0A0C000C0A0E000C0C00000C0C02000C0C04000C0C06000
310
C0C08000C0C0A000F0FBFF00A4A0A000808080000000FF0000FF000000FFFF00FF000000FF00FF00FFFF0000FFFFFF0000000000000000000000000000000000000000000000000000000000000000000000000000000000000000000000000000000000000000000000000000000000000000000000000000000000000000
310
00000000000000000000000000000000000000000000000000000000000000000000000000000000000000000000000000000000000000000000000000000000000000000000000000000000000000000000000000000000000000000000000000000000000000000000000000000000000000000000000000000000000000
310
00000000000000000000000000000000000000000000000000000000000000000000000000000000000000000000000000000000000000000000000000000000000000000000000000000000000000000000000000000000000000000000000000000000000000000000000000000000000000000000000000000000000000
310
000000000000000000000000000000000000000000000000000000000000000000FFFFFFFF0000000000000000000000000000000000000000FFFFFFFFFFFFFFFFFFFFFFFFFFFFFFFFFFFFFFFF00000000000000000000FFFFFFFFFFFFFFFFFFFFFFFFFFFFFFFFFFFFFFFFFFFFFFFF00000000000000FFFFFFFFFFFF000000
310
00000000000000000000FFFFFFFFFFFFFF0000000000FFFFFFFFFF000000000000000000000000000000000000FFFFFFFFFF00000000FFFFFF00000000000000000000000000000000000000000000FFFFFF00000000FFFF000000000000000000000000000000000000000000000000FFFF00000000FFFF00000000000000
310
0000000000000000000000000000000000FFFF000000FFFF0000000000000000000000000000000000000000000000000000FFFF000000FFFFFFFFFFFFFFFFFFFFFFFFFFFFFFFFFFFFFFFFFFFFFFFFFFFFFFFF0000000000000000000000000000000000000000000000000000000000000000000000000000000000000000
310
00000000000000000000000000000000000000000000000000000000000000000000000000000000000000000000000000000000000000000000000000000000000000000000000000000000000000000000000000000000000000000000000000000000000000000000000000000000000000000000000000000000000000
310
00000000000000000000000000000000000000000000000000000000000000000000000000000000000000000000000000000000000000000000000000000000000000000000000000000000000000000000000000000000000000000000000000000000000000000000000000000000000000000000000000000000000000
310
0000000000000000000000000000000000000000000000000000000000000000000000000000000000000000000000000000000000000000
1001
ACAD
1000
DesignCenter Data
1002
{
1070
     1
1070
     4
1002
}
  0
ENDTAB
  0
ENDSEC
  0
SECTION
  2
BLOCKS
  0
BLOCK
  5
5
330
2
100
AcDbEntity
  8
0
100
AcDbBlockBegin
  2
*Model_Space
 70
     0
 10
0.0
 20
0.0
 30
0.0
  3
*Model_Space
  1

  0
ENDBLK
  5
D
330
2
100
AcDbEntity
  8
0
100
AcDbBlockEnd
  0
BLOCK
  5
12
330
11
100
AcDbEntity
 67
     1
  8
0
100
AcDbBlockBegin
  2
*Paper_Space
 70
     0
 10
0.0
 20
0.0
 30
0.0
  3
*Paper_Space
  1

  0
ENDBLK
  5
13
330
11
100
AcDbEntity
 67
     1
  8
0
100
AcDbBlockEnd
  0
BLOCK
  5
155
330
154
100
AcDbEntity
  8
0
100
AcDbBlockBegin
  2
DGFHDGFH
 70
     0
 10
0.0
 20
0.0
 30
0.0
  3
DGFHDGFH
  1

  0
LWPOLYLINE
  5
157
330
154
100
AcDbEntity
  8
0
  6
Continuous
 62
     7
100
AcDbPolyline
 90
       25
 70
     0
 43
0.0
 10
73183.35465588579
 20
-20406.66787507977
 10
73183.98132246731
 20
-20413.83817778157
 10
73184.66384969539
 20
-20421.16458066877
 10
73185.4177357158
 20
-20428.38970024757
 10
73186.25883416809
 20
-20435.28589405537
 10
73187.2022048069
 20
-20441.70499045478
 10
73188.2686018462
 20
-20447.61505370047
 10
73189.49267073452
 20
-20453.07398282797
 10
73190.9585377511
 20
-20458.27415250797
 10
73192.7872455629
 20
-20463.37877682467
 10
73195.04679249851
 20
-20468.35449469817
 10
73197.742320692
 20
-20473.09754749388
 10
73200.84972231091
 20
-20477.56939284408
 10
73204.31253347139
 20
-20481.77196598207
 10
73208.0701718591
 20
-20485.74834811947
 10
73212.05440659871
 20
-20489.54326142337
 10
73216.20157431349
 20
-20493.17874940117
 10
73220.53779485031
 20
-20496.71066051037
 10
73225.2351578536
 20
-20500.28171161267
 10
73230.49024778591
 20
-20504.01279523577
 10
73236.33866202489
 20
-20507.88610357137
 10
73242.71593028529
 20
-20511.82065256287
 10
73249.48019287521
 20
-20515.70552734647
 10
73256.43263227549
 20
-20519.42320739467
 10
73263.34177567799
 20
-20522.86787622267
  0
LINE
  5
158
330
154
100
AcDbEntity
  8
0
  6
Continuous
 62
     7
100
AcDbLine
 10
73294.3150899533
 20
-20520.27236971817
 30
0.0
 11
73294.3927499735
 21
-20520.06527633097
 31
0.0
  0
LINE
  5
159
330
154
100
AcDbEntity
  8
0
  6
Continuous
 62
     7
100
AcDbLine
 10
73439.75299761961
 20
-20535.86787595177
 30
0.0
 11
73376.93055261169
 21
-20535.86787595177
 31
0.0
  0
LWPOLYLINE
  5
15A
330
154
100
AcDbEntity
  8
0
  6
Continuous
 62
     7
100
AcDbPolyline
 90
        4
 70
     0
 43
0.0
 10
73305.07663105331
 20
-20514.51296405067
 10
73324.2075572273
 20
-20518.70886638468
 10
73343.6339940827
 20
-20521.46102082287
 10
73363.23290383031
 20
-20522.75806785347
  0
LINE
  5
15B
330
154
100
AcDbEntity
  8
0
  6
Continuous
 62
     7
100
AcDbLine
 10
73372.95397475951
 20
-20532.30011267487
 30
0.0
 11
73372.8858444089
 21
-20531.67331345007
 31
0.0
  0
LWPOLYLINE
  5
15C
330
154
100
AcDbEntity
  8
0
  6
Continuous
 62
     7
100
AcDbPolyline
 90
        4
 70
     0
 43
0.0
 10
73453.45064659019
 20
-20522.75806792777
 10
73473.04956067102
 20
-20521.46102126557
 10
73492.47599810561
 20
-20518.70886782967
 10
73511.60692123442
 20
-20514.51296758867
  0
LINE
  5
15D
330
154
100
AcDbEntity
  8
0
  6
Continuous
 62
     7
100
AcDbLine
 10
73263.34177511559
 20
-20522.86787595177
 30
0.0
 11
73284.5125933905
 21
-20522.86787595177
 31
0.0
  0
LINE
  5
15E
330
154
100
AcDbEntity
  8
0
  6
Continuous
 62
     7
100
AcDbLine
 10
73531.6362924737
 20
-20522.86787595177
 30
0.0
 11
73553.3417751156
 21
-20522.86787595177
 31
0.0
  0
LINE
  5
15F
330
154
100
AcDbEntity
  8
0
  6
Continuous
 62
     7
100
AcDbLine
 10
73547.40604572049
 20
-20514.86787595177
 30
0.0
 11
73551.45806336986
 21
-20514.86787595177
 31
0.0
  0
LINE
  5
160
330
154
100
AcDbEntity
  8
0
  6
Continuous
 62
     7
100
AcDbLine
 10
73530.96975634219
 20
-20522.86787595177
 30
0.0
 11
73452.6168694806
 21
-20522.86787595177
 31
0.0
  0
LINE
  5
161
330
154
100
AcDbEntity
  8
0
  6
Continuous
 62
     7
100
AcDbLine
 10
73364.06667709041
 20
-20522.86787595177
 30
0.0
 11
73285.71379388911
 21
-20522.86787595177
 31
0.0
  0
LINE
  5
162
330
154
100
AcDbEntity
  8
0
  6
Continuous
 62
     7
100
AcDbLine
 10
73539.46879178729
 20
-20519.86787595177
 30
0.0
 11
73537.21475814499
 21
-20519.86787595177
 31
0.0
  0
LINE
  5
163
330
154
100
AcDbEntity
  8
0
  6
Continuous
 62
     7
100
AcDbLine
 10
73539.46879178729
 20
-20511.86787595177
 30
0.0
 11
73537.21475814499
 21
-20511.86787595177
 31
0.0
  0
LINE
  5
164
330
154
100
AcDbEntity
  8
0
  6
Continuous
 62
     7
100
AcDbLine
 10
73279.46879208631
 20
-20519.86787595177
 30
0.0
 11
73277.21475844401
 21
-20519.86787595177
 31
0.0
  0
LINE
  5
165
330
154
100
AcDbEntity
  8
0
  6
Continuous
 62
     7
100
AcDbLine
 10
73445.84177511559
 20
-20510.86787595177
 30
0.0
 11
73370.8417751156
 21
-20510.86787595177
 31
0.0
  0
LWPOLYLINE
  5
166
330
154
100
AcDbEntity
  8
0
  6
Continuous
 62
     7
100
AcDbPolyline
 90
       26
 70
     0
 43
0.0
 10
73370.84177778421
 20
-20510.86787595177
 10
73356.3792613758
 20
-20510.45214165827
 10
73341.53549829561
 20
-20509.15646252237
 10
73327.1506498668
 20
-20507.04451737368
 10
73314.01121559712
 20
-20504.35415335738
 10
73302.61045302051
 20
-20501.41147432268
 10
73292.75288506631
 20
-20498.39669197197
 10
73284.1415164811
 20
-20495.39285369047
 10
73276.45945055802
 20
-20492.41029804097
 10
73269.39614086739
 20
-20489.40504752277
 10
73262.65414394681
 20
-20486.28965483097
 10
73255.99928858171
 20
-20482.96515125737
 10
73249.44073650411
 20
-20479.43213272438
 10
73243.0277249888
 20
-20475.70079659547
 10
73236.7729741397
 20
-20471.67465817857
 10
73230.7211466132
 20
-20467.23876943597
 10
73224.98229905621
 20
-20462.37612535998
 10
73219.63738386901
 20
-20457.09509961967
 10
73214.70199928612
 20
-20451.46165644557
 10
73210.11702928911
 20
-20445.55726703457
 10
73205.8497946768
 20
-20439.42261668137
 10
73201.9072914026
 20
-20433.05945174827
 10
73198.31845648
 20
-20426.47166631847
 10
73195.1379640223
 20
-20419.66078859327
 10
73192.42448936171
 20
-20412.64758857078
 10
73190.2240817217
 20
-20405.46787482828
  0
LINE
  5
167
330
154
100
AcDbEntity
  8
0
  6
Continuous
 62
     7
100
AcDbLine
 10
73384.18511248521
 20
-20519.57652521027
 30
0.0
 11
73375.7605448132
 21
-20512.12309734788
 31
0.0
  0
LINE
  5
168
330
154
100
AcDbEntity
  8
0
  6
Continuous
 62
     7
100
AcDbLine
 10
73386.0917751156
 20
-20535.86787595177
 30
0.0
 11
73385.87125071989
 21
-20523.23404178197
 31
0.0
  0
LINE
  5
169
330
154
100
AcDbEntity
  8
0
  6
Continuous
 62
     7
100
AcDbLine
 10
73430.59177511559
 20
-20535.86787595177
 30
0.0
 11
73430.81229951141
 21
-20523.23404178197
 31
0.0
  0
LINE
  5
16A
330
154
100
AcDbEntity
  8
0
  6
Continuous
 62
     7
100
AcDbLine
 10
73443.72957547179
 20
-20532.30011267487
 30
0.0
 11
73443.79770581371
 21
-20531.67331353007
 31
0.0
  0
LINE
  5
16B
330
154
100
AcDbEntity
  8
0
  6
Continuous
 62
     7
100
AcDbLine
 10
73432.49843774609
 20
-20519.57652521027
 30
0.0
 11
73440.92300541799
 21
-20512.12309734788
 31
0.0
  0
LINE
  5
16C
330
154
100
AcDbEntity
  8
0
  6
Continuous
 62
     7
100
AcDbLine
 10
73627.3311561263
 20
-20402.86757727277
 30
0.0
 11
73186.8313248741
 21
-20402.86789155298
 31
0.0
  0
LINE
  5
16D
330
154
100
AcDbEntity
  8
0
  6
Continuous
 62
     7
100
AcDbLine
 10
73629.84126003591
 20
-20402.86787598967
 30
0.0
 11
73627.3311561263
 21
-20402.86757727277
 31
0.0
  0
LINE
  5
16E
330
154
100
AcDbEntity
  8
0
  6
Continuous
 62
     7
100
AcDbLine
 10
73522.2908016492
 20
-20520.06528004117
 30
0.0
 11
73522.36846027801
 21
-20520.27236971817
 31
0.0
  0
LWPOLYLINE
  5
16F
330
154
100
AcDbEntity
  8
0
  6
Continuous
 62
     7
100
AcDbPolyline
 90
       25
 70
     0
 43
0.0
 10
73553.34177427481
 20
-20522.86787635678
 10
73560.2523431116
 20
-20519.42247196847
 10
73567.255981221
 20
-20515.67636168857
 10
73574.0419056189
 20
-20511.77640649627
 10
73580.35094588181
 20
-20507.88222932107
 10
73586.0485490994
 20
-20504.11203257907
 10
73591.15797195
 20
-20500.49478090657
 10
73595.76150034759
 20
-20497.01211273237
 10
73600.04411838819
 20
-20493.54694499507
 10
73604.16885767159
 20
-20489.96101035527
 10
73608.15718146441
 20
-20486.20133356907
 10
73611.92257593731
 20
-20482.27322498278
 10
73615.406969366
 20
-20478.12450420687
 10
73618.56437478571
 20
-20473.68721703968
 10
73621.321914569
 20
-20468.96440481857
 10
73623.63582393411
 20
-20464.01531742047
 10
73625.52422045091
 20
-20458.89848038977
 10
73627.0504895906
 20
-20453.62772449377
 10
73628.32790964541
 20
-20448.04514631128
 10
73629.43912553201
 20
-20441.96383769237
 10
73630.4131995969
 20
-20435.37217854118
 10
73631.26617116791
 20
-20428.38651774897
 10
73632.02019492701
 20
-20421.15952376657
 10
73632.70035742001
 20
-20413.85908358197
 10
73633.32889434391
 20
-20406.66787509898
  0
LWPOLYLINE
  5
170
330
154
100
AcDbEntity
  8
0
  6
Continuous
 62
     7
100
AcDbPolyline
 90
       21
 70
     0
 43
0.0
 10
73551.45806336986
 20
-20514.86787595177
 10
73556.58022987737
 20
-20512.31411585193
 10
73563.37534587252
 20
-20508.67954000936
 10
73569.94679992377
 20
-20504.90284359406
 10
73576.04155431104
 20
-20501.14093172879
 10
73581.52882313071
 20
-20497.50991667978
 10
73586.43224654355
 20
-20494.03850375122
 10
73590.83085435709
 20
-20490.71086240313
 10
73594.90208708246
 20
-20487.41673153334
 10
73598.79853359605
 20
-20484.02926833501
 10
73602.52220262795
 20
-20480.51907389095
 10
73605.96554206977
 20
-20476.92693731022
 10
73609.0746675371
 20
-20473.22503232011
 10
73611.8373472003
 20
-20469.3424764278
 10
73614.22938457869
 20
-20465.24565670744
 10
73616.24674506816
 20
-20460.93084061032
 10
73617.9197004958
 20
-20456.39776707053
 10
73619.30284109876
 20
-20451.62128545374
 10
73620.49000887054
 20
-20446.43312759066
 10
73621.54496409236
 20
-20440.65971455699
 10
73622.21053926159
 20
-20436.15569908913
  0
LWPOLYLINE
  5
171
330
154
100
AcDbEntity
  8
0
  6
Continuous
 62
     7
100
AcDbPolyline
 90
       26
 70
     0
 43
0.0
 10
73626.45946848071
 20
-20405.46787493687
 10
73624.2915094397
 20
-20412.55391883907
 10
73621.6225011261
 20
-20419.48031893018
 10
73618.4975613221
 20
-20426.20941518037
 10
73614.97396890681
 20
-20432.71905004787
 10
73611.106254258
 20
-20439.00638092368
 10
73606.92278321749
 20
-20445.07054762107
 10
73602.4301262916
 20
-20450.91259351137
 10
73597.59929468239
 20
-20456.50066059407
 10
73592.3712129139
 20
-20461.75816886837
 10
73586.75462829021
 20
-20466.60935203727
 10
73580.81895603262
 20
-20471.04743344667
 10
73574.66307494991
 20
-20475.08267825147
 10
73568.34465880161
 20
-20478.81247611807
 10
73561.88701436559
 20
-20482.33677456547
 10
73555.31685554959
 20
-20485.66625883447
 10
73548.64746518559
 20
-20488.79641021227
 10
73541.65964670949
 20
-20491.82030960027
 10
73534.03319158901
 20
-20494.83662666157
 10
73525.4343774925
 20
-20497.89743667477
 10
73515.5142373923
 20
-20500.99833628327
 10
73503.9384603179
 20
-20504.05558298277
 10
73490.45930273542
 20
-20506.87898153557
 10
73475.62249641759
 20
-20509.10037829837
 10
73460.40259622149
 20
-20510.44646762657
 10
73445.8417676892
 20
-20510.86787595177
  0
LWPOLYLINE
  5
172
330
154
100
AcDbEntity
  8
0
  6
Continuous
 62
     7
100
AcDbPolyline
 90
       18
 70
     0
 43
0.0
 10
73622.21053926159
 20
-20436.15569908914
 10
73621.90397663652
 20
-20436.72205595396
 10
73617.81035460868
 20
-20443.37662034316
 10
73613.39044082719
 20
-20449.78352353422
 10
73608.6320425649
 20
-20455.97112732215
 10
73603.46879617511
 20
-20461.94371538252
 10
73597.83003582688
 20
-20467.61421376037
 10
73591.77074524249
 20
-20472.84777302598
 10
73585.41150861584
 20
-20477.6025520343
 10
73578.89168079353
 20
-20481.87636775536
 10
73572.29538034387
 20
-20485.77020234414
 10
73565.61222728448
 20
-20489.41757348456
 10
73558.82523697712
 20
-20492.85693896948
 10
73551.93627697499
 20
-20496.0901411762
 10
73544.7201557069
 20
-20499.21283601448
 10
73536.84656317303
 20
-20502.32689767464
 10
73527.9701244016
 20
-20505.48653019702
 10
73520.83029198271
 20
-20507.71834379328
  0
ARC
  5
173
330
154
100
AcDbEntity
  8
0
  6
Continuous
 62
     7
100
AcDbCircle
 10
73453.73912223421
 20
-20532.75390489827
 30
0.0
 40
9.999993845
100
AcDbArc
 50
91.65308071546711
 51
173.7965357199491
  0
ARC
  5
174
330
154
100
AcDbEntity
  8
0
  6
Continuous
 62
     7
100
AcDbCircle
 10
73362.94442818851
 20
-20532.75390530977
 30
0.0
 40
9.999993811199999
100
AcDbArc
 50
6.203467203379712
 51
88.34691937711426
  0
ARC
  5
175
330
154
100
AcDbEntity
  8
0
  6
Continuous
 62
     7
100
AcDbCircle
 10
73513.863838665
 20
-20523.22539151387
 30
0.0
 40
9.0000000246
100
AcDbArc
 50
20.5560487811292
 51
104.5229970509695
  0
ARC
  5
176
330
154
100
AcDbEntity
  8
0
  6
Continuous
 62
     7
100
AcDbCircle
 10
73513.863838665
 20
-20523.22539151387
 30
0.0
 40
17.0000000246
100
AcDbArc
 50
28.00966156731355
 51
65.80827026822316
  0
ARC
  5
177
330
154
100
AcDbEntity
  8
0
  6
Continuous
 62
     7
100
AcDbCircle
 10
73302.8197129816
 20
-20523.22538774747
 30
0.0
 40
9.0000000233
100
AcDbArc
 50
75.47699853755183
 51
159.4439515024516
  0
ARC
  5
178
330
154
100
AcDbEntity
  8
0
  6
Continuous
 62
     7
100
AcDbCircle
 10
73444.2361056591
 20
-20515.86787595177
 30
0.0
 40
5.0
100
AcDbArc
 50
90.00000001000517
 51
131.4999999553338
  0
ARC
  5
179
330
154
100
AcDbEntity
  8
0
  6
Continuous
 62
     7
100
AcDbCircle
 10
73372.44744457222
 20
-20515.86787595177
 30
0.0
 40
5.0
100
AcDbArc
 50
48.50000007921704
 51
89.9999999749871
  0
ARC
  5
17A
330
154
100
AcDbEntity
  8
0
  6
Continuous
 62
     7
100
AcDbCircle
 10
73435.8115379872
 20
-20523.32130381417
 30
0.0
 40
5.0
100
AcDbArc
 50
131.4999999340773
 51
178.9999999980466
  0
ARC
  5
17B
330
154
100
AcDbEntity
  8
0
  6
Continuous
 62
     7
100
AcDbCircle
 10
73380.87201224412
 20
-20523.32130381417
 30
0.0
 40
5.0
100
AcDbArc
 50
1.000000003203777
 51
48.50000007921704
  0
ARC
  5
17C
330
154
100
AcDbEntity
  8
0
  6
Continuous
 62
     7
100
AcDbCircle
 10
73279.46879210071
 20
-20523.86787595177
 30
0.0
 40
4.000000091399999
100
AcDbArc
 50
38.68218754361594
 51
90.00000423468394
  0
ARC
  5
17D
330
154
100
AcDbEntity
  8
0
  6
Continuous
 62
     7
100
AcDbCircle
 10
73537.21475817471
 20
-20523.86787595177
 30
0.0
 40
4.000000082999999
100
AcDbArc
 50
89.99999642982542
 51
141.3178130167838
  0
ARC
  5
17E
330
154
100
AcDbEntity
  8
0
  6
Continuous
 62
     7
100
AcDbCircle
 10
73537.21475817471
 20
-20523.86787595177
 30
0.0
 40
12.000000083
100
AcDbArc
 50
89.99999642982542
 51
134.0415385286468
  0
ARC
  5
17F
330
154
100
AcDbEntity
  8
0
  6
Continuous
 62
     7
100
AcDbCircle
 10
73270.9697598871
 20
-20518.86787595177
 30
0.0
 40
4.000000079499999
100
AcDbArc
 50
270.0000085002171
 51
321.31781733917
  0
ARC
  5
180
330
154
100
AcDbEntity
  8
0
  6
Continuous
 62
     7
100
AcDbCircle
 10
73545.71379070931
 20
-20518.86787595177
 30
0.0
 40
4.000000053499999
100
AcDbArc
 50
218.6821793658163
 51
269.999986236235
  0
ARC
  5
181
330
154
100
AcDbEntity
  8
0
  6
Continuous
 62
     7
100
AcDbCircle
 10
73439.75299761961
 20
-20531.86787595177
 30
0.0
 40
4.0
100
AcDbArc
 50
270.0
 51
353.7965520837577
  0
ARC
  5
182
330
154
100
AcDbEntity
  8
0
  6
Continuous
 62
     7
100
AcDbCircle
 10
73376.93055261169
 20
-20531.86787595177
 30
0.0
 40
4.0
100
AcDbArc
 50
186.2034479130439
 51
270.0
  0
ARC
  5
183
330
154
100
AcDbEntity
  8
0
  6
Continuous
 62
     7
100
AcDbCircle
 10
73277.21475844581
 20
-20523.86787595177
 30
0.0
 40
4.0
100
AcDbArc
 50
90.00000031266125
 51
141.3178124058292
  0
ARC
  5
184
330
154
100
AcDbEntity
  8
0
  6
Continuous
 62
     7
100
AcDbCircle
 10
73539.46879178729
 20
-20523.86787595177
 30
0.0
 40
4.0
100
AcDbArc
 50
38.68218763671758
 51
89.99999974486842
  0
ARC
  5
185
330
154
100
AcDbEntity
  8
0
  6
Continuous
 62
     7
100
AcDbCircle
 10
73539.46879178729
 20
-20523.86787595177
 30
0.0
 40
12.0
100
AcDbArc
 50
48.59037789117101
 51
89.99999974486842
  0
ARC
  5
186
330
154
100
AcDbEntity
  8
0
  6
Continuous
 62
     7
100
AcDbCircle
 10
73285.71379354871
 20
-20518.86787595177
 30
0.0
 40
4.0
100
AcDbArc
 50
218.6821568422714
 51
269.9999514091071
  0
ARC
  5
187
330
154
100
AcDbEntity
  8
0
  6
Continuous
 62
     7
100
AcDbCircle
 10
73530.9697563426
 20
-20518.86787595177
 30
0.0
 40
4.0
100
AcDbArc
 50
270.0000534292215
 51
321.3178460313113
  0
ARC
  5
188
330
154
100
AcDbEntity
  8
0
  6
Continuous
 62
     7
100
AcDbCircle
 10
73526.1137738068
 20
-20518.86787595177
 30
0.0
 40
3.999999890899999
100
AcDbArc
 50
200.556059832587
 51
270.0000479864145
  0
ARC
  5
189
330
154
100
AcDbEntity
  8
0
  6
Continuous
 62
     7
100
AcDbCircle
 10
73290.5697769187
 20
-20518.86787595177
 30
0.0
 40
3.999999865799999
100
AcDbArc
 50
269.999945272609
 51
339.4439378321156
  0
ARC
  5
18A
330
154
100
AcDbEntity
  8
0
  6
Continuous
 62
     7
100
AcDbCircle
 10
73186.84177511559
 20
-20406.36787595177
 30
0.0
 40
3.5
100
AcDbArc
 50
14.90061216586397
 51
184.9170562789909
  0
ARC
  5
18B
330
154
100
AcDbEntity
  8
0
  6
Continuous
 62
     7
100
AcDbCircle
 10
73629.8417751156
 20
-20406.36787595177
 30
0.0
 40
3.5
100
AcDbArc
 50
355.0829437210091
 51
165.099387834136
  0
LINE
  5
18C
330
154
100
AcDbEntity
  8
0
  6
Continuous
 62
     7
100
AcDbLine
 10
73269.27750451082
 20
-20514.86787595177
 30
0.0
 11
73265.22548686146
 21
-20514.86787595177
 31
0.0
  0
LINE
  5
18D
330
154
100
AcDbEntity
  8
0
  6
Continuous
 62
     7
100
AcDbLine
 10
73277.21475844401
 20
-20511.86787595177
 30
0.0
 11
73279.46879208631
 21
-20511.86787595177
 31
0.0
  0
LWPOLYLINE
  5
18E
330
154
100
AcDbEntity
  8
0
  6
Continuous
 62
     7
100
AcDbPolyline
 90
       21
 70
     0
 43
0.0
 10
73265.22548686146
 20
-20514.86787595177
 10
73260.10332035394
 20
-20512.31411585193
 10
73253.30820435879
 20
-20508.67954000936
 10
73246.73675030755
 20
-20504.90284359406
 10
73240.64199592026
 20
-20501.14093172879
 10
73235.15472710059
 20
-20497.50991667978
 10
73230.25130368776
 20
-20494.03850375122
 10
73225.85269587421
 20
-20490.71086240313
 10
73221.78146314884
 20
-20487.41673153334
 10
73217.88501663525
 20
-20484.02926833501
 10
73214.16134760338
 20
-20480.51907389095
 10
73210.71800816155
 20
-20476.92693731022
 10
73207.60888269423
 20
-20473.22503232011
 10
73204.846203031
 20
-20469.3424764278
 10
73202.45416565264
 20
-20465.24565670744
 10
73200.43680516318
 20
-20460.93084061032
 10
73198.76384973551
 20
-20456.39776707053
 10
73197.38070913254
 20
-20451.62128545374
 10
73196.19354136077
 20
-20446.43312759066
 10
73195.13858613897
 20
-20440.65971455699
 10
73194.47301096971
 20
-20436.15569908913
  0
LWPOLYLINE
  5
18F
330
154
100
AcDbEntity
  8
0
  6
Continuous
 62
     7
100
AcDbPolyline
 90
       18
 70
     0
 43
0.0
 10
73194.47301096971
 20
-20436.15569908914
 10
73194.77957359478
 20
-20436.72205595396
 10
73198.87319562263
 20
-20443.37662034316
 10
73203.29310940413
 20
-20449.78352353422
 10
73208.0515076664
 20
-20455.97112732215
 10
73213.21475405619
 20
-20461.94371538252
 10
73218.85351440442
 20
-20467.61421376037
 10
73224.91280498881
 20
-20472.84777302598
 10
73231.27204161546
 20
-20477.6025520343
 10
73237.79186943777
 20
-20481.87636775536
 10
73244.38816988743
 20
-20485.77020234414
 10
73251.07132294684
 20
-20489.41757348456
 10
73257.85831325418
 20
-20492.85693896948
 10
73264.74727325633
 20
-20496.0901411762
 10
73271.9633945244
 20
-20499.21283601448
 10
73279.83698705827
 20
-20502.32689767464
 10
73288.7134258297
 20
-20505.48653019702
 10
73295.85325824861
 20
-20507.71834379328
  0
ARC
  5
190
330
154
100
AcDbEntity
  8
0
  6
Continuous
 62
     7
100
AcDbCircle
 10
73302.8197115663
 20
-20523.22539151387
 30
0.0
 40
17.0000000246
100
AcDbArc
 50
114.1917297317768
 51
151.9903384326864
  0
ARC
  5
191
330
154
100
AcDbEntity
  8
0
  6
Continuous
 62
     7
100
AcDbCircle
 10
73279.46879205661
 20
-20523.86787595177
 30
0.0
 40
12.000000083
100
AcDbArc
 50
45.95846147135313
 51
90.00000357017455
  0
ARC
  5
192
330
154
100
AcDbEntity
  8
0
  6
Continuous
 62
     7
100
AcDbCircle
 10
73277.21475844401
 20
-20523.86787595177
 30
0.0
 40
12.0
100
AcDbArc
 50
90.00000025429782
 51
131.409622108829
  0
LINE
  5
193
330
154
100
AcDbEntity
  8
轮廓线.
100
AcDbLine
 10
73384.18511248002
 20
-20519.57652520565
 30
0.0
 11
73432.49843774609
 21
-20519.57652521027
 31
0.0
  0
ENDBLK
  5
156
330
154
100
AcDbEntity
  8
0
100
AcDbBlockEnd
  0
ENDSEC
  0
SECTION
  2
ENTITIES
  0
LWPOLYLINE
  5
3F
330
2
100
AcDbEntity
  8
06___PRT_ALL_SURFS
  6
Continuous
 62
     7
100
AcDbPolyline
 90
       31
 70
     0
 43
0.0
 10
73408.34177511565
 20
-21153.75989079691
 10
73437.35691844205
 20
-21153.22913274911
 10
73466.04099713625
 20
-21151.29182851911
 10
73492.98377217495
 20
-21147.71906039981
 10
73518.15745737996
 20
-21142.46750743281
 10
73541.45031749226
 20
-21135.36398183511
 10
73562.43467336484
 20
-21125.98139812141
 10
73580.72691196245
 20
-21113.76493300471
 10
73595.66390011775
 20
-21098.23113968951
 10
73607.23155183174
 20
-21079.67903493371
 10
73615.98280396765
 20
-21058.97813434931
 10
73622.54574150425
 20
-21036.57151178311
 10
73627.41443354745
 20
-21012.72830183291
 10
73630.81229330124
 20
-20987.07939609831
 10
73632.75745274096
 20
-20959.08166419471
 10
73633.34176130065
 20
-20928.92333496221
 10
73632.77049593935
 20
-20898.74974930291
 10
73630.83957552185
 20
-20870.71477795661
 10
73627.45331931354
 20
-20845.02410069421
 10
73622.59271381296
 20
-20821.14116964031
 10
73616.03770738536
 20
-20798.69872000741
 10
73607.29554335716
 20
-20777.96655728421
 10
73595.73997658635
 20
-20759.38811012901
 10
73580.81825318014
 20
-20743.83038111591
 10
73562.53873074376
 20
-20731.59489643391
 10
73541.56239268194
 20
-20722.19705154161
 10
73518.27254742394
 20
-20715.08125045861
 10
73493.09726667385
 20
-20709.81997281231
 10
73466.15171293325
 20
-20706.23884922571
 10
73437.46431595127
 20
-20704.29494057541
 10
73408.34177511565
 20
-20703.75989079691
  0
LWPOLYLINE
  5
41
330
2
100
AcDbEntity
  8
06___PRT_ALL_SURFS
  6
Continuous
 62
     7
100
AcDbPolyline
 90
       31
 70
     0
 43
0.0
 10
73408.34177511565
 20
-20703.75989079691
 10
73379.32663179115
 20
-20704.29064884461
 10
73350.64255309673
 20
-20706.22795307451
 10
73323.69977805765
 20
-20709.80072119371
 10
73298.52609285245
 20
-20715.05227416071
 10
73275.23323273995
 20
-20722.15579975831
 10
73254.24887686704
 20
-20731.53838347201
 10
73235.95663826914
 20
-20743.75484858871
 10
73221.01965011365
 20
-20759.28864190401
 10
73209.45199839965
 20
-20777.84074665981
 10
73200.70074626374
 20
-20798.54164724421
 10
73194.13780872714
 20
-20820.94826981041
 10
73189.26911668385
 20
-20844.79147976061
 10
73185.87125693004
 20
-20870.44038549521
 10
73183.92609749034
 20
-20898.43811739881
 10
73183.34178893065
 20
-20928.59644663121
 10
73183.91305429196
 20
-20958.77003229051
 10
73185.84397470945
 20
-20986.80500363681
 10
73189.23023091764
 20
-21012.49568089931
 10
73194.09083641834
 20
-21036.37861195331
 10
73200.64584284586
 20
-21058.82106158621
 10
73209.38800687406
 20
-21079.55322430941
 10
73220.94357364495
 20
-21098.13167146481
 10
73235.86529705124
 20
-21113.68940047791
 10
73254.14481948786
 20
-21125.92488516011
 10
73275.12115754995
 20
-21135.32273005241
 10
73298.41100280825
 20
-21142.43853113531
 10
73323.58628355865
 20
-21147.69980878171
 10
73350.53183729945
 20
-21151.28093236821
 10
73379.21923428176
 20
-21153.22484101841
 10
73408.34177511565
 20
-21153.75989079691
  0
CIRCLE
  5
5F
330
2
100
AcDbEntity
  8
0
  6
Continuous
 62
     7
100
AcDbCircle
 10
73408.34177511565
 20
-20928.75989079691
 30
0.0
 40
34.0
  0
CIRCLE
  5
60
330
2
100
AcDbEntity
  8
0
  6
Continuous
 62
     7
100
AcDbCircle
 10
73408.34177511565
 20
-20928.75989079691
 30
0.0
 40
22.25
  0
MTEXT
  5
BF
330
2
100
AcDbEntity
  8
尺寸标注
100
AcDbMText
 10
73409.56131675173
 20
-20035.59470660655
 30
0.0
 40
75.0
 41
801.6353349369019
 71
     2
 72
     5
  1
SCALE\P1:1
 73
     1
 44
1.0
  0
LWPOLYLINE
  5
118
330
2
100
AcDbEntity
  8
0
  6
Continuous
 62
     7
100
AcDbPolyline
 90
       25
 70
     0
 43
0.0
 10
73183.35465588579
 20
-20406.66787507977
 10
73183.9813224673
 20
-20413.83817778157
 10
73184.66384969539
 20
-20421.16458066877
 10
73185.41773571578
 20
-20428.38970024757
 10
73186.25883416809
 20
-20435.28589405537
 10
73187.20220480689
 20
-20441.70499045478
 10
73188.2686018462
 20
-20447.61505370047
 10
73189.4926707345
 20
-20453.07398282797
 10
73190.9585377511
 20
-20458.27415250797
 10
73192.7872455629
 20
-20463.37877682467
 10
73195.0467924985
 20
-20468.35449469817
 10
73197.742320692
 20
-20473.09754749388
 10
73200.8497223109
 20
-20477.56939284408
 10
73204.31253347139
 20
-20481.77196598207
 10
73208.0701718591
 20
-20485.74834811947
 10
73212.05440659869
 20
-20489.54326142337
 10
73216.20157431349
 20
-20493.17874940117
 10
73220.5377948503
 20
-20496.71066051037
 10
73225.23515785359
 20
-20500.28171161267
 10
73230.49024778589
 20
-20504.01279523577
 10
73236.33866202489
 20
-20507.88610357137
 10
73242.71593028529
 20
-20511.82065256287
 10
73249.4801928752
 20
-20515.70552734647
 10
73256.43263227549
 20
-20519.42320739467
 10
73263.34177567799
 20
-20522.86787622267
  0
LINE
  5
119
330
2
100
AcDbEntity
  8
0
  6
Continuous
 62
     7
100
AcDbLine
 10
73439.75299761959
 20
-20535.86787595177
 30
0.0
 11
73376.93055261169
 21
-20535.86787595177
 31
0.0
  0
LINE
  5
11A
330
2
100
AcDbEntity
  8
0
  6
Continuous
 62
     7
100
AcDbLine
 10
73372.9539747595
 20
-20532.30011267487
 30
0.0
 11
73372.8858444089
 21
-20531.67331345007
 31
0.0
  0
LINE
  5
11B
330
2
100
AcDbEntity
  8
0
  6
Continuous
 62
     7
100
AcDbLine
 10
73263.34177511559
 20
-20522.86787595177
 30
0.0
 11
73284.5125933905
 21
-20522.86787595177
 31
0.0
  0
LINE
  5
11C
330
2
100
AcDbEntity
  8
0
  6
Continuous
 62
     7
100
AcDbLine
 10
73531.63629247369
 20
-20522.86787595177
 30
0.0
 11
73553.3417751156
 21
-20522.86787595177
 31
0.0
  0
LINE
  5
11D
330
2
100
AcDbEntity
  8
0
  6
Continuous
 62
     7
100
AcDbLine
 10
73530.96975634219
 20
-20522.86787595177
 30
0.0
 11
73452.6168694806
 21
-20522.86787595177
 31
0.0
  0
LINE
  5
11E
330
2
100
AcDbEntity
  8
0
  6
Continuous
 62
     7
100
AcDbLine
 10
73364.06667709041
 20
-20522.86787595177
 30
0.0
 11
73285.71379388909
 21
-20522.86787595177
 31
0.0
  0
LINE
  5
11F
330
2
100
AcDbEntity
  8
0
  6
Continuous
 62
     7
100
AcDbLine
 10
73443.72957547179
 20
-20532.30011267487
 30
0.0
 11
73443.79770581371
 21
-20531.67331353007
 31
0.0
  0
LINE
  5
120
330
2
100
AcDbEntity
  8
0
  6
Continuous
 62
     7
100
AcDbLine
 10
73629.84219146304
 20
-20402.86787597654
 30
0.0
 11
73186.83132487409
 21
-20402.86789155298
 31
0.0
  0
LWPOLYLINE
  5
121
330
2
100
AcDbEntity
  8
0
  6
Continuous
 62
     7
100
AcDbPolyline
 90
       25
 70
     0
 43
0.0
 10
73553.34177427479
 20
-20522.86787635678
 10
73560.2523431116
 20
-20519.42247196847
 10
73567.255981221
 20
-20515.67636168857
 10
73574.0419056189
 20
-20511.77640649627
 10
73580.3509458818
 20
-20507.88222932107
 10
73586.0485490994
 20
-20504.11203257907
 10
73591.15797195
 20
-20500.49478090657
 10
73595.76150034759
 20
-20497.01211273237
 10
73600.04411838819
 20
-20493.54694499507
 10
73604.16885767159
 20
-20489.96101035527
 10
73608.15718146439
 20
-20486.20133356907
 10
73611.92257593729
 20
-20482.27322498278
 10
73615.406969366
 20
-20478.12450420687
 10
73618.5643747857
 20
-20473.68721703968
 10
73621.321914569
 20
-20468.96440481857
 10
73623.63582393409
 20
-20464.01531742047
 10
73625.5242204509
 20
-20458.89848038977
 10
73627.0504895906
 20
-20453.62772449377
 10
73628.32790964541
 20
-20448.04514631128
 10
73629.43912553199
 20
-20441.96383769237
 10
73630.41319959689
 20
-20435.37217854118
 10
73631.26617116789
 20
-20428.38651774897
 10
73632.020194927
 20
-20421.15952376657
 10
73632.70035742001
 20
-20413.85908358197
 10
73633.32889434389
 20
-20406.66787509898
  0
ARC
  5
122
330
2
100
AcDbEntity
  8
0
  6
Continuous
 62
     7
100
AcDbCircle
 10
73453.73912223419
 20
-20532.75390489827
 30
0.0
 40
9.999993845
100
AcDbArc
 50
91.65308071546906
 51
173.7965357197417
  0
ARC
  5
123
330
2
100
AcDbEntity
  8
0
  6
Continuous
 62
     7
100
AcDbCircle
 10
73362.94442818849
 20
-20532.75390530977
 30
0.0
 40
9.999993811199999
100
AcDbArc
 50
6.203467203379959
 51
88.34691937711719
  0
ARC
  5
124
330
2
100
AcDbEntity
  8
0
  6
Continuous
 62
     7
100
AcDbCircle
 10
73439.75299761959
 20
-20531.86787595177
 30
0.0
 40
4.0
100
AcDbArc
 50
270.0
 51
353.7965520837579
  0
ARC
  5
125
330
2
100
AcDbEntity
  8
0
  6
Continuous
 62
     7
100
AcDbCircle
 10
73376.93055261169
 20
-20531.86787595177
 30
0.0
 40
4.0
100
AcDbArc
 50
186.2034479130437
 51
270.0
  0
ARC
  5
126
330
2
100
AcDbEntity
  8
0
  6
Continuous
 62
     7
100
AcDbCircle
 10
73186.84177511559
 20
-20406.36787595177
 30
0.0
 40
3.5
100
AcDbArc
 50
89.82893049854324
 51
184.9170562791983
  0
ARC
  5
127
330
2
100
AcDbEntity
  8
0
  6
Continuous
 62
     7
100
AcDbCircle
 10
73629.8417751156
 20
-20406.36787595177
 30
0.0
 40
3.5
100
AcDbArc
 50
355.0829437208015
 51
90.00681977047959
  0
LINE
  5
129
330
2
100
AcDbEntity
  8
轮廓线.
100
AcDbLine
 10
73363.23290498041
 20
-20522.75807331016
 30
0.0
 11
73453.45064542508
 21
-20522.75807286534
 31
0.0
  0
LWPOLYLINE
  5
19B
330
2
100
AcDbEntity
  8
0
  6
Continuous
 62
     7
100
AcDbPolyline
 90
       25
 70
     0
 43
0.0
 10
73787.08494483022
 20
-20406.66787507977
 10
73787.71161141172
 20
-20413.83817778157
 10
73788.39413863982
 20
-20421.16458066877
 10
73789.14802466021
 20
-20428.38970024757
 10
73789.98912311252
 20
-20435.28589405537
 10
73790.93249375132
 20
-20441.70499045478
 10
73791.99889079062
 20
-20447.61505370047
 10
73793.22295967893
 20
-20453.07398282797
 10
73794.68882669552
 20
-20458.27415250797
 10
73796.51753450732
 20
-20463.37877682467
 10
73798.77708144293
 20
-20468.35449469817
 10
73801.47260963643
 20
-20473.09754749388
 10
73804.58001125533
 20
-20477.56939284408
 10
73808.04282241582
 20
-20481.77196598207
 10
73811.80046080353
 20
-20485.74834811947
 10
73815.78469554312
 20
-20489.54326142337
 10
73819.93186325792
 20
-20493.17874940117
 10
73824.26808379473
 20
-20496.71066051037
 10
73828.96544679801
 20
-20500.28171161267
 10
73834.22053673032
 20
-20504.01279523577
 10
73840.06895096931
 20
-20507.88610357137
 10
73846.44621922972
 20
-20511.82065256287
 10
73853.21048181962
 20
-20515.70552734647
 10
73860.16292121992
 20
-20519.42320739467
 10
73867.07206462242
 20
-20522.86787622267
  0
LINE
  5
19C
330
2
100
AcDbEntity
  8
0
  6
Continuous
 62
     7
100
AcDbLine
 10
74043.48328656402
 20
-20535.86787595177
 30
0.0
 11
73980.66084155612
 21
-20535.86787595177
 31
0.0
  0
LINE
  5
19D
330
2
100
AcDbEntity
  8
0
  6
Continuous
 62
     7
100
AcDbLine
 10
73976.68426370392
 20
-20532.30011267487
 30
0.0
 11
73976.61613335333
 21
-20531.67331345007
 31
0.0
  0
LINE
  5
19E
330
2
100
AcDbEntity
  8
0
  6
Continuous
 62
     7
100
AcDbLine
 10
73867.07206406001
 20
-20522.86787595177
 30
0.0
 11
73888.24288233491
 21
-20522.86787595177
 31
0.0
  0
LINE
  5
19F
330
2
100
AcDbEntity
  8
0
  6
Continuous
 62
     7
100
AcDbLine
 10
74135.36658141811
 20
-20522.86787595177
 30
0.0
 11
74157.07206406001
 21
-20522.86787595177
 31
0.0
  0
LINE
  5
1A0
330
2
100
AcDbEntity
  8
0
  6
Continuous
 62
     7
100
AcDbLine
 10
74134.70004528662
 20
-20522.86787595177
 30
0.0
 11
74056.34715842502
 21
-20522.86787595177
 31
0.0
  0
LINE
  5
1A1
330
2
100
AcDbEntity
  8
0
  6
Continuous
 62
     7
100
AcDbLine
 10
73967.79696603483
 20
-20522.86787595177
 30
0.0
 11
73889.44408283352
 21
-20522.86787595177
 31
0.0
  0
LINE
  5
1A2
330
2
100
AcDbEntity
  8
0
  6
Continuous
 62
     7
100
AcDbLine
 10
74047.45986441621
 20
-20532.30011267487
 30
0.0
 11
74047.52799475812
 21
-20531.67331353007
 31
0.0
  0
LINE
  5
1A3
330
2
100
AcDbEntity
  8
0
  6
Continuous
 62
     7
100
AcDbLine
 10
74233.57248040747
 20
-20402.86787597654
 30
0.0
 11
73790.56161381852
 21
-20402.86789155298
 31
0.0
  0
LWPOLYLINE
  5
1A4
330
2
100
AcDbEntity
  8
0
  6
Continuous
 62
     7
100
AcDbPolyline
 90
       25
 70
     0
 43
0.0
 10
74157.07206321922
 20
-20522.86787635678
 10
74163.98263205603
 20
-20519.42247196847
 10
74170.98627016541
 20
-20515.67636168857
 10
74177.77219456333
 20
-20511.77640649627
 10
74184.08123482622
 20
-20507.88222932107
 10
74189.77883804383
 20
-20504.11203257907
 10
74194.88826089443
 20
-20500.49478090657
 10
74199.49178929202
 20
-20497.01211273237
 10
74203.77440733262
 20
-20493.54694499507
 10
74207.89914661602
 20
-20489.96101035527
 10
74211.88747040882
 20
-20486.20133356907
 10
74215.65286488172
 20
-20482.27322498278
 10
74219.13725831042
 20
-20478.12450420687
 10
74222.29466373012
 20
-20473.68721703968
 10
74225.05220351342
 20
-20468.96440481857
 10
74227.36611287851
 20
-20464.01531742047
 10
74229.25450939533
 20
-20458.89848038977
 10
74230.78077853503
 20
-20453.62772449377
 10
74232.05819858983
 20
-20448.04514631128
 10
74233.16941447642
 20
-20441.96383769237
 10
74234.14348854132
 20
-20435.37217854118
 10
74234.99646011232
 20
-20428.38651774897
 10
74235.75048387142
 20
-20421.15952376657
 10
74236.43064636443
 20
-20413.85908358197
 10
74237.05918328832
 20
-20406.66787509898
  0
ARC
  5
1A5
330
2
100
AcDbEntity
  8
0
  6
Continuous
 62
     7
100
AcDbCircle
 10
74057.46941117862
 20
-20532.75390489827
 30
0.0
 40
9.999993845
100
AcDbArc
 50
91.65308071546906
 51
173.7965357197415
  0
ARC
  5
1A6
330
2
100
AcDbEntity
  8
0
  6
Continuous
 62
     7
100
AcDbCircle
 10
73966.67471713292
 20
-20532.75390530977
 30
0.0
 40
9.999993811199999
100
AcDbArc
 50
6.203467203380235
 51
88.34691937711721
  0
ARC
  5
1A7
330
2
100
AcDbEntity
  8
0
  6
Continuous
 62
     7
100
AcDbCircle
 10
74043.48328656402
 20
-20531.86787595177
 30
0.0
 40
4.0
100
AcDbArc
 50
270.0
 51
353.7965520837581
  0
ARC
  5
1A8
330
2
100
AcDbEntity
  8
0
  6
Continuous
 62
     7
100
AcDbCircle
 10
73980.66084155612
 20
-20531.86787595177
 30
0.0
 40
4.0
100
AcDbArc
 50
186.2034479130434
 51
270.0
  0
ARC
  5
1A9
330
2
100
AcDbEntity
  8
0
  6
Continuous
 62
     7
100
AcDbCircle
 10
73790.57206406002
 20
-20406.36787595177
 30
0.0
 40
3.5
100
AcDbArc
 50
89.82893049854324
 51
184.917056279198
  0
ARC
  5
1AA
330
2
100
AcDbEntity
  8
0
  6
Continuous
 62
     7
100
AcDbCircle
 10
74233.57206406002
 20
-20406.36787595177
 30
0.0
 40
3.5
100
AcDbArc
 50
355.0829437208017
 51
90.00681977047959
  0
LINE
  5
1AB
330
2
100
AcDbEntity
  8
轮廓线.
100
AcDbLine
 10
73966.96319392483
 20
-20522.75807331016
 30
0.0
 11
74057.1809343695
 21
-20522.75807286534
 31
0.0
  0
ENDSEC
  0
SECTION
  2
OBJECTS
  0
DICTIONARY
  5
9
330
0
100
AcDbDictionary
281
     1
  3
ACAD_COLOR
350
37
  3
ACAD_GROUP
350
32
  3
ACAD_LAYOUT
350
F
  3
ACAD_MATERIAL
350
B
  3
ACAD_MLEADERSTYLE
350
1D6
  3
ACAD_MLINESTYLE
350
33
  3
ACAD_PLOTSETTINGS
350
34
  3
ACAD_PLOTSTYLENAME
350
8
  3
ACAD_SCALELIST
350
1B4
  3
ACAD_TABLESTYLE
350
38
  3
ACAD_VISUALSTYLE
350
26
  3
ACDB_RECOMPOSE_DATA
350
1E5
  3
ACDBHEADERROUNDTRIPXREC
350
1DF
  3
AcDbVariableDictionary
350
C3
  0
DICTIONARY
  5
16
330
15
100
AcDbDictionary
280
     1
281
     1
  3
ACAD_LAYERFILTERS
360
17
  3
ACAD_LAYERSTATES
360
18
  3
ACLYDICTIONARY
360
19
  0
DICTIONARY
  5
3
330
2
100
AcDbDictionary
280
     1
281
     1
  3
ACAD_SORTENTS
360
C1
  0
DICTIONARY
  5
37
102
{ACAD_REACTORS
330
9
102
}
330
9
100
AcDbDictionary
281
     1
  0
DICTIONARY
  5
32
102
{ACAD_REACTORS
330
9
102
}
330
9
100
AcDbDictionary
281
     1
  0
DICTIONARY
  5
F
102
{ACAD_REACTORS
330
9
102
}
330
9
100
AcDbDictionary
281
     1
  3
Model
350
E
  3
布局1
350
14
  0
DICTIONARY
  5
B
102
{ACAD_REACTORS
330
9
102
}
330
9
100
AcDbDictionary
281
     1
  3
ByBlock
350
36
  3
ByLayer
350
35
  3
Global
350
A
  0
DICTIONARY
  5
1D6
102
{ACAD_REACTORS
330
9
102
}
330
9
100
AcDbDictionary
281
     1
  3
Standard
350
1D7
  0
DICTIONARY
  5
33
102
{ACAD_REACTORS
330
9
102
}
330
9
100
AcDbDictionary
281
     1
  3
Standard
350
3B
  0
DICTIONARY
  5
34
102
{ACAD_REACTORS
330
9
102
}
330
9
100
AcDbDictionary
281
     1
  0
ACDBDICTIONARYWDFLT
  5
8
102
{ACAD_REACTORS
330
9
102
}
330
9
100
AcDbDictionary
281
     1
  3
Normal
350
7
100
AcDbDictionaryWithDefault
340
7
  0
DICTIONARY
  5
1B4
102
{ACAD_REACTORS
330
9
102
}
330
9
100
AcDbDictionary
281
     1
  3
A0
350
1B5
  3
A1
350
1B6
  3
A2
350
1B7
  3
A3
350
1B8
  3
A4
350
1B9
  3
A5
350
1BA
  3
A6
350
1BB
  3
A7
350
1BC
  3
A8
350
1BD
  3
A9
350
1BE
  3
B0
350
1BF
  3
B1
350
1C0
  3
B2
350
1C1
  3
B3
350
1C2
  3
B4
350
1C3
  3
B5
350
1C4
  3
B6
350
1C5
  3
B7
350
1C6
  3
B8
350
1C7
  3
B9
350
1C8
  3
C0
350
1C9
  3
C1
350
1CA
  3
C2
350
1CB
  3
C3
350
1CC
  3
C4
350
1CD
  3
C5
350
1CE
  3
C6
350
1CF
  3
C7
350
1D0
  3
C8
350
1D1
  3
C9
350
1D2
  3
D0
350
1D3
  3
D1
350
1D4
  3
D2
350
1D5
  0
DICTIONARY
  5
38
102
{ACAD_REACTORS
330
9
102
}
330
9
100
AcDbDictionary
281
     1
  3
Standard
350
3C
  0
DICTIONARY
  5
26
102
{ACAD_REACTORS
330
9
102
}
330
9
100
AcDbDictionary
281
     1
  3
2dWireframe
350
25
  3
3D Hidden
350
CC
  3
3dWireframe
350
3E
  3
Basic
350
CB
  3
Brighten
350
CF
  3
ColorChange
350
D3
  3
Conceptual
350
CD
  3
Dim
350
CE
  3
Facepattern
350
D2
  3
Flat
350
C7
  3
FlatWithEdges
350
C8
  3
Gouraud
350
C9
  3
GouraudWithEdges
350
CA
  3
Linepattern
350
D1
  3
Realistic
350
3D
  3
Thicken
350
D0
  0
XRECORD
  5
1E5
102
{ACAD_REACTORS
330
9
102
}
330
9
100
AcDbXrecord
280
     1
 90
        1
330
3C
  0
DICTIONARY
  5
1DF
102
{ACAD_REACTORS
330
9
102
}
330
9
100
AcDbDictionary
281
     1
  0
DICTIONARY
  5
C3
102
{ACAD_REACTORS
330
9
102
}
330
9
100
AcDbDictionary
281
     1
  3
CMLEADERSTYLE
350
1DD
  3
CTABLESTYLE
350
C4
  3
FIELDEVAL
350
C5
  0
DICTIONARY
  5
17
102
{ACAD_REACTORS
330
16
102
}
330
16
100
AcDbDictionary
281
     1
  0
DICTIONARY
  5
18
102
{ACAD_REACTORS
330
16
102
}
330
16
100
AcDbDictionary
281
     1
  0
DICTIONARY
  5
19
102
{ACAD_REACTORS
330
16
102
}
330
16
100
AcDbDictionary
281
     1
1001
ACAD
1000
<All
  0
SORTENTSTABLE
  5
C1
102
{ACAD_REACTORS
330
3
102
}
330
3
100
AcDbSortentsTable
330
2
  0
LAYOUT
  5
E
102
{ACAD_REACTORS
330
F
102
}
330
F
100
AcDbPlotSettings
  1

  2
none_device
  4
ISO_A4_(210.00_x_297.00_MM)
  6

 40
7.5
 41
20.0
 42
7.5
 43
20.0
 44
210.0
 45
297.0
 46
11.54999923706054
 47
-13.65000009536743
 48
0.0
 49
0.0
140
0.0
141
0.0
142
1.0
143
8.704084754739808
 70
 11952
 72
     1
 73
     0
 74
     0
  7
acad.ctb
 75
     0
147
0.1148885871608098
 76
     0
 77
     2
 78
   300
148
0.0
149
0.0
100
AcDbLayout
  1
Model
 70
     1
 71
     0
 10
0.0
 20
0.0
 11
12.0
 21
9.0
 12
0.0
 22
0.0
 32
0.0
 14
0.0
 24
0.0
 34
0.0
 15
0.0
 25
0.0
 35
0.0
146
0.0
 13
0.0
 23
0.0
 33
0.0
 16
1.0
 26
0.0
 36
0.0
 17
0.0
 27
1.0
 37
0.0
 76
     0
330
2
331
24
1001
ACAD_PSEXT
1000
None
1000
None
1000
Not applicable
1000
The layout will not be plotted unless a new plotter configuration name is selected.
1070
     0
  0
LAYOUT
  5
14
102
{ACAD_REACTORS
330
F
102
}
330
F
100
AcDbPlotSettings
  1

  2
C:\Documents and Settings\basas\Application Data\Autodesk\AutoCAD 2005\R16.1\enu\plotters\Default Windows System Printer.pc3
  4

  6

 40
0.0
 41
0.0
 42
0.0
 43
0.0
 44
0.0
 45
0.0
 46
0.0
 47
0.0
 48
0.0
 49
0.0
140
0.0
141
0.0
142
1.0
143
1.0
 70
   688
 72
     0
 73
     0
 74
     5
  7
acad.ctb
 75
    16
147
1.0
 76
     0
 77
     2
 78
   300
148
0.0
149
0.0
100
AcDbLayout
  1
布局1
 70
     1
 71
     1
 10
0.0
 20
0.0
 11
12.0
 21
9.0
 12
0.0
 22
0.0
 32
0.0
 14
0.0
 24
0.0
 34
0.0
 15
0.0
 25
0.0
 35
0.0
146
0.0
 13
0.0
 23
0.0
 33
0.0
 16
1.0
 26
0.0
 36
0.0
 17
0.0
 27
1.0
 37
0.0
 76
     0
330
11
  0
MATERIAL
  5
36
102
{ACAD_REACTORS
330
B
102
}
330
B
100
AcDbMaterial
  1
ByBlock
  2

  0
MATERIAL
  5
35
102
{ACAD_REACTORS
330
B
102
}
330
B
100
AcDbMaterial
  1
ByLayer
  2

  0
MATERIAL
  5
A
102
{ACAD_REACTORS
330
B
102
}
330
B
100
AcDbMaterial
  1
Global
  2

  0
MLEADERSTYLE
  5
1D7
102
{ACAD_REACTORS
330
1D6
102
}
330
1D6
100
AcDbMLeaderStyle
170
     2
171
     1
172
     0
 90
        2
 40
0.0
 41
0.0
173
     1
 91
-1056964608
340
1F
 92
       -2
290
     1
 42
0.09
291
     1
 43
8.0
  3
Standard
341
0
 44
0.18
300

342
1C
174
     1
178
     1
175
     1
176
     0
 93
-1056964608
 45
0.18
292
     0
297
     0
 46
0.18
343
0
 94
-1056964608
 47
1.0
 49
1.0
140
1.0
293
     1
141
0.0
294
     1
177
     0
142
1.0
295
     0
296
     0
143
3.75
1001
ACAD_MLEADERVER
1070
     2
  0
MLINESTYLE
  5
3B
102
{ACAD_REACTORS
330
33
102
}
330
33
100
AcDbMlineStyle
  2
STANDARD
 70
     0
  3

 62
   256
 51
90.0
 52
90.0
 71
     2
 49
0.5
 62
   256
  6
BYLAYER
 49
-0.5
 62
   256
  6
BYLAYER
  0
ACDBPLACEHOLDER
  5
7
102
{ACAD_REACTORS
330
8
102
}
330
8
  0
SCALE
  5
1B5
102
{ACAD_REACTORS
330
1B4
102
}
330
1B4
100
AcDbScale
 70
     0
300
1:1
140
1.0
141
1.0
290
     1
  0
SCALE
  5
1B6
102
{ACAD_REACTORS
330
1B4
102
}
330
1B4
100
AcDbScale
 70
     0
300
1:2
140
1.0
141
2.0
290
     0
  0
SCALE
  5
1B7
102
{ACAD_REACTORS
330
1B4
102
}
330
1B4
100
AcDbScale
 70
     0
300
1:4
140
1.0
141
4.0
290
     0
  0
SCALE
  5
1B8
102
{ACAD_REACTORS
330
1B4
102
}
330
1B4
100
AcDbScale
 70
     0
300
1:5
140
1.0
141
5.0
290
     0
  0
SCALE
  5
1B9
102
{ACAD_REACTORS
330
1B4
102
}
330
1B4
100
AcDbScale
 70
     0
300
1:8
140
1.0
141
8.0
290
     0
  0
SCALE
  5
1BA
102
{ACAD_REACTORS
330
1B4
102
}
330
1B4
100
AcDbScale
 70
     0
300
1:10
140
1.0
141
10.0
290
     0
  0
SCALE
  5
1BB
102
{ACAD_REACTORS
330
1B4
102
}
330
1B4
100
AcDbScale
 70
     0
300
1:16
140
1.0
141
16.0
290
     0
  0
SCALE
  5
1BC
102
{ACAD_REACTORS
330
1B4
102
}
330
1B4
100
AcDbScale
 70
     0
300
1:20
140
1.0
141
20.0
290
     0
  0
SCALE
  5
1BD
102
{ACAD_REACTORS
330
1B4
102
}
330
1B4
100
AcDbScale
 70
     0
300
1:30
140
1.0
141
30.0
290
     0
  0
SCALE
  5
1BE
102
{ACAD_REACTORS
330
1B4
102
}
330
1B4
100
AcDbScale
 70
     0
300
1:40
140
1.0
141
40.0
290
     0
  0
SCALE
  5
1BF
102
{ACAD_REACTORS
330
1B4
102
}
330
1B4
100
AcDbScale
 70
     0
300
1:50
140
1.0
141
50.0
290
     0
  0
SCALE
  5
1C0
102
{ACAD_REACTORS
330
1B4
102
}
330
1B4
100
AcDbScale
 70
     0
300
1:100
140
1.0
141
100.0
290
     0
  0
SCALE
  5
1C1
102
{ACAD_REACTORS
330
1B4
102
}
330
1B4
100
AcDbScale
 70
     0
300
2:1
140
2.0
141
1.0
290
     0
  0
SCALE
  5
1C2
102
{ACAD_REACTORS
330
1B4
102
}
330
1B4
100
AcDbScale
 70
     0
300
4:1
140
4.0
141
1.0
290
     0
  0
SCALE
  5
1C3
102
{ACAD_REACTORS
330
1B4
102
}
330
1B4
100
AcDbScale
 70
     0
300
8:1
140
8.0
141
1.0
290
     0
  0
SCALE
  5
1C4
102
{ACAD_REACTORS
330
1B4
102
}
330
1B4
100
AcDbScale
 70
     0
300
10:1
140
10.0
141
1.0
290
     0
  0
SCALE
  5
1C5
102
{ACAD_REACTORS
330
1B4
102
}
330
1B4
100
AcDbScale
 70
     0
300
100:1
140
100.0
141
1.0
290
     0
  0
SCALE
  5
1C6
102
{ACAD_REACTORS
330
1B4
102
}
330
1B4
100
AcDbScale
 70
     0
300
1/128" = 1'-0"
140
0.0078125
141
12.0
290
     0
  0
SCALE
  5
1C7
102
{ACAD_REACTORS
330
1B4
102
}
330
1B4
100
AcDbScale
 70
     0
300
1/64" = 1'-0"
140
0.015625
141
12.0
290
     0
  0
SCALE
  5
1C8
102
{ACAD_REACTORS
330
1B4
102
}
330
1B4
100
AcDbScale
 70
     0
300
1/32" = 1'-0"
140
0.03125
141
12.0
290
     0
  0
SCALE
  5
1C9
102
{ACAD_REACTORS
330
1B4
102
}
330
1B4
100
AcDbScale
 70
     0
300
1/16" = 1'-0"
140
0.0625
141
12.0
290
     0
  0
SCALE
  5
1CA
102
{ACAD_REACTORS
330
1B4
102
}
330
1B4
100
AcDbScale
 70
     0
300
3/32" = 1'-0"
140
0.09375
141
12.0
290
     0
  0
SCALE
  5
1CB
102
{ACAD_REACTORS
330
1B4
102
}
330
1B4
100
AcDbScale
 70
     0
300
1/8" = 1'-0"
140
0.125
141
12.0
290
     0
  0
SCALE
  5
1CC
102
{ACAD_REACTORS
330
1B4
102
}
330
1B4
100
AcDbScale
 70
     0
300
3/16" = 1'-0"
140
0.1875
141
12.0
290
     0
  0
SCALE
  5
1CD
102
{ACAD_REACTORS
330
1B4
102
}
330
1B4
100
AcDbScale
 70
     0
300
1/4" = 1'-0"
140
0.25
141
12.0
290
     0
  0
SCALE
  5
1CE
102
{ACAD_REACTORS
330
1B4
102
}
330
1B4
100
AcDbScale
 70
     0
300
3/8" = 1'-0"
140
0.375
141
12.0
290
     0
  0
SCALE
  5
1CF
102
{ACAD_REACTORS
330
1B4
102
}
330
1B4
100
AcDbScale
 70
     0
300
1/2" = 1'-0"
140
0.5
141
12.0
290
     0
  0
SCALE
  5
1D0
102
{ACAD_REACTORS
330
1B4
102
}
330
1B4
100
AcDbScale
 70
     0
300
3/4" = 1'-0"
140
0.75
141
12.0
290
     0
  0
SCALE
  5
1D1
102
{ACAD_REACTORS
330
1B4
102
}
330
1B4
100
AcDbScale
 70
     0
300
1" = 1'-0"
140
1.0
141
12.0
290
     0
  0
SCALE
  5
1D2
102
{ACAD_REACTORS
330
1B4
102
}
330
1B4
100
AcDbScale
 70
     0
300
1-1/2" = 1'-0"
140
1.5
141
12.0
290
     0
  0
SCALE
  5
1D3
102
{ACAD_REACTORS
330
1B4
102
}
330
1B4
100
AcDbScale
 70
     0
300
3" = 1'-0"
140
3.0
141
12.0
290
     0
  0
SCALE
  5
1D4
102
{ACAD_REACTORS
330
1B4
102
}
330
1B4
100
AcDbScale
 70
     0
300
6" = 1'-0"
140
6.0
141
12.0
290
     0
  0
SCALE
  5
1D5
102
{ACAD_REACTORS
330
1B4
102
}
330
1B4
100
AcDbScale
 70
     0
300
1'-0" = 1'-0"
140
12.0
141
12.0
290
     0
  0
TABLESTYLE
  5
3C
102
{ACAD_XDICTIONARY
360
1E2
102
}
102
{ACAD_REACTORS
330
38
102
}
330
38
100
AcDbTableStyle
  3
Standard
 70
     0
 71
     0
 40
1.5
 41
1.5
280
     0
281
     0
  7
Standard
140
4.5
170
     2
 62
     0
 63
   257
283
     0
274
    -2
284
     1
 64
     0
275
    -2
285
     1
 65
     0
276
    -2
286
     1
 66
     0
277
    -2
287
     1
 67
     0
278
    -2
288
     1
 68
     0
279
    -2
289
     1
 69
     0
  7
Standard
140
6.0
170
     5
 62
     0
 63
   257
283
     0
274
    -2
284
     1
 64
     0
275
    -2
285
     1
 65
     0
276
    -2
286
     1
 66
     0
277
    -2
287
     1
 67
     0
278
    -2
288
     1
 68
     0
279
    -2
289
     1
 69
     0
  7
Standard
140
4.5
170
     5
 62
     0
 63
   257
283
     0
274
    -2
284
     1
 64
     0
275
    -2
285
     1
 65
     0
276
    -2
286
     1
 66
     0
277
    -2
287
     1
 67
     0
278
    -2
288
     1
 68
     0
279
    -2
289
     1
 69
     0
  0
VISUALSTYLE
  5
25
102
{ACAD_XDICTIONARY
360
1E0
102
}
102
{ACAD_REACTORS
330
26
102
}
330
26
100
AcDbVisualStyle
  2
2dWireframe
 70
     4
 71
     0
 72
     2
 73
     1
 90
        0
 40
-0.6
 41
-30.0
 62
     5
 63
     7
421
 16777215
 74
     1
 91
        4
 64
     7
 65
   257
 75
     1
175
     1
 42
1.0
 92
        0
 66
   257
 43
1.0
 76
     1
 77
     6
 78
     2
 67
     7
 79
     5
170
     0
171
     0
290
     0
174
     0
 93
        1
 44
0.0
173
     0
291
     0
 45
0.0
1001
ACAD
1000
AcDbSavedByObjectVersion
1070
     0
  0
VISUALSTYLE
  5
CC
102
{ACAD_XDICTIONARY
360
1F4
102
}
102
{ACAD_REACTORS
330
26
102
}
330
26
100
AcDbVisualStyle
  2
3D Hidden
 70
     6
 71
     1
 72
     2
 73
     2
 90
        0
 40
-0.6
 41
-30.0
 62
     5
 63
     7
421
 16777215
 74
     2
 91
        2
 64
     7
 65
   257
 75
     2
175
     1
 42
40.0
 92
        0
 66
   257
 43
1.0
 76
     1
 77
     6
 78
     2
 67
     7
 79
     3
170
     0
171
     0
290
     0
174
     0
 93
        1
 44
0.0
173
     0
291
     0
 45
0.0
1001
ACAD
1000
AcDbSavedByObjectVersion
1070
     0
  0
VISUALSTYLE
  5
3E
102
{ACAD_XDICTIONARY
360
1E8
102
}
102
{ACAD_REACTORS
330
26
102
}
330
26
100
AcDbVisualStyle
  2
3dWireframe
 70
     5
 71
     0
 72
     2
 73
     1
 90
        0
 40
-0.6
 41
-30.0
 62
     5
 63
     7
421
 16777215
 74
     1
 91
        4
 64
     7
 65
   257
 75
     1
175
     1
 42
1.0
 92
        0
 66
   257
 43
1.0
 76
     1
 77
     6
 78
     2
 67
     7
 79
     5
170
     0
171
     0
290
     0
174
     0
 93
        1
 44
0.0
173
     0
291
     0
 45
0.0
1001
ACAD
1000
AcDbSavedByObjectVersion
1070
     0
  0
VISUALSTYLE
  5
CB
102
{ACAD_XDICTIONARY
360
1F2
102
}
102
{ACAD_REACTORS
330
26
102
}
330
26
100
AcDbVisualStyle
  2
Basic
 70
     7
 71
     1
 72
     0
 73
     1
 90
        0
 40
-0.6
 41
-30.0
 62
     5
 63
     7
421
 16777215
 74
     0
 91
        4
 64
     7
 65
   257
 75
     1
175
     1
 42
1.0
 92
        8
 66
     7
 43
1.0
 76
     1
 77
     6
 78
     2
 67
     7
 79
     5
170
     0
171
     0
290
     0
174
     0
 93
        1
 44
0.0
173
     0
291
     1
 45
0.0
1001
ACAD
1000
AcDbSavedByObjectVersion
1070
     0
  0
VISUALSTYLE
  5
CF
102
{ACAD_XDICTIONARY
360
1FA
102
}
102
{ACAD_REACTORS
330
26
102
}
330
26
100
AcDbVisualStyle
  2
Brighten
 70
    12
 71
     2
 72
     2
 73
     0
 90
        0
 40
-0.6
 41
-30.0
 62
     5
 63
     7
421
 16777215
 74
     1
 91
        4
 64
     7
 65
   257
 75
     1
175
     1
 42
1.0
 92
        8
 66
     7
 43
1.0
 76
     1
 77
     6
 78
     2
 67
     7
 79
     5
170
     0
171
     0
290
     0
174
     0
 93
        1
 44
50.0
173
     0
291
     1
 45
0.0
1001
ACAD
1000
AcDbSavedByObjectVersion
1070
     0
  0
VISUALSTYLE
  5
D3
102
{ACAD_XDICTIONARY
360
202
102
}
102
{ACAD_REACTORS
330
26
102
}
330
26
100
AcDbVisualStyle
  2
ColorChange
 70
    16
 71
     2
 72
     2
 73
     3
 90
        0
 40
-0.6
 41
-30.0
 62
     5
 63
     8
421
  8421504
 74
     1
 91
        4
 64
     7
 65
   257
 75
     1
175
     1
 42
1.0
 92
        8
 66
     8
424
  8421504
 43
1.0
 76
     1
 77
     6
 78
     2
 67
     7
 79
     5
170
     0
171
     0
290
     0
174
     0
 93
        1
 44
0.0
173
     0
291
     1
 45
0.0
1001
ACAD
1000
AcDbSavedByObjectVersion
1070
     0
  0
VISUALSTYLE
  5
CD
102
{ACAD_XDICTIONARY
360
1F6
102
}
102
{ACAD_REACTORS
330
26
102
}
330
26
100
AcDbVisualStyle
  2
Conceptual
 70
     9
 71
     3
 72
     2
 73
     0
 90
        0
 40
-0.6
 41
-30.0
 62
     5
 63
     7
421
 16777215
 74
     2
 91
        2
 64
     7
 65
   257
 75
     1
175
     1
 42
40.0
 92
        8
 66
     7
 43
1.0
 76
     1
 77
     6
 78
     2
 67
     7
 79
     3
170
     0
171
     0
290
     0
174
     0
 93
        1
 44
0.0
173
     0
291
     0
 45
0.0
1001
ACAD
1000
AcDbSavedByObjectVersion
1070
     0
  0
VISUALSTYLE
  5
CE
102
{ACAD_XDICTIONARY
360
1F8
102
}
102
{ACAD_REACTORS
330
26
102
}
330
26
100
AcDbVisualStyle
  2
Dim
 70
    11
 71
     2
 72
     2
 73
     0
 90
        0
 40
-0.6
 41
-30.0
 62
     5
 63
     7
421
 16777215
 74
     1
 91
        4
 64
     7
 65
   257
 75
     1
175
     1
 42
1.0
 92
        8
 66
     7
 43
1.0
 76
     1
 77
     6
 78
     2
 67
     7
 79
     5
170
     0
171
     0
290
     0
174
     0
 93
        1
 44
-50.0
173
     0
291
     1
 45
0.0
1001
ACAD
1000
AcDbSavedByObjectVersion
1070
     0
  0
VISUALSTYLE
  5
D2
102
{ACAD_XDICTIONARY
360
200
102
}
102
{ACAD_REACTORS
330
26
102
}
330
26
100
AcDbVisualStyle
  2
Facepattern
 70
    15
 71
     2
 72
     2
 73
     0
 90
        0
 40
-0.6
 41
-30.0
 62
     5
 63
     7
421
 16777215
 74
     1
 91
        4
 64
     7
 65
   257
 75
     1
175
     1
 42
1.0
 92
        8
 66
     7
 43
1.0
 76
     1
 77
     6
 78
     2
 67
     7
 79
     5
170
     0
171
     0
290
     0
174
     0
 93
        1
 44
0.0
173
     0
291
     1
 45
0.0
1001
ACAD
1000
AcDbSavedByObjectVersion
1070
     0
  0
VISUALSTYLE
  5
C7
102
{ACAD_XDICTIONARY
360
1EA
102
}
102
{ACAD_REACTORS
330
26
102
}
330
26
100
AcDbVisualStyle
  2
Flat
 70
     0
 71
     2
 72
     1
 73
     1
 90
        2
 40
-0.6
 41
30.0
 62
     5
 63
     7
421
 16777215
 74
     0
 91
        4
 64
     7
 65
   257
 75
     1
175
     1
 42
1.0
 92
        8
 66
     7
 43
1.0
 76
     1
 77
     6
 78
     2
 67
     7
 79
     5
170
     0
171
     0
290
     0
174
     0
 93
       13
 44
0.0
173
     0
291
     1
 45
0.0
1001
ACAD
1000
AcDbSavedByObjectVersion
1070
     0
  0
VISUALSTYLE
  5
C8
102
{ACAD_XDICTIONARY
360
1EC
102
}
102
{ACAD_REACTORS
330
26
102
}
330
26
100
AcDbVisualStyle
  2
FlatWithEdges
 70
     1
 71
     2
 72
     1
 73
     1
 90
        2
 40
-0.6
 41
30.0
 62
     5
 63
     7
421
 16777215
 74
     1
 91
        4
 64
     7
 65
   257
 75
     1
175
     1
 42
1.0
 92
        0
 66
   257
 43
1.0
 76
     1
 77
     6
 78
     2
 67
     7
 79
     5
170
     0
171
     0
290
     0
174
     0
 93
       13
 44
0.0
173
     0
291
     1
 45
0.0
1001
ACAD
1000
AcDbSavedByObjectVersion
1070
     0
  0
VISUALSTYLE
  5
C9
102
{ACAD_XDICTIONARY
360
1EE
102
}
102
{ACAD_REACTORS
330
26
102
}
330
26
100
AcDbVisualStyle
  2
Gouraud
 70
     2
 71
     2
 72
     2
 73
     1
 90
        2
 40
-0.6
 41
30.0
 62
     5
 63
     7
421
 16777215
 74
     0
 91
        4
 64
     7
 65
   257
 75
     1
175
     1
 42
1.0
 92
        0
 66
     7
 43
1.0
 76
     1
 77
     6
 78
     2
 67
     7
 79
     5
170
     0
171
     0
290
     0
174
     0
 93
       13
 44
0.0
173
     0
291
     1
 45
0.0
1001
ACAD
1000
AcDbSavedByObjectVersion
1070
     0
  0
VISUALSTYLE
  5
CA
102
{ACAD_XDICTIONARY
360
1F0
102
}
102
{ACAD_REACTORS
330
26
102
}
330
26
100
AcDbVisualStyle
  2
GouraudWithEdges
 70
     3
 71
     2
 72
     2
 73
     1
 90
        2
 40
-0.6
 41
30.0
 62
     5
 63
     7
421
 16777215
 74
     1
 91
        4
 64
     7
 65
   257
 75
     1
175
     1
 42
1.0
 92
        0
 66
   257
 43
1.0
 76
     1
 77
     6
 78
     2
 67
     7
 79
     5
170
     0
171
     0
290
     0
174
     0
 93
       13
 44
0.0
173
     0
291
     1
 45
0.0
1001
ACAD
1000
AcDbSavedByObjectVersion
1070
     0
  0
VISUALSTYLE
  5
D1
102
{ACAD_XDICTIONARY
360
1FE
102
}
102
{ACAD_REACTORS
330
26
102
}
330
26
100
AcDbVisualStyle
  2
Linepattern
 70
    14
 71
     2
 72
     2
 73
     0
 90
        0
 40
-0.6
 41
-30.0
 62
     5
 63
     7
421
 16777215
 74
     1
 91
        4
 64
     7
 65
   257
 75
     7
175
     7
 42
1.0
 92
        8
 66
     7
 43
1.0
 76
     1
 77
     6
 78
     2
 67
     7
 79
     5
170
     0
171
     0
290
     0
174
     0
 93
        1
 44
0.0
173
     0
291
     1
 45
0.0
1001
ACAD
1000
AcDbSavedByObjectVersion
1070
     0
  0
VISUALSTYLE
  5
3D
102
{ACAD_XDICTIONARY
360
1E6
102
}
102
{ACAD_REACTORS
330
26
102
}
330
26
100
AcDbVisualStyle
  2
Realistic
 70
     8
 71
     2
 72
     2
 73
     1
 90
        0
 40
-0.6
 41
-30.0
 62
     5
 63
     7
421
 16777215
 74
     1
 91
        0
 64
     7
 65
   257
 75
     1
175
     1
 42
1.0
 92
        8
 66
     8
424
  7895160
 43
1.0
 76
     1
 77
     6
 78
     2
 67
     7
 79
     5
170
     0
171
     0
290
     0
174
     0
 93
       13
 44
0.0
173
     0
291
     0
 45
0.0
1001
ACAD
1000
AcDbSavedByObjectVersion
1070
     0
  0
VISUALSTYLE
  5
D0
102
{ACAD_XDICTIONARY
360
1FC
102
}
102
{ACAD_REACTORS
330
26
102
}
330
26
100
AcDbVisualStyle
  2
Thicken
 70
    13
 71
     2
 72
     2
 73
     0
 90
        0
 40
-0.6
 41
-30.0
 62
     5
 63
     7
421
 16777215
 74
     1
 91
        4
 64
     7
 65
   257
 75
     1
175
     1
 42
1.0
 92
       12
 66
     7
 43
1.0
 76
     1
 77
     6
 78
     2
 67
     7
 79
     5
170
     0
171
     0
290
     0
174
     0
 93
        1
 44
0.0
173
     0
291
     1
 45
0.0
1001
ACAD
1000
AcDbSavedByObjectVersion
1070
     0
  0
DICTIONARYVAR
  5
1DD
102
{ACAD_REACTORS
330
C3
102
}
330
C3
100
DictionaryVariables
280
     0
  1
STANDARD
  0
DICTIONARYVAR
  5
C4
102
{ACAD_REACTORS
330
C3
102
}
330
C3
100
DictionaryVariables
280
     0
  1
STANDARD
  0
DICTIONARYVAR
  5
C5
102
{ACAD_REACTORS
330
C3
102
}
330
C3
100
DictionaryVariables
280
     0
  1
4
  0
DICTIONARY
  5
1E2
330
3C
100
AcDbDictionary
280
     1
281
     1
  3
ACAD_ROUNDTRIP_2008_TABLESTYLE_CELLSTYLEMAP
360
1E4
  3
ACAD_XREC_ROUNDTRIP
360
1E3
  0
DICTIONARY
  5
1E0
330
25
100
AcDbDictionary
280
     1
281
     1
  3
ACAD_XREC_ROUNDTRIP
360
1E1
  0
DICTIONARY
  5
1F4
330
CC
100
AcDbDictionary
280
     1
281
     1
  3
ACAD_XREC_ROUNDTRIP
360
1F5
  0
DICTIONARY
  5
1E8
330
3E
100
AcDbDictionary
280
     1
281
     1
  3
ACAD_XREC_ROUNDTRIP
360
1E9
  0
DICTIONARY
  5
1F2
330
CB
100
AcDbDictionary
280
     1
281
     1
  3
ACAD_XREC_ROUNDTRIP
360
1F3
  0
DICTIONARY
  5
1FA
330
CF
100
AcDbDictionary
280
     1
281
     1
  3
ACAD_XREC_ROUNDTRIP
360
1FB
  0
DICTIONARY
  5
202
330
D3
100
AcDbDictionary
280
     1
281
     1
  3
ACAD_XREC_ROUNDTRIP
360
203
  0
DICTIONARY
  5
1F6
330
CD
100
AcDbDictionary
280
     1
281
     1
  3
ACAD_XREC_ROUNDTRIP
360
1F7
  0
DICTIONARY
  5
1F8
330
CE
100
AcDbDictionary
280
     1
281
     1
  3
ACAD_XREC_ROUNDTRIP
360
1F9
  0
DICTIONARY
  5
200
330
D2
100
AcDbDictionary
280
     1
281
     1
  3
ACAD_XREC_ROUNDTRIP
360
201
  0
DICTIONARY
  5
1EA
330
C7
100
AcDbDictionary
280
     1
281
     1
  3
ACAD_XREC_ROUNDTRIP
360
1EB
  0
DICTIONARY
  5
1EC
330
C8
100
AcDbDictionary
280
     1
281
     1
  3
ACAD_XREC_ROUNDTRIP
360
1ED
  0
DICTIONARY
  5
1EE
330
C9
100
AcDbDictionary
280
     1
281
     1
  3
ACAD_XREC_ROUNDTRIP
360
1EF
  0
DICTIONARY
  5
1F0
330
CA
100
AcDbDictionary
280
     1
281
     1
  3
ACAD_XREC_ROUNDTRIP
360
1F1
  0
DICTIONARY
  5
1FE
330
D1
100
AcDbDictionary
280
     1
281
     1
  3
ACAD_XREC_ROUNDTRIP
360
1FF
  0
DICTIONARY
  5
1E6
330
3D
100
AcDbDictionary
280
     1
281
     1
  3
ACAD_XREC_ROUNDTRIP
360
1E7
  0
DICTIONARY
  5
1FC
330
D0
100
AcDbDictionary
280
     1
281
     1
  3
ACAD_XREC_ROUNDTRIP
360
1FD
  0
CELLSTYLEMAP
  5
1E4
102
{ACAD_REACTORS
330
1E2
102
}
330
1E2
100
AcDbCellStyleMap
 90
        3
300
CELLSTYLE
  1
TABLEFORMAT_BEGIN
 90
        5
170
     1
 91
        0
 92
        0
 62
   257
 93
        1
300
CONTENTFORMAT
  1
CONTENTFORMAT_BEGIN
 90
        0
 91
        0
 92
      512
 93
        0
300

 40
0.0
140
1.0
 94
        5
 62
     0
340
1C
144
6.0
309
CONTENTFORMAT_END
171
     1
301
MARGIN
  1
CELLMARGIN_BEGIN
 40
1.5
 40
1.5
 40
1.5
 40
1.5
 40
4.5
 40
4.5
309
CELLMARGIN_END
 94
        6
 95
        1
302
GRIDFORMAT
  1
GRIDFORMAT_BEGIN
 90
        0
 91
        1
 62
     0
 92
       -2
340
0
 93
        0
 40
0.045
309
GRIDFORMAT_END
 95
        2
302
GRIDFORMAT
  1
GRIDFORMAT_BEGIN
 90
        0
 91
        1
 62
     0
 92
       -2
340
0
 93
        0
 40
0.045
309
GRIDFORMAT_END
 95
        4
302
GRIDFORMAT
  1
GRIDFORMAT_BEGIN
 90
        0
 91
        1
 62
     0
 92
       -2
340
0
 93
        0
 40
0.045
309
GRIDFORMAT_END
 95
        8
302
GRIDFORMAT
  1
GRIDFORMAT_BEGIN
 90
        0
 91
        1
 62
     0
 92
       -2
340
0
 93
        0
 40
0.045
309
GRIDFORMAT_END
 95
       16
302
GRIDFORMAT
  1
GRIDFORMAT_BEGIN
 90
        0
 91
        1
 62
     0
 92
       -2
340
0
 93
        0
 40
0.045
309
GRIDFORMAT_END
 95
       32
302
GRIDFORMAT
  1
GRIDFORMAT_BEGIN
 90
        0
 91
        1
 62
     0
 92
       -2
340
0
 93
        0
 40
0.045
309
GRIDFORMAT_END
309
TABLEFORMAT_END
  1
CELLSTYLE_BEGIN
 90
        1
 91
        1
300
_TITLE
309
CELLSTYLE_END
300
CELLSTYLE
  1
TABLEFORMAT_BEGIN
 90
        5
170
     1
 91
        0
 92
        0
 62
   257
 93
        1
300
CONTENTFORMAT
  1
CONTENTFORMAT_BEGIN
 90
        0
 91
        0
 92
      512
 93
        0
300

 40
0.0
140
1.0
 94
        5
 62
     0
340
1C
144
4.5
309
CONTENTFORMAT_END
171
     1
301
MARGIN
  1
CELLMARGIN_BEGIN
 40
1.5
 40
1.5
 40
1.5
 40
1.5
 40
4.5
 40
4.5
309
CELLMARGIN_END
 94
        6
 95
        1
302
GRIDFORMAT
  1
GRIDFORMAT_BEGIN
 90
        0
 91
        1
 62
     0
 92
       -2
340
0
 93
        0
 40
0.045
309
GRIDFORMAT_END
 95
        2
302
GRIDFORMAT
  1
GRIDFORMAT_BEGIN
 90
        0
 91
        1
 62
     0
 92
       -2
340
0
 93
        0
 40
0.045
309
GRIDFORMAT_END
 95
        4
302
GRIDFORMAT
  1
GRIDFORMAT_BEGIN
 90
        0
 91
        1
 62
     0
 92
       -2
340
0
 93
        0
 40
0.045
309
GRIDFORMAT_END
 95
        8
302
GRIDFORMAT
  1
GRIDFORMAT_BEGIN
 90
        0
 91
        1
 62
     0
 92
       -2
340
0
 93
        0
 40
0.045
309
GRIDFORMAT_END
 95
       16
302
GRIDFORMAT
  1
GRIDFORMAT_BEGIN
 90
        0
 91
        1
 62
     0
 92
       -2
340
0
 93
        0
 40
0.045
309
GRIDFORMAT_END
 95
       32
302
GRIDFORMAT
  1
GRIDFORMAT_BEGIN
 90
        0
 91
        1
 62
     0
 92
       -2
340
0
 93
        0
 40
0.045
309
GRIDFORMAT_END
309
TABLEFORMAT_END
  1
CELLSTYLE_BEGIN
 90
        2
 91
        1
300
_HEADER
309
CELLSTYLE_END
300
CELLSTYLE
  1
TABLEFORMAT_BEGIN
 90
        5
170
     1
 91
        0
 92
        0
 62
   257
 93
        1
300
CONTENTFORMAT
  1
CONTENTFORMAT_BEGIN
 90
        0
 91
        0
 92
      512
 93
        0
300

 40
0.0
140
1.0
 94
        2
 62
     0
340
1C
144
4.5
309
CONTENTFORMAT_END
171
     1
301
MARGIN
  1
CELLMARGIN_BEGIN
 40
1.5
 40
1.5
 40
1.5
 40
1.5
 40
4.5
 40
4.5
309
CELLMARGIN_END
 94
        6
 95
        1
302
GRIDFORMAT
  1
GRIDFORMAT_BEGIN
 90
        0
 91
        1
 62
     0
 92
       -2
340
0
 93
        0
 40
0.045
309
GRIDFORMAT_END
 95
        2
302
GRIDFORMAT
  1
GRIDFORMAT_BEGIN
 90
        0
 91
        1
 62
     0
 92
       -2
340
0
 93
        0
 40
0.045
309
GRIDFORMAT_END
 95
        4
302
GRIDFORMAT
  1
GRIDFORMAT_BEGIN
 90
        0
 91
        1
 62
     0
 92
       -2
340
0
 93
        0
 40
0.045
309
GRIDFORMAT_END
 95
        8
302
GRIDFORMAT
  1
GRIDFORMAT_BEGIN
 90
        0
 91
        1
 62
     0
 92
       -2
340
0
 93
        0
 40
0.045
309
GRIDFORMAT_END
 95
       16
302
GRIDFORMAT
  1
GRIDFORMAT_BEGIN
 90
        0
 91
        1
 62
     0
 92
       -2
340
0
 93
        0
 40
0.045
309
GRIDFORMAT_END
 95
       32
302
GRIDFORMAT
  1
GRIDFORMAT_BEGIN
 90
        0
 91
        1
 62
     0
 92
       -2
340
0
 93
        0
 40
0.045
309
GRIDFORMAT_END
309
TABLEFORMAT_END
  1
CELLSTYLE_BEGIN
 90
        3
 91
        2
300
_DATA
309
CELLSTYLE_END
  0
XRECORD
  5
1E3
102
{ACAD_REACTORS
330
1E2
102
}
330
1E2
100
AcDbXrecord
280
     1
102
ACAD_ROUNDTRIP_PRE2007_TABLESTYLE
 90
      512
 91
        0
  1

 92
      512
 93
        0
  2

 94
      512
 95
        0
  3

  0
XRECORD
  5
1E1
102
{ACAD_REACTORS
330
1E0
102
}
330
1E0
100
AcDbXrecord
280
     1
102
RTVSPropertyOp0
 70
     1
102
RTVSPropertyOp1
 70
     1
102
RTVSPropertyOp2
 70
     1
102
RTVSPropertyOp3
 70
     1
102
RTVSPropertyOp4
 70
     1
102
RTVSPropertyOp5
 70
     1
102
RTVSPropertyOp6
 70
     1
102
RTVSPropertyOp7
 70
     1
102
RTVSPropertyOp8
 70
     1
102
RTVSPropertyOp9
 70
     1
102
RTVSPropertyOp10
 70
     1
102
RTVSPropertyOp11
 70
     1
102
RTVSPropertyOp12
 70
     1
102
RTVSPropertyOp13
 70
     1
102
RTVSPropertyOp14
 70
     1
102
RTVSPropertyOp15
 70
     1
102
RTVSPropertyOp16
 70
     1
102
RTVSPropertyOp17
 70
     1
102
RTVSPropertyOp18
 70
     1
102
RTVSPropertyOp19
 70
     1
102
RTVSPropertyOp20
 70
     1
102
RTVSPropertyOp21
 70
     1
102
RTVSPropertyOp22
 70
     1
102
RTVSPropertyOp23
 70
     1
102
RTVSPropertyOp24
 70
     1
102
RTVSPropertyOp25
 70
     1
102
RTVSPropertyOp26
 70
     1
102
RTVSPropertyOp27
 70
     1
  0
XRECORD
  5
1F5
102
{ACAD_REACTORS
330
1F4
102
}
330
1F4
100
AcDbXrecord
280
     1
102
RTVSPropertyOp0
 70
     1
102
RTVSPropertyOp1
 70
     1
102
RTVSPropertyOp2
 70
     1
102
RTVSPropertyOp3
 70
     1
102
RTVSPropertyOp4
 70
     1
102
RTVSPropertyOp5
 70
     1
102
RTVSPropertyOp6
 70
     1
102
RTVSPropertyOp7
 70
     1
102
RTVSPropertyOp8
 70
     1
102
RTVSPropertyOp9
 70
     1
102
RTVSPropertyOp10
 70
     1
102
RTVSPropertyOp11
 70
     1
102
RTVSPropertyOp12
 70
     1
102
RTVSPropertyOp13
 70
     1
102
RTVSPropertyOp14
 70
     1
102
RTVSPropertyOp15
 70
     1
102
RTVSPropertyOp16
 70
     1
102
RTVSPropertyOp17
 70
     1
102
RTVSPropertyOp18
 70
     1
102
RTVSPropertyOp19
 70
     1
102
RTVSPropertyOp20
 70
     1
102
RTVSPropertyOp21
 70
     1
102
RTVSPropertyOp22
 70
     1
102
RTVSPropertyOp23
 70
     1
102
RTVSPropertyOp24
 70
     1
102
RTVSPropertyOp25
 70
     1
102
RTVSPropertyOp26
 70
     1
102
RTVSPropertyOp27
 70
     1
  0
XRECORD
  5
1E9
102
{ACAD_REACTORS
330
1E8
102
}
330
1E8
100
AcDbXrecord
280
     1
102
RTVSPropertyOp0
 70
     1
102
RTVSPropertyOp1
 70
     1
102
RTVSPropertyOp2
 70
     1
102
RTVSPropertyOp3
 70
     1
102
RTVSPropertyOp4
 70
     1
102
RTVSPropertyOp5
 70
     1
102
RTVSPropertyOp6
 70
     1
102
RTVSPropertyOp7
 70
     1
102
RTVSPropertyOp8
 70
     1
102
RTVSPropertyOp9
 70
     1
102
RTVSPropertyOp10
 70
     1
102
RTVSPropertyOp11
 70
     1
102
RTVSPropertyOp12
 70
     1
102
RTVSPropertyOp13
 70
     1
102
RTVSPropertyOp14
 70
     1
102
RTVSPropertyOp15
 70
     1
102
RTVSPropertyOp16
 70
     1
102
RTVSPropertyOp17
 70
     1
102
RTVSPropertyOp18
 70
     1
102
RTVSPropertyOp19
 70
     1
102
RTVSPropertyOp20
 70
     1
102
RTVSPropertyOp21
 70
     1
102
RTVSPropertyOp22
 70
     1
102
RTVSPropertyOp23
 70
     1
102
RTVSPropertyOp24
 70
     1
102
RTVSPropertyOp25
 70
     1
102
RTVSPropertyOp26
 70
     1
102
RTVSPropertyOp27
 70
     1
  0
XRECORD
  5
1F3
102
{ACAD_REACTORS
330
1F2
102
}
330
1F2
100
AcDbXrecord
280
     1
102
RTVSPropertyOp0
 70
     1
102
RTVSPropertyOp1
 70
     1
102
RTVSPropertyOp2
 70
     1
102
RTVSPropertyOp3
 70
     1
102
RTVSPropertyOp4
 70
     1
102
RTVSPropertyOp5
 70
     1
102
RTVSPropertyOp6
 70
     1
102
RTVSPropertyOp7
 70
     1
102
RTVSPropertyOp8
 70
     1
102
RTVSPropertyOp9
 70
     1
102
RTVSPropertyOp10
 70
     1
102
RTVSPropertyOp11
 70
     1
102
RTVSPropertyOp12
 70
     1
102
RTVSPropertyOp13
 70
     1
102
RTVSPropertyOp14
 70
     1
102
RTVSPropertyOp15
 70
     1
102
RTVSPropertyOp16
 70
     1
102
RTVSPropertyOp17
 70
     1
102
RTVSPropertyOp18
 70
     1
102
RTVSPropertyOp19
 70
     1
102
RTVSPropertyOp20
 70
     1
102
RTVSPropertyOp21
 70
     1
102
RTVSPropertyOp22
 70
     1
102
RTVSPropertyOp23
 70
     1
102
RTVSPropertyOp24
 70
     1
102
RTVSPropertyOp25
 70
     1
102
RTVSPropertyOp26
 70
     1
102
RTVSPropertyOp27
 70
     1
  0
XRECORD
  5
1FB
102
{ACAD_REACTORS
330
1FA
102
}
330
1FA
100
AcDbXrecord
280
     1
102
RTVSPropertyOp0
 70
     1
102
RTVSPropertyOp1
 70
     1
102
RTVSPropertyOp2
 70
     1
102
RTVSPropertyOp3
 70
     1
102
RTVSPropertyOp4
 70
     1
102
RTVSPropertyOp5
 70
     1
102
RTVSPropertyOp6
 70
     1
102
RTVSPropertyOp7
 70
     1
102
RTVSPropertyOp8
 70
     1
102
RTVSPropertyOp9
 70
     1
102
RTVSPropertyOp10
 70
     1
102
RTVSPropertyOp11
 70
     1
102
RTVSPropertyOp12
 70
     1
102
RTVSPropertyOp13
 70
     1
102
RTVSPropertyOp14
 70
     1
102
RTVSPropertyOp15
 70
     1
102
RTVSPropertyOp16
 70
     1
102
RTVSPropertyOp17
 70
     1
102
RTVSPropertyOp18
 70
     1
102
RTVSPropertyOp19
 70
     1
102
RTVSPropertyOp20
 70
     1
102
RTVSPropertyOp21
 70
     1
102
RTVSPropertyOp22
 70
     1
102
RTVSPropertyOp23
 70
     1
102
RTVSPropertyOp24
 70
     1
102
RTVSPropertyOp25
 70
     1
102
RTVSPropertyOp26
 70
     1
102
RTVSPropertyOp27
 70
     1
  0
XRECORD
  5
203
102
{ACAD_REACTORS
330
202
102
}
330
202
100
AcDbXrecord
280
     1
102
RTVSPropertyOp0
 70
     1
102
RTVSPropertyOp1
 70
     1
102
RTVSPropertyOp2
 70
     1
102
RTVSPropertyOp3
 70
     1
102
RTVSPropertyOp4
 70
     1
102
RTVSPropertyOp5
 70
     1
102
RTVSPropertyOp6
 70
     1
102
RTVSPropertyOp7
 70
     1
102
RTVSPropertyOp8
 70
     1
102
RTVSPropertyOp9
 70
     1
102
RTVSPropertyOp10
 70
     1
102
RTVSPropertyOp11
 70
     1
102
RTVSPropertyOp12
 70
     1
102
RTVSPropertyOp13
 70
     1
102
RTVSPropertyOp14
 70
     1
102
RTVSPropertyOp15
 70
     1
102
RTVSPropertyOp16
 70
     1
102
RTVSPropertyOp17
 70
     1
102
RTVSPropertyOp18
 70
     1
102
RTVSPropertyOp19
 70
     1
102
RTVSPropertyOp20
 70
     1
102
RTVSPropertyOp21
 70
     1
102
RTVSPropertyOp22
 70
     1
102
RTVSPropertyOp23
 70
     1
102
RTVSPropertyOp24
 70
     1
102
RTVSPropertyOp25
 70
     1
102
RTVSPropertyOp26
 70
     1
102
RTVSPropertyOp27
 70
     1
  0
XRECORD
  5
1F7
102
{ACAD_REACTORS
330
1F6
102
}
330
1F6
100
AcDbXrecord
280
     1
102
RTVSPropertyOp0
 70
     1
102
RTVSPropertyOp1
 70
     1
102
RTVSPropertyOp2
 70
     1
102
RTVSPropertyOp3
 70
     1
102
RTVSPropertyOp4
 70
     1
102
RTVSPropertyOp5
 70
     1
102
RTVSPropertyOp6
 70
     1
102
RTVSPropertyOp7
 70
     1
102
RTVSPropertyOp8
 70
     1
102
RTVSPropertyOp9
 70
     1
102
RTVSPropertyOp10
 70
     1
102
RTVSPropertyOp11
 70
     1
102
RTVSPropertyOp12
 70
     1
102
RTVSPropertyOp13
 70
     1
102
RTVSPropertyOp14
 70
     1
102
RTVSPropertyOp15
 70
     1
102
RTVSPropertyOp16
 70
     1
102
RTVSPropertyOp17
 70
     1
102
RTVSPropertyOp18
 70
     1
102
RTVSPropertyOp19
 70
     1
102
RTVSPropertyOp20
 70
     1
102
RTVSPropertyOp21
 70
     1
102
RTVSPropertyOp22
 70
     1
102
RTVSPropertyOp23
 70
     1
102
RTVSPropertyOp24
 70
     1
102
RTVSPropertyOp25
 70
     1
102
RTVSPropertyOp26
 70
     1
102
RTVSPropertyOp27
 70
     1
  0
XRECORD
  5
1F9
102
{ACAD_REACTORS
330
1F8
102
}
330
1F8
100
AcDbXrecord
280
     1
102
RTVSPropertyOp0
 70
     1
102
RTVSPropertyOp1
 70
     1
102
RTVSPropertyOp2
 70
     1
102
RTVSPropertyOp3
 70
     1
102
RTVSPropertyOp4
 70
     1
102
RTVSPropertyOp5
 70
     1
102
RTVSPropertyOp6
 70
     1
102
RTVSPropertyOp7
 70
     1
102
RTVSPropertyOp8
 70
     1
102
RTVSPropertyOp9
 70
     1
102
RTVSPropertyOp10
 70
     1
102
RTVSPropertyOp11
 70
     1
102
RTVSPropertyOp12
 70
     1
102
RTVSPropertyOp13
 70
     1
102
RTVSPropertyOp14
 70
     1
102
RTVSPropertyOp15
 70
     1
102
RTVSPropertyOp16
 70
     1
102
RTVSPropertyOp17
 70
     1
102
RTVSPropertyOp18
 70
     1
102
RTVSPropertyOp19
 70
     1
102
RTVSPropertyOp20
 70
     1
102
RTVSPropertyOp21
 70
     1
102
RTVSPropertyOp22
 70
     1
102
RTVSPropertyOp23
 70
     1
102
RTVSPropertyOp24
 70
     1
102
RTVSPropertyOp25
 70
     1
102
RTVSPropertyOp26
 70
     1
102
RTVSPropertyOp27
 70
     1
  0
XRECORD
  5
201
102
{ACAD_REACTORS
330
200
102
}
330
200
100
AcDbXrecord
280
     1
102
RTVSPropertyOp0
 70
     1
102
RTVSPropertyOp1
 70
     1
102
RTVSPropertyOp2
 70
     1
102
RTVSPropertyOp3
 70
     1
102
RTVSPropertyOp4
 70
     1
102
RTVSPropertyOp5
 70
     1
102
RTVSPropertyOp6
 70
     1
102
RTVSPropertyOp7
 70
     1
102
RTVSPropertyOp8
 70
     1
102
RTVSPropertyOp9
 70
     1
102
RTVSPropertyOp10
 70
     1
102
RTVSPropertyOp11
 70
     1
102
RTVSPropertyOp12
 70
     1
102
RTVSPropertyOp13
 70
     1
102
RTVSPropertyOp14
 70
     1
102
RTVSPropertyOp15
 70
     1
102
RTVSPropertyOp16
 70
     1
102
RTVSPropertyOp17
 70
     1
102
RTVSPropertyOp18
 70
     1
102
RTVSPropertyOp19
 70
     1
102
RTVSPropertyOp20
 70
     1
102
RTVSPropertyOp21
 70
     1
102
RTVSPropertyOp22
 70
     1
102
RTVSPropertyOp23
 70
     1
102
RTVSPropertyOp24
 70
     1
102
RTVSPropertyOp25
 70
     1
102
RTVSPropertyOp26
 70
     1
102
RTVSPropertyOp27
 70
     1
  0
XRECORD
  5
1EB
102
{ACAD_REACTORS
330
1EA
102
}
330
1EA
100
AcDbXrecord
280
     1
102
RTVSPropertyOp0
 70
     1
102
RTVSPropertyOp1
 70
     1
102
RTVSPropertyOp2
 70
     1
102
RTVSPropertyOp3
 70
     1
102
RTVSPropertyOp4
 70
     1
102
RTVSPropertyOp5
 70
     1
102
RTVSPropertyOp6
 70
     1
102
RTVSPropertyOp7
 70
     1
102
RTVSPropertyOp8
 70
     1
102
RTVSPropertyOp9
 70
     1
102
RTVSPropertyOp10
 70
     1
102
RTVSPropertyOp11
 70
     1
102
RTVSPropertyOp12
 70
     1
102
RTVSPropertyOp13
 70
     1
102
RTVSPropertyOp14
 70
     1
102
RTVSPropertyOp15
 70
     1
102
RTVSPropertyOp16
 70
     1
102
RTVSPropertyOp17
 70
     1
102
RTVSPropertyOp18
 70
     1
102
RTVSPropertyOp19
 70
     1
102
RTVSPropertyOp20
 70
     1
102
RTVSPropertyOp21
 70
     1
102
RTVSPropertyOp22
 70
     1
102
RTVSPropertyOp23
 70
     1
102
RTVSPropertyOp24
 70
     1
102
RTVSPropertyOp25
 70
     1
102
RTVSPropertyOp26
 70
     1
102
RTVSPropertyOp27
 70
     1
  0
XRECORD
  5
1ED
102
{ACAD_REACTORS
330
1EC
102
}
330
1EC
100
AcDbXrecord
280
     1
102
RTVSPropertyOp0
 70
     1
102
RTVSPropertyOp1
 70
     1
102
RTVSPropertyOp2
 70
     1
102
RTVSPropertyOp3
 70
     1
102
RTVSPropertyOp4
 70
     1
102
RTVSPropertyOp5
 70
     1
102
RTVSPropertyOp6
 70
     1
102
RTVSPropertyOp7
 70
     1
102
RTVSPropertyOp8
 70
     1
102
RTVSPropertyOp9
 70
     1
102
RTVSPropertyOp10
 70
     1
102
RTVSPropertyOp11
 70
     1
102
RTVSPropertyOp12
 70
     1
102
RTVSPropertyOp13
 70
     1
102
RTVSPropertyOp14
 70
     1
102
RTVSPropertyOp15
 70
     1
102
RTVSPropertyOp16
 70
     1
102
RTVSPropertyOp17
 70
     1
102
RTVSPropertyOp18
 70
     1
102
RTVSPropertyOp19
 70
     1
102
RTVSPropertyOp20
 70
     1
102
RTVSPropertyOp21
 70
     1
102
RTVSPropertyOp22
 70
     1
102
RTVSPropertyOp23
 70
     1
102
RTVSPropertyOp24
 70
     1
102
RTVSPropertyOp25
 70
     1
102
RTVSPropertyOp26
 70
     1
102
RTVSPropertyOp27
 70
     1
  0
XRECORD
  5
1EF
102
{ACAD_REACTORS
330
1EE
102
}
330
1EE
100
AcDbXrecord
280
     1
102
RTVSPropertyOp0
 70
     1
102
RTVSPropertyOp1
 70
     1
102
RTVSPropertyOp2
 70
     1
102
RTVSPropertyOp3
 70
     1
102
RTVSPropertyOp4
 70
     1
102
RTVSPropertyOp5
 70
     1
102
RTVSPropertyOp6
 70
     1
102
RTVSPropertyOp7
 70
     1
102
RTVSPropertyOp8
 70
     1
102
RTVSPropertyOp9
 70
     1
102
RTVSPropertyOp10
 70
     1
102
RTVSPropertyOp11
 70
     1
102
RTVSPropertyOp12
 70
     1
102
RTVSPropertyOp13
 70
     1
102
RTVSPropertyOp14
 70
     1
102
RTVSPropertyOp15
 70
     1
102
RTVSPropertyOp16
 70
     1
102
RTVSPropertyOp17
 70
     1
102
RTVSPropertyOp18
 70
     1
102
RTVSPropertyOp19
 70
     1
102
RTVSPropertyOp20
 70
     1
102
RTVSPropertyOp21
 70
     1
102
RTVSPropertyOp22
 70
     1
102
RTVSPropertyOp23
 70
     1
102
RTVSPropertyOp24
 70
     1
102
RTVSPropertyOp25
 70
     1
102
RTVSPropertyOp26
 70
     1
102
RTVSPropertyOp27
 70
     1
  0
XRECORD
  5
1F1
102
{ACAD_REACTORS
330
1F0
102
}
330
1F0
100
AcDbXrecord
280
     1
102
RTVSPropertyOp0
 70
     1
102
RTVSPropertyOp1
 70
     1
102
RTVSPropertyOp2
 70
     1
102
RTVSPropertyOp3
 70
     1
102
RTVSPropertyOp4
 70
     1
102
RTVSPropertyOp5
 70
     1
102
RTVSPropertyOp6
 70
     1
102
RTVSPropertyOp7
 70
     1
102
RTVSPropertyOp8
 70
     1
102
RTVSPropertyOp9
 70
     1
102
RTVSPropertyOp10
 70
     1
102
RTVSPropertyOp11
 70
     1
102
RTVSPropertyOp12
 70
     1
102
RTVSPropertyOp13
 70
     1
102
RTVSPropertyOp14
 70
     1
102
RTVSPropertyOp15
 70
     1
102
RTVSPropertyOp16
 70
     1
102
RTVSPropertyOp17
 70
     1
102
RTVSPropertyOp18
 70
     1
102
RTVSPropertyOp19
 70
     1
102
RTVSPropertyOp20
 70
     1
102
RTVSPropertyOp21
 70
     1
102
RTVSPropertyOp22
 70
     1
102
RTVSPropertyOp23
 70
     1
102
RTVSPropertyOp24
 70
     1
102
RTVSPropertyOp25
 70
     1
102
RTVSPropertyOp26
 70
     1
102
RTVSPropertyOp27
 70
     1
  0
XRECORD
  5
1FF
102
{ACAD_REACTORS
330
1FE
102
}
330
1FE
100
AcDbXrecord
280
     1
102
RTVSPropertyOp0
 70
     1
102
RTVSPropertyOp1
 70
     1
102
RTVSPropertyOp2
 70
     1
102
RTVSPropertyOp3
 70
     1
102
RTVSPropertyOp4
 70
     1
102
RTVSPropertyOp5
 70
     1
102
RTVSPropertyOp6
 70
     1
102
RTVSPropertyOp7
 70
     1
102
RTVSPropertyOp8
 70
     1
102
RTVSPropertyOp9
 70
     1
102
RTVSPropertyOp10
 70
     1
102
RTVSPropertyOp11
 70
     1
102
RTVSPropertyOp12
 70
     1
102
RTVSPropertyOp13
 70
     1
102
RTVSPropertyOp14
 70
     1
102
RTVSPropertyOp15
 70
     1
102
RTVSPropertyOp16
 70
     1
102
RTVSPropertyOp17
 70
     1
102
RTVSPropertyOp18
 70
     1
102
RTVSPropertyOp19
 70
     1
102
RTVSPropertyOp20
 70
     1
102
RTVSPropertyOp21
 70
     1
102
RTVSPropertyOp22
 70
     1
102
RTVSPropertyOp23
 70
     1
102
RTVSPropertyOp24
 70
     1
102
RTVSPropertyOp25
 70
     1
102
RTVSPropertyOp26
 70
     1
102
RTVSPropertyOp27
 70
     1
  0
XRECORD
  5
1E7
102
{ACAD_REACTORS
330
1E6
102
}
330
1E6
100
AcDbXrecord
280
     1
102
RTVSPropertyOp0
 70
     1
102
RTVSPropertyOp1
 70
     1
102
RTVSPropertyOp2
 70
     1
102
RTVSPropertyOp3
 70
     1
102
RTVSPropertyOp4
 70
     1
102
RTVSPropertyOp5
 70
     1
102
RTVSPropertyOp6
 70
     1
102
RTVSPropertyOp7
 70
     1
102
RTVSPropertyOp8
 70
     1
102
RTVSPropertyOp9
 70
     1
102
RTVSPropertyOp10
 70
     1
102
RTVSPropertyOp11
 70
     1
102
RTVSPropertyOp12
 70
     1
102
RTVSPropertyOp13
 70
     1
102
RTVSPropertyOp14
 70
     1
102
RTVSPropertyOp15
 70
     1
102
RTVSPropertyOp16
 70
     1
102
RTVSPropertyOp17
 70
     1
102
RTVSPropertyOp18
 70
     1
102
RTVSPropertyOp19
 70
     1
102
RTVSPropertyOp20
 70
     1
102
RTVSPropertyOp21
 70
     1
102
RTVSPropertyOp22
 70
     1
102
RTVSPropertyOp23
 70
     1
102
RTVSPropertyOp24
 70
     1
102
RTVSPropertyOp25
 70
     1
102
RTVSPropertyOp26
 70
     1
102
RTVSPropertyOp27
 70
     1
  0
XRECORD
  5
1FD
102
{ACAD_REACTORS
330
1FC
102
}
330
1FC
100
AcDbXrecord
280
     1
102
RTVSPropertyOp0
 70
     1
102
RTVSPropertyOp1
 70
     1
102
RTVSPropertyOp2
 70
     1
102
RTVSPropertyOp3
 70
     1
102
RTVSPropertyOp4
 70
     1
102
RTVSPropertyOp5
 70
     1
102
RTVSPropertyOp6
 70
     1
102
RTVSPropertyOp7
 70
     1
102
RTVSPropertyOp8
 70
     1
102
RTVSPropertyOp9
 70
     1
102
RTVSPropertyOp10
 70
     1
102
RTVSPropertyOp11
 70
     1
102
RTVSPropertyOp12
 70
     1
102
RTVSPropertyOp13
 70
     1
102
RTVSPropertyOp14
 70
     1
102
RTVSPropertyOp15
 70
     1
102
RTVSPropertyOp16
 70
     1
102
RTVSPropertyOp17
 70
     1
102
RTVSPropertyOp18
 70
     1
102
RTVSPropertyOp19
 70
     1
102
RTVSPropertyOp20
 70
     1
102
RTVSPropertyOp21
 70
     1
102
RTVSPropertyOp22
 70
     1
102
RTVSPropertyOp23
 70
     1
102
RTVSPropertyOp24
 70
     1
102
RTVSPropertyOp25
 70
     1
102
RTVSPropertyOp26
 70
     1
102
RTVSPropertyOp27
 70
     1
  0
ENDSEC
  0
EOF
