  0
SECTION
  2
HEADER
  9
$ACADVER
  1
AC1018
  9
$ACADMAINTVER
 70
   104
  9
$DWGCODEPAGE
  3
ANSI_936
  9
$LASTSAVEDBY
  1
chaxiu.zhu
  9
$INSBASE
 10
0.0
 20
0.0
 30
0.0
  9
$EXTMIN
 10
39915.14742728656
 20
-3667.152327472364
 30
-0.00000001
  9
$EXTMAX
 10
41404.233643311
 20
-2327.711204226505
 30
0.00000001
  9
$LIMMIN
 10
0.0
 20
0.0
  9
$LIMMAX
 10
420.0
 20
297.0
  9
$ORTHOMODE
 70
     1
  9
$REGENMODE
 70
     1
  9
$FILLMODE
 70
     1
  9
$QTEXTMODE
 70
     0
  9
$MIRRTEXT
 70
     0
  9
$LTSCALE
 40
1.0
  9
$ATTMODE
 70
     1
  9
$TEXTSIZE
 40
2.5
  9
$TRACEWID
 40
1.0
  9
$TEXTSTYLE
  7
Standard
  9
$CLAYER
  8
尺寸标注
  9
$CELTYPE
  6
ByLayer
  9
$CECOLOR
 62
   256
  9
$CELTSCALE
 40
1.0
  9
$DISPSILH
 70
     0
  9
$DIMSCALE
 40
0.7
  9
$DIMASZ
 40
20.0
  9
$DIMEXO
 40
0.0
  9
$DIMDLI
 40
3.75
  9
$DIMRND
 40
0.0
  9
$DIMDLE
 40
0.0
  9
$DIMEXE
 40
10.0
  9
$DIMTP
 40
0.0
  9
$DIMTM
 40
0.0
  9
$DIMTXT
 40
30.0
  9
$DIMCEN
 40
0.0
  9
$DIMTSZ
 40
0.0
  9
$DIMTOL
 70
     0
  9
$DIMLIM
 70
     0
  9
$DIMTIH
 70
     0
  9
$DIMTOH
 70
     1
  9
$DIMSE1
 70
     0
  9
$DIMSE2
 70
     0
  9
$DIMTAD
 70
     0
  9
$DIMZIN
 70
     8
  9
$DIMBLK
  1

  9
$DIMASO
 70
     1
  9
$DIMSHO
 70
     1
  9
$DIMPOST
  1

  9
$DIMAPOST
  1

  9
$DIMALT
 70
     0
  9
$DIMALTD
 70
     3
  9
$DIMALTF
 40
0.03937007874016
  9
$DIMLFAC
 40
1.0
  9
$DIMTOFL
 70
     1
  9
$DIMTVP
 40
0.0
  9
$DIMTIX
 70
     0
  9
$DIMSOXD
 70
     0
  9
$DIMSAH
 70
     0
  9
$DIMBLK1
  1

  9
$DIMBLK2
  1

  9
$DIMSTYLE
  2
宋体
  9
$DIMCLRD
 70
     0
  9
$DIMCLRE
 70
     0
  9
$DIMCLRT
 70
     0
  9
$DIMTFAC
 40
1.0
  9
$DIMGAP
 40
20.0
  9
$DIMJUST
 70
     0
  9
$DIMSD1
 70
     0
  9
$DIMSD2
 70
     0
  9
$DIMTOLJ
 70
     1
  9
$DIMTZIN
 70
     8
  9
$DIMALTZ
 70
     0
  9
$DIMALTTZ
 70
     0
  9
$DIMUPT
 70
     0
  9
$DIMDEC
 70
     0
  9
$DIMTDEC
 70
     0
  9
$DIMALTU
 70
     2
  9
$DIMALTTD
 70
     3
  9
$DIMTXSTY
  7
Standard
  9
$DIMAUNIT
 70
     0
  9
$DIMADEC
 70
     0
  9
$DIMALTRND
 40
0.0
  9
$DIMAZIN
 70
     0
  9
$DIMDSEP
 70
    46
  9
$DIMATFIT
 70
     3
  9
$DIMFRAC
 70
     0
  9
$DIMLDRBLK
  1

  9
$DIMLUNIT
 70
     2
  9
$DIMLWD
 70
    -2
  9
$DIMLWE
 70
    -2
  9
$DIMTMOVE
 70
     1
  9
$LUNITS
 70
     2
  9
$LUPREC
 70
     4
  9
$SKETCHINC
 40
1.0
  9
$FILLETRAD
 40
0.0
  9
$AUNITS
 70
     0
  9
$AUPREC
 70
     0
  9
$MENU
  1
.
  9
$ELEVATION
 40
0.0
  9
$PELEVATION
 40
0.0
  9
$THICKNESS
 40
0.0
  9
$LIMCHECK
 70
     0
  9
$CHAMFERA
 40
0.0
  9
$CHAMFERB
 40
0.0
  9
$CHAMFERC
 40
0.0
  9
$CHAMFERD
 40
0.0
  9
$SKPOLY
 70
     0
  9
$TDCREATE
 40
2455843.370532037
  9
$TDUCREATE
 40
2455843.037198704
  9
$TDUPDATE
 40
2458858.639922037
  9
$TDUUPDATE
 40
2458858.306588704
  9
$TDINDWG
 40
1.1701993634
  9
$TDUSRTIMER
 40
1.1701991898
  9
$USRTIMER
 70
     1
  9
$ANGBASE
 50
0.0
  9
$ANGDIR
 70
     0
  9
$PDMODE
 70
     0
  9
$PDSIZE
 40
0.0
  9
$PLINEWID
 40
0.0
  9
$SPLFRAME
 70
     0
  9
$SPLINETYPE
 70
     6
  9
$SPLINESEGS
 70
     8
  9
$HANDSEED
  5
4B5
  9
$SURFTAB1
 70
     6
  9
$SURFTAB2
 70
     6
  9
$SURFTYPE
 70
     6
  9
$SURFU
 70
     6
  9
$SURFV
 70
     6
  9
$UCSBASE
  2

  9
$UCSNAME
  2

  9
$UCSORG
 10
0.0
 20
0.0
 30
0.0
  9
$UCSXDIR
 10
1.0
 20
0.0
 30
0.0
  9
$UCSYDIR
 10
0.0
 20
1.0
 30
0.0
  9
$UCSORTHOREF
  2

  9
$UCSORTHOVIEW
 70
     0
  9
$UCSORGTOP
 10
0.0
 20
0.0
 30
0.0
  9
$UCSORGBOTTOM
 10
0.0
 20
0.0
 30
0.0
  9
$UCSORGLEFT
 10
0.0
 20
0.0
 30
0.0
  9
$UCSORGRIGHT
 10
0.0
 20
0.0
 30
0.0
  9
$UCSORGFRONT
 10
0.0
 20
0.0
 30
0.0
  9
$UCSORGBACK
 10
0.0
 20
0.0
 30
0.0
  9
$PUCSBASE
  2

  9
$PUCSNAME
  2

  9
$PUCSORG
 10
0.0
 20
0.0
 30
0.0
  9
$PUCSXDIR
 10
1.0
 20
0.0
 30
0.0
  9
$PUCSYDIR
 10
0.0
 20
1.0
 30
0.0
  9
$PUCSORTHOREF
  2

  9
$PUCSORTHOVIEW
 70
     0
  9
$PUCSORGTOP
 10
0.0
 20
0.0
 30
0.0
  9
$PUCSORGBOTTOM
 10
0.0
 20
0.0
 30
0.0
  9
$PUCSORGLEFT
 10
0.0
 20
0.0
 30
0.0
  9
$PUCSORGRIGHT
 10
0.0
 20
0.0
 30
0.0
  9
$PUCSORGFRONT
 10
0.0
 20
0.0
 30
0.0
  9
$PUCSORGBACK
 10
0.0
 20
0.0
 30
0.0
  9
$USERI1
 70
     0
  9
$USERI2
 70
     0
  9
$USERI3
 70
     0
  9
$USERI4
 70
     0
  9
$USERI5
 70
     0
  9
$USERR1
 40
0.0
  9
$USERR2
 40
0.0
  9
$USERR3
 40
0.0
  9
$USERR4
 40
0.0
  9
$USERR5
 40
2.5
  9
$WORLDVIEW
 70
     1
  9
$SHADEDGE
 70
     3
  9
$SHADEDIF
 70
    70
  9
$TILEMODE
 70
     1
  9
$MAXACTVP
 70
    64
  9
$PINSBASE
 10
0.0
 20
0.0
 30
0.0
  9
$PLIMCHECK
 70
     0
  9
$PEXTMIN
 10
0.0
 20
0.0
 30
0.0
  9
$PEXTMAX
 10
0.0
 20
0.0
 30
0.0
  9
$PLIMMIN
 10
0.0
 20
0.0
  9
$PLIMMAX
 10
12.0
 20
9.0
  9
$UNITMODE
 70
     0
  9
$VISRETAIN
 70
     1
  9
$PLINEGEN
 70
     0
  9
$PSLTSCALE
 70
     1
  9
$TREEDEPTH
 70
  3020
  9
$CMLSTYLE
  2
Standard
  9
$CMLJUST
 70
     0
  9
$CMLSCALE
 40
20.0
  9
$PROXYGRAPHICS
 70
     1
  9
$MEASUREMENT
 70
     1
  9
$CELWEIGHT
370
    -1
  9
$ENDCAPS
280
     0
  9
$JOINSTYLE
280
     0
  9
$LWDISPLAY
290
     0
  9
$INSUNITS
 70
     4
  9
$HYPERLINKBASE
  1

  9
$STYLESHEET
  1

  9
$XEDIT
290
     1
  9
$CEPSNTYPE
380
     0
  9
$PSTYLEMODE
290
     1
  9
$FINGERPRINTGUID
  2
{8C47AF28-127C-4B06-99E3-21DD380CD26A}
  9
$VERSIONGUID
  2
{8AA13A12-4FEE-46BB-9EB6-D7A9E7C7FE04}
  9
$EXTNAMES
290
     1
  9
$PSVPSCALE
 40
0.0
  9
$OLESTARTUP
290
     0
  9
$SORTENTS
280
   127
  9
$INDEXCTL
280
     0
  9
$HIDETEXT
280
     1
  9
$XCLIPFRAME
290
     0
  9
$HALOGAP
280
     0
  9
$OBSCOLOR
 70
   257
  9
$OBSLTYPE
280
     0
  9
$INTERSECTIONDISPLAY
280
     0
  9
$INTERSECTIONCOLOR
 70
   257
  9
$DIMASSOC
280
     2
  9
$PROJECTNAME
  1

  0
ENDSEC
  0
SECTION
  2
CLASSES
  0
CLASS
  1
ACDBDICTIONARYWDFLT
  2
AcDbDictionaryWithDefault
  3
ObjectDBX Classes
 90
        0
 91
        1
280
     0
281
     0
  0
CLASS
  1
DICTIONARYVAR
  2
AcDbDictionaryVar
  3
ObjectDBX Classes
 90
        0
 91
        2
280
     0
281
     0
  0
CLASS
  1
TABLESTYLE
  2
AcDbTableStyle
  3
ObjectDBX Classes
 90
     4095
 91
        1
280
     0
281
     0
  0
CLASS
  1
MATERIAL
  2
AcDbMaterial
  3
ObjectDBX Classes
 90
        0
 91
        3
280
     0
281
     0
  0
CLASS
  1
VISUALSTYLE
  2
AcDbVisualStyle
  3
ObjectDBX Classes
 90
     4095
 91
       16
280
     0
281
     0
  0
CLASS
  1
VLO-VL
  2
vlo_VL
  3
VL|AutoLISP based application
 90
        0
 91
        0
280
     0
281
     0
  0
CLASS
  1
SORTENTSTABLE
  2
AcDbSortentsTable
  3
ObjectDBX Classes
 90
        0
 91
        1
280
     0
281
     0
  0
CLASS
  1
DIMASSOC
  2
AcDbDimAssoc
  3
"ZcDbDimAssoc|Product Desc:     ZwDim ZRX App For Dimension|Company:          ZwSoft.|WEB Address:      www.zwsoft.com"
 90
        0
 91
        0
280
     0
281
     0
  0
CLASS
  1
SOLID_BACKGROUND
  2
AcDbSolidBackground
  3
SCENEOE
 90
     4095
 91
        0
280
     0
281
     0
  0
CLASS
  1
NPOCOLLECTION
  2
AcDbImpNonPersistentObjectsCollection
  3
ObjectDBX Classes
 90
     1153
 91
        0
280
     0
281
     0
  0
CLASS
  1
SCALE
  2
AcDbScale
  3
ObjectDBX Classes
 90
     1153
 91
       33
280
     0
281
     0
  0
CLASS
  1
MLEADERSTYLE
  2
AcDbMLeaderStyle
  3
ACDB_MLEADERSTYLE_CLASS
 90
     4095
 91
        1
280
     0
281
     0
  0
CLASS
  1
CELLSTYLEMAP
  2
AcDbCellStyleMap
  3
ObjectDBX Classes
 90
     1152
 91
        1
280
     0
281
     0
  0
ENDSEC
  0
SECTION
  2
TABLES
  0
TABLE
  2
VPORT
  5
23
330
0
100
AcDbSymbolTable
 70
     2
  0
VPORT
  5
48E
330
23
100
AcDbSymbolTableRecord
100
AcDbViewportTableRecord
  2
*Active
 70
     0
 10
0.0
 20
0.0
 11
1.0
 21
1.0
 12
41439.36918653747
 22
-2997.459891917986
 13
0.0
 23
0.0
 14
10.0
 24
10.0
 15
10.0
 25
10.0
 16
0.0
 26
0.0
 36
1.0
 17
0.0
 27
0.0
 37
0.0
 40
2039.328182176106
 41
1.857503152585119
 42
50.0
 43
0.0
 44
0.0
 50
0.0
 51
0.0
 71
     0
 72
  1000
 73
     1
 74
     3
 75
     0
 76
     0
 77
     0
 78
     0
281
     0
 65
     1
110
0.0
120
0.0
130
0.0
111
1.0
121
0.0
131
0.0
112
0.0
122
1.0
132
0.0
 79
     0
146
0.0
  0
ENDTAB
  0
TABLE
  2
LTYPE
  5
1E
330
0
100
AcDbSymbolTable
 70
     3
  0
LTYPE
  5
1F
330
1E
100
AcDbSymbolTableRecord
100
AcDbLinetypeTableRecord
  2
ByBlock
 70
     0
  3

 72
    65
 73
     0
 40
0.0
  0
LTYPE
  5
20
330
1E
100
AcDbSymbolTableRecord
100
AcDbLinetypeTableRecord
  2
ByLayer
 70
     0
  3

 72
    65
 73
     0
 40
0.0
  0
LTYPE
  5
C
330
1E
100
AcDbSymbolTableRecord
100
AcDbLinetypeTableRecord
  2
Continuous
 70
     0
  3
Solid line
 72
    65
 73
     0
 40
0.0
  0
LTYPE
  5
21B
330
1E
100
AcDbSymbolTableRecord
100
AcDbLinetypeTableRecord
  2
ACAD_ISO02W100
 70
     0
  3
ISO dash __ __ __ __ __ __ __ __ __ __ __ __ __
 72
    65
 73
     2
 40
15.0
 49
12.0
 74
     0
 49
-3.0
 74
     0
  0
LTYPE
  5
21C
330
1E
100
AcDbSymbolTableRecord
100
AcDbLinetypeTableRecord
  2
CENTER2
 70
     0
  3
Center (.5x) ___ _ ___ _ ___ _ ___ _ ___ _ ___
 72
    65
 73
     4
 40
28.575
 49
19.05
 74
     0
 49
-3.174999999999999
 74
     0
 49
3.174999999999999
 74
     0
 49
-3.174999999999999
 74
     0
  0
ENDTAB
  0
TABLE
  2
LAYER
  5
15
102
{ACAD_XDICTIONARY
360
16
102
}
330
0
100
AcDbSymbolTable
 70
     7
  0
LAYER
  5
6
330
15
100
AcDbSymbolTableRecord
100
AcDbLayerTableRecord
  2
0
 70
     0
 62
     7
  6
Continuous
370
    -3
390
7
  0
LAYER
  5
36
330
15
100
AcDbSymbolTableRecord
100
AcDbLayerTableRecord
  2
尺寸标注
 70
     0
 62
    80
  6
Continuous
370
    18
390
7
1001
AcAecLayerStandard
1000

1000

  0
LAYER
  5
E8
330
15
100
AcDbSymbolTableRecord
100
AcDbLayerTableRecord
  2
细实线
 70
     0
 62
   210
  6
Continuous
370
    18
390
7
1001
AcAecLayerStandard
1000

1000

  0
LAYER
  5
21D
330
15
100
AcDbSymbolTableRecord
100
AcDbLayerTableRecord
  2
Defpoints
 70
     0
 62
     7
  6
Continuous
290
     0
370
    -3
390
7
  0
LAYER
  5
21E
330
15
100
AcDbSymbolTableRecord
100
AcDbLayerTableRecord
  2
剖面线
 70
     0
 62
    50
  6
Continuous
370
    18
390
7
1001
AcAecLayerStandard
1000

1000

  0
LAYER
  5
21F
330
15
100
AcDbSymbolTableRecord
100
AcDbLayerTableRecord
  2
虚线
 70
     0
 62
   130
  6
ACAD_ISO02W100
370
    18
390
7
1001
AcAecLayerStandard
1000

1000

  0
LAYER
  5
220
330
15
100
AcDbSymbolTableRecord
100
AcDbLayerTableRecord
  2
中心线
 70
     0
 62
    10
  6
CENTER2
370
    18
390
7
1001
AcAecLayerStandard
1000

1000

  0
ENDTAB
  0
TABLE
  2
STYLE
  5
1B
330
0
100
AcDbSymbolTable
 70
     3
  0
STYLE
  5
1C
330
1B
100
AcDbSymbolTableRecord
100
AcDbTextStyleTableRecord
  2
Standard
 70
     0
 40
0.0
 41
1.0
 50
0.0
 71
     0
 42
2.5
  3
SimSun.ttf
  4

1001
ACAD
1000
SimSun
1071
    34306
  0
STYLE
  5
2D
330
1B
100
AcDbSymbolTableRecord
100
AcDbTextStyleTableRecord
  2
Arial
 70
     0
 40
0.0
 41
1.0
 50
0.0
 71
     0
 42
2.5
  3
arial.ttf
  4

1001
ACAD
1000
Arial
1071
       34
  0
STYLE
  5
2B
330
1B
100
AcDbSymbolTableRecord
100
AcDbTextStyleTableRecord
  2
TXT
 70
     0
 40
0.0
 41
1.0
 50
0.0
 71
     0
 42
2.5
  3
txt.shx
  4

  0
ENDTAB
  0
TABLE
  2
VIEW
  5
21
330
0
100
AcDbSymbolTable
 70
     0
  0
ENDTAB
  0
TABLE
  2
UCS
  5
22
330
0
100
AcDbSymbolTable
 70
     0
  0
ENDTAB
  0
TABLE
  2
APPID
  5
27
330
0
100
AcDbSymbolTable
 70
     5
  0
APPID
  5
1A
330
27
100
AcDbSymbolTableRecord
100
AcDbRegAppTableRecord
  2
ACAD
 70
     0
  0
APPID
  5
10
330
27
100
AcDbSymbolTableRecord
100
AcDbRegAppTableRecord
  2
ACAD_PSEXT
 70
     0
  0
APPID
  5
37
330
27
100
AcDbSymbolTableRecord
100
AcDbRegAppTableRecord
  2
AcAecLayerStandard
 70
     0
  0
APPID
  5
3F2
330
27
100
AcDbSymbolTableRecord
100
AcDbRegAppTableRecord
  2
ACAD_EXEMPT_FROM_CAD_STANDARDS
 70
     0
  0
APPID
  5
4B4
330
27
100
AcDbSymbolTableRecord
100
AcDbRegAppTableRecord
  2
ACAD_MLEADERVER
 70
     0
  0
ENDTAB
  0
TABLE
  2
DIMSTYLE
  5
28
330
0
100
AcDbSymbolTable
 70
     3
100
AcDbDimStyleTable
 71
     3
340
29
340
2A
340
2C
  0
DIMSTYLE
105
29
330
28
100
AcDbSymbolTableRecord
100
AcDbDimStyleTableRecord
  2
宋体
 70
     0
 40
0.7
 41
20.0
 42
0.0
 43
3.75
 44
10.0
 73
     0
 78
     8
140
30.0
141
0.0
143
0.03937007874016
147
20.0
171
     3
172
     1
271
     0
272
     0
274
     3
279
     1
284
     8
340
1C
  0
DIMSTYLE
105
2C
330
28
100
AcDbSymbolTableRecord
100
AcDbDimStyleTableRecord
  2
Arial
 70
     0
 40
0.7
 41
20.0
 42
0.0
 43
3.75
 44
10.0
 73
     0
 78
     8
140
30.0
141
0.0
143
0.03937007874016
147
20.0
171
     3
172
     1
271
     0
272
     0
274
     3
279
     1
284
     8
340
2D
  0
DIMSTYLE
105
2A
330
28
100
AcDbSymbolTableRecord
100
AcDbDimStyleTableRecord
  2
TXT
 70
     0
 40
0.7
 41
20.0
 42
0.0
 43
3.75
 44
10.0
 73
     0
 78
     8
140
30.0
141
0.0
143
0.03937007874016
147
20.0
171
     3
172
     1
271
     0
272
     0
274
     3
279
     1
284
     8
340
2B
  0
ENDTAB
  0
TABLE
  2
BLOCK_RECORD
  5
1
330
0
100
AcDbSymbolTable
 70
     1
  0
BLOCK_RECORD
  5
2
102
{ACAD_XDICTIONARY
360
3
102
}
330
1
100
AcDbSymbolTableRecord
100
AcDbBlockTableRecord
  2
*Model_Space
340
E
  0
BLOCK_RECORD
  5
11
330
1
100
AcDbSymbolTableRecord
100
AcDbBlockTableRecord
  2
*Paper_Space
340
14
  0
BLOCK_RECORD
  5
416
330
1
100
AcDbSymbolTableRecord
100
AcDbBlockTableRecord
  2
FDGHSDFH
340
0
310
2800000020000000200000000100080000000000000400000000000000000000000000000000000000000000000080000080000000808000800000008000800080800000C0C0C000C0DCC000F0CAA6000020400000206000002080000020A0000020C0000020E00000400000004020000040400000406000004080000040A0
310
000040C0000040E00000600000006020000060400000606000006080000060A0000060C0000060E00000800000008020000080400000806000008080000080A0000080C0000080E00000A0000000A0200000A0400000A0600000A0800000A0A00000A0C00000A0E00000C0000000C0200000C0400000C0600000C0800000C0
310
A00000C0C00000C0E00000E0000000E0200000E0400000E0600000E0800000E0A00000E0C00000E0E00040000000400020004000400040006000400080004000A0004000C0004000E00040200000402020004020400040206000402080004020A0004020C0004020E000404000004040200040404000404060004040800040
310
40A0004040C0004040E00040600000406020004060400040606000406080004060A0004060C0004060E00040800000408020004080400040806000408080004080A0004080C0004080E00040A0000040A0200040A0400040A0600040A0800040A0A00040A0C00040A0E00040C0000040C0200040C0400040C0600040C08000
310
40C0A00040C0C00040C0E00040E0000040E0200040E0400040E0600040E0800040E0A00040E0C00040E0E00080000000800020008000400080006000800080008000A0008000C0008000E00080200000802020008020400080206000802080008020A0008020C0008020E00080400000804020008040400080406000804080
310
008040A0008040C0008040E00080600000806020008060400080606000806080008060A0008060C0008060E00080800000808020008080400080806000808080008080A0008080C0008080E00080A0000080A0200080A0400080A0600080A0800080A0A00080A0C00080A0E00080C0000080C0200080C0400080C0600080C0
310
800080C0A00080C0C00080C0E00080E0000080E0200080E0400080E0600080E0800080E0A00080E0C00080E0E000C0000000C0002000C0004000C0006000C0008000C000A000C000C000C000E000C0200000C0202000C0204000C0206000C0208000C020A000C020C000C020E000C0400000C0402000C0404000C0406000C0
310
408000C040A000C040C000C040E000C0600000C0602000C0604000C0606000C0608000C060A000C060C000C060E000C0800000C0802000C0804000C0806000C0808000C080A000C080C000C080E000C0A00000C0A02000C0A04000C0A06000C0A08000C0A0A000C0A0C000C0A0E000C0C00000C0C02000C0C04000C0C06000
310
C0C08000C0C0A000F0FBFF00A4A0A000808080000000FF0000FF000000FFFF00FF000000FF00FF00FFFF0000FFFFFF0000000000000000000000000000000000000000000000000000000000000000000000000000000000000000000000000000000000000000000000000000000000000000000000000000000000000000
310
00000000000000000000000000000000000000000000000000000000000000000000000000000000000000000000000000000000000000000000000000000000000000000000000000000000000000000000000000000000000000000000000000000000000000000000000000000000000000000000000000000000000000
310
00000000000000000000000000000000000000000000000000000000000000000000000000000000000000000000000000000000000000000000000000000000000000000000000000000000000000000000000000000000000000000000000000000000000000000000000000000000000000000000000000000000000000
310
0000000000000000000000000000000000000000000000000000000000000000000000000000000000000000000000000000000000000000000000000000000000FFFFFFFF00000000000000000000000000000000000000000000000000000000FFFFFFFF000000000000000000000000000000000000000000FFFFFFFFFF
310
FFFFFFFFFFFFFFFFFFFFFFFFFF000000000000000000000000FFFFFFFF0000000000000000000000000000FFFFFFFF000000000000FFFFFFFFFFFFFFFFFFFFFFFFFFFFFFFFFFFFFFFFFFFFFFFFFFFFFFFFFFFF0000FF00000000000000000000000000000000000000000000000000000000FF0000FF000000000000000000
310
00000000000000000000000000000000000000FF000000FFFFFFFFFFFFFFFFFFFFFFFFFFFFFFFFFFFFFFFFFFFFFFFFFFFFFFFF00000000000000000000000000000000000000000000000000000000000000000000000000000000000000000000000000000000000000000000000000000000000000000000000000000000
310
00000000000000000000000000000000000000000000000000000000000000000000000000000000000000000000000000000000000000000000000000000000000000000000000000000000000000000000000000000000000000000000000000000000000000000000000000000000000000000000000000000000000000
310
00000000000000000000000000000000000000000000000000000000000000000000000000000000000000000000000000000000000000000000000000000000000000000000000000000000000000000000000000000000000000000000000000000000000000000000000000000000000000000000000000000000000000
310
0000000000000000000000000000000000000000000000000000000000000000000000000000000000000000000000000000000000000000
102
{BLKREFS
331
453
102
}
1001
ACAD
1000
DesignCenter Data
1002
{
1070
     1
1070
     4
1002
}
  0
ENDTAB
  0
ENDSEC
  0
SECTION
  2
BLOCKS
  0
BLOCK
  5
5
330
2
100
AcDbEntity
  8
0
100
AcDbBlockBegin
  2
*Model_Space
 70
     0
 10
0.0
 20
0.0
 30
0.0
  3
*Model_Space
  1

  0
ENDBLK
  5
D
330
2
100
AcDbEntity
  8
0
100
AcDbBlockEnd
  0
BLOCK
  5
12
330
11
100
AcDbEntity
 67
     1
  8
0
100
AcDbBlockBegin
  2
*Paper_Space
 70
     0
 10
0.0
 20
0.0
 30
0.0
  3
*Paper_Space
  1

  0
ENDBLK
  5
13
330
11
100
AcDbEntity
 67
     1
  8
0
100
AcDbBlockEnd
  0
BLOCK
  5
417
330
416
100
AcDbEntity
  8
0
100
AcDbBlockBegin
  2
FDGHSDFH
 70
     0
 10
0.0
 20
0.0
 30
0.0
  3
FDGHSDFH
  1

  0
LINE
  5
419
330
416
100
AcDbEntity
  8
0
  6
Continuous
 62
     7
100
AcDbLine
 10
37676.56433840403
 20
-3471.977548851575
 30
0.0
 11
37674.70719437514
 21
-3401.056079696575
 31
0.0
  0
LWPOLYLINE
  5
41A
330
416
100
AcDbEntity
  8
0
  6
Continuous
 62
     7
100
AcDbPolyline
 90
       24
 70
     0
 43
0.0
 10
37766.74167304594
 20
-3474.899018006675
 10
37773.61503470584
 20
-3478.858929173475
 10
37786.60746440964
 20
-3485.585906170775
 10
37799.89730703583
 20
-3491.767834276275
 10
37813.30792487803
 20
-3497.375287034875
 10
37826.63229765583
 20
-3502.392656364875
 10
37839.73095678723
 20
-3506.843177030775
 10
37852.71672125833
 20
-3510.826109705174
 10
37865.64123857844
 20
-3514.392704474575
 10
37878.47513073443
 20
-3517.569024846075
 10
37891.15302787923
 20
-3520.371806054975
 10
37903.64559264884
 20
-3522.828515618475
 10
37915.92966157553
 20
-3524.966782598475
 10
37927.96691356904
 20
-3526.810671113875
 10
37939.76485188963
 20
-3528.390830530675
 10
37951.38114426483
 20
-3529.739760224875
 10
37962.76139728354
 20
-3530.872891177075
 10
37973.84072015544
 20
-3531.806880075475
 10
37984.57957040584
 20
-3532.562048856075
 10
37994.94917564234
 20
-3533.157297983575
 10
38004.93107023284
 20
-3533.612899492275
 10
38014.49721436153
 20
-3533.947301558475
 10
38023.51583444413
 20
-3534.174939957375
 10
38031.89835990363
 20
-3534.314167172975
  0
LINE
  5
41B
330
416
100
AcDbEntity
  8
0
  6
Continuous
 62
     7
100
AcDbLine
 10
38080.04596604264
 20
-3566.317132877275
 30
0.0
 11
38045.66949463584
 21
-3566.317131854175
 31
0.0
  0
LINE
  5
41C
330
416
100
AcDbEntity
  8
0
  6
Continuous
 62
     7
100
AcDbLine
 10
38070.59868904084
 20
-3539.537387803875
 30
0.0
 11
38054.10729719533
 21
-3539.721903244374
 31
0.0
  0
LINE
  5
41D
330
416
100
AcDbEntity
  8
0
  6
Continuous
 62
     7
100
AcDbLine
 10
38054.10729719533
 20
-3539.721903244374
 30
0.0
 11
38049.06108799984
 21
-3539.749634241575
 31
0.0
  0
LWPOLYLINE
  5
41E
330
416
100
AcDbEntity
  8
0
  6
Continuous
 62
     7
100
AcDbPolyline
 90
        3
 70
     0
 43
0.0
 10
38080.04596604063
 20
-3539.490111280575
 10
38075.01799680633
 20
-3539.504103664175
 10
38070.59868904084
 20
-3539.537387803875
  0
LWPOLYLINE
  5
41F
330
416
100
AcDbEntity
  8
0
  6
Continuous
 62
     7
100
AcDbPolyline
 90
        3
 70
     0
 43
0.0
 10
38080.04596604063
 20
-3534.125341362075
 10
38074.22050556213
 20
-3534.138793984675
 10
38048.15336883023
 20
-3534.361139146175
  0
LINE
  5
420
330
416
100
AcDbEntity
  8
0
  6
Continuous
 62
     7
100
AcDbLine
 10
38048.15336883023
 20
-3534.361139146175
 30
0.0
 11
38042.94972188793
 21
-3534.378999158075
 31
0.0
  0
LWPOLYLINE
  5
421
330
416
100
AcDbEntity
  8
0
  6
Continuous
 62
     7
100
AcDbPolyline
 90
        6
 70
     0
 43
0.0
 10
38049.06108799984
 20
-3539.749634241575
 10
38045.10538049703
 20
-3539.751866040175
 10
38044.25701219993
 20
-3539.749542717275
 10
38043.55292856973
 20
-3539.744412453275
 10
38043.06203154623
 20
-3539.734368057974
 10
38042.87373875514
 20
-3539.717291326575
  0
LINE
  5
422
330
416
100
AcDbEntity
  8
0
  6
Continuous
 62
     7
100
AcDbLine
 10
38042.94972188793
 20
-3534.378999158075
 30
0.0
 11
38038.54139495103
 21
-3534.376810691675
 31
0.0
  0
LWPOLYLINE
  5
423
330
416
100
AcDbEntity
  8
0
  6
Continuous
 62
     7
100
AcDbPolyline
 90
        3
 70
     0
 43
0.0
 10
38038.54139495103
 20
-3534.376810691675
 10
38037.73014447883
 20
-3534.371662323875
 10
38037.67569013113
 20
-3534.370683553275
  0
LINE
  5
424
330
416
100
AcDbEntity
  8
0
  6
Continuous
 62
     7
100
AcDbLine
 10
38031.89835990363
 20
-3534.314167172975
 30
0.0
 11
38038.04178387384
 21
-3534.374264842975
 31
0.0
  0
LWPOLYLINE
  5
425
330
416
100
AcDbEntity
  8
0
  6
Continuous
 62
     7
100
AcDbPolyline
 90
        4
 70
     0
 43
0.0
 10
38037.36071907653
 20
-3534.367602368174
 10
38037.45886041894
 20
-3534.374454642275
 10
38037.82045137504
 20
-3534.417215961875
 10
38038.55235315143
 20
-3534.576075200775
  0
LINE
  5
426
330
416
100
AcDbEntity
  8
0
  6
Continuous
 62
     7
100
AcDbLine
 10
38038.55235315143
 20
-3534.576075200775
 30
0.0
 11
38039.49449995613
 21
-3534.932123103875
 31
0.0
  0
LWPOLYLINE
  5
427
330
416
100
AcDbEntity
  8
0
  6
Continuous
 62
     7
100
AcDbPolyline
 90
        6
 70
     0
 43
0.0
 10
38039.49449995613
 20
-3534.932123103875
 10
38040.47506612123
 20
-3535.521499391975
 10
38041.38114315004
 20
-3536.347467991375
 10
38042.14409884204
 20
-3537.417397689476
 10
38042.67915710014
 20
-3538.708146222975
 10
38042.87374011944
 20
-3539.717282899975
  0
LINE
  5
428
330
416
100
AcDbEntity
  8
0
  6
Continuous
 62
     7
100
AcDbLine
 10
38045.66949463643
 20
-3566.317131859775
 30
0.0
 11
38042.87372574354
 21
-3539.717167683475
 31
0.0
  0
LINE
  5
429
330
416
100
AcDbEntity
  8
0
  6
Continuous
 62
     7
100
AcDbLine
 10
38042.87373768823
 20
-3539.717281244975
 30
0.0
 11
38042.87373244643
 21
-3539.717167662575
 31
0.0
  0
LINE
  5
42A
330
416
100
AcDbEntity
  8
0
  6
Continuous
 62
     7
100
AcDbLine
 10
38080.04596604264
 20
-3474.899018006675
 30
0.0
 11
37679.56331037893
 21
-3474.899018006675
 31
0.0
  0
LINE
  5
42B
330
416
100
AcDbEntity
  8
0
  6
Continuous
 62
     7
100
AcDbLine
 10
37680.70513832504
 20
-3394.899018006675
 30
0.0
 11
38080.04596604265
 21
-3394.899018007892
 31
0.0
  0
ARC
  5
42C
330
416
100
AcDbEntity
  8
0
  6
Continuous
 62
     7
100
AcDbCircle
 10
38049.64758221784
 20
-3565.899018006675
 30
0.0
 40
4.0
100
AcDbArc
 50
186.000000044634
 51
269.9999997932267
  0
ARC
  5
42D
330
416
100
AcDbEntity
  8
0
  6
Continuous
 62
     7
100
AcDbCircle
 10
37680.70513832504
 20
-3400.899018006675
 30
0.0
 40
6.0
100
AcDbArc
 50
90.0
 51
181.4999999999925
  0
ARC
  5
42E
330
416
100
AcDbEntity
  8
0
  6
Continuous
 62
     7
100
AcDbCircle
 10
37679.56328842793
 20
-3471.899018006675
 30
0.0
 40
3.0
100
AcDbArc
 50
181.5000109746182
 51
270.0004192341264
  0
LWPOLYLINE
  5
42F
330
416
100
AcDbEntity
  8
0
  6
Continuous
 62
     7
100
AcDbPolyline
 90
        6
 70
     0
 43
0.0
 10
37860.04596604464
 20
-3529.899018006676
 10
37848.56870808714
 20
-3528.719196066275
 10
37836.35144437254
 20
-3524.972314865475
 10
37823.66694362444
 20
-3518.662121769575
 10
37810.61106193863
 20
-3510.136215911475
 10
37797.54703891684
 20
-3500.329476808075
  0
LINE
  5
430
330
416
100
AcDbEntity
  8
0
  6
Continuous
 62
     7
100
AcDbLine
 10
37900.04596604464
 20
-3529.899018006676
 30
0.0
 11
37860.04596604464
 21
-3529.899018006676
 31
0.0
  0
LINE
  5
431
330
416
100
AcDbEntity
  8
0
  6
Continuous
 62
     7
100
AcDbLine
 10
37910.49771215023
 20
-3528.847304459875
 30
0.0
 11
37900.04596604464
 21
-3529.899018006676
 31
0.0
  0
LWPOLYLINE
  5
432
330
416
100
AcDbEntity
  8
0
  6
Continuous
 62
     7
100
AcDbPolyline
 90
        3
 70
     0
 43
0.0
 10
37920.84301196439
 20
-3525.719418695071
 10
37919.37970802643
 20
-3526.337160221475
 10
37910.49771215023
 20
-3528.847304459875
  0
LINE
  5
433
330
416
100
AcDbEntity
  8
0
  6
Continuous
 62
     7
100
AcDbLine
 10
37784.94589456664
 20
-3490.559983820275
 30
0.0
 11
37797.54703891684
 21
-3500.329476808075
 31
0.0
  0
LWPOLYLINE
  5
434
330
416
100
AcDbEntity
  8
0
  6
Continuous
 62
     7
100
AcDbPolyline
 90
        4
 70
     0
 43
0.0
 10
37785.58219500883
 20
-3491.046074057275
 10
37774.90999249154
 20
-3483.177137091175
 10
37765.08187708384
 20
-3476.743988165775
 10
37761.68133831698
 20
-3474.899018006675
  0
LINE
  5
435
330
416
100
AcDbEntity
  8
0
  6
Continuous
 62
     7
100
AcDbLine
 10
38049.6475822034
 20
-3569.899018006675
 30
0.0
 11
38080.04596604264
 21
-3569.899018006675
 31
0.0
  0
LINE
  5
436
330
416
100
AcDbEntity
  8
0
  6
Continuous
 62
     7
100
AcDbLine
 10
38483.52759368124
 20
-3471.977548851575
 30
0.0
 11
38485.38473771013
 21
-3401.056079696575
 31
0.0
  0
LWPOLYLINE
  5
437
330
416
100
AcDbEntity
  8
0
  6
Continuous
 62
     7
100
AcDbPolyline
 90
       24
 70
     0
 43
0.0
 10
38393.35025903933
 20
-3474.899018006675
 10
38386.47689737944
 20
-3478.858929173475
 10
38373.48446767563
 20
-3485.585906170775
 10
38360.19462504944
 20
-3491.767834276275
 10
38346.78400720724
 20
-3497.375287034875
 10
38333.45963442944
 20
-3502.392656364875
 10
38320.36097529804
 20
-3506.843177030775
 10
38307.37521082694
 20
-3510.826109705174
 10
38294.45069350684
 20
-3514.392704474575
 10
38281.61680135084
 20
-3517.569024846075
 10
38268.93890420604
 20
-3520.371806054975
 10
38256.44633943644
 20
-3522.828515618475
 10
38244.16227050974
 20
-3524.966782598475
 10
38232.12501851624
 20
-3526.810671113875
 10
38220.32708019564
 20
-3528.390830530675
 10
38208.71078782044
 20
-3529.739760224875
 10
38197.33053480173
 20
-3530.872891177075
 10
38186.25121192983
 20
-3531.806880075475
 10
38175.51236167944
 20
-3532.562048856075
 10
38165.14275644293
 20
-3533.157297983575
 10
38155.16086185244
 20
-3533.612899492275
 10
38145.59471772374
 20
-3533.947301558475
 10
38136.57609764114
 20
-3534.174939957375
 10
38128.19357218164
 20
-3534.314167172975
  0
LINE
  5
438
330
416
100
AcDbEntity
  8
0
  6
Continuous
 62
     7
100
AcDbLine
 10
38080.04596604264
 20
-3566.317132877275
 30
0.0
 11
38114.42243744944
 21
-3566.317131854175
 31
0.0
  0
LINE
  5
439
330
416
100
AcDbEntity
  8
0
  6
Continuous
 62
     7
100
AcDbLine
 10
38089.49324304443
 20
-3539.537387803875
 30
0.0
 11
38105.98463488994
 21
-3539.721903244374
 31
0.0
  0
LINE
  5
43A
330
416
100
AcDbEntity
  8
0
  6
Continuous
 62
     7
100
AcDbLine
 10
38105.98463488994
 20
-3539.721903244374
 30
0.0
 11
38111.03084408544
 21
-3539.749634241575
 31
0.0
  0
LWPOLYLINE
  5
43B
330
416
100
AcDbEntity
  8
0
  6
Continuous
 62
     7
100
AcDbPolyline
 90
        3
 70
     0
 43
0.0
 10
38080.04596604463
 20
-3539.490111280575
 10
38085.07393527894
 20
-3539.504103664175
 10
38089.49324304443
 20
-3539.537387803875
  0
LWPOLYLINE
  5
43C
330
416
100
AcDbEntity
  8
0
  6
Continuous
 62
     7
100
AcDbPolyline
 90
        3
 70
     0
 43
0.0
 10
38080.04596604463
 20
-3534.125341362075
 10
38085.87142652314
 20
-3534.138793984675
 10
38111.93856325504
 20
-3534.361139146175
  0
LINE
  5
43D
330
416
100
AcDbEntity
  8
0
  6
Continuous
 62
     7
100
AcDbLine
 10
38111.93856325504
 20
-3534.361139146175
 30
0.0
 11
38117.14221019734
 21
-3534.378999158075
 31
0.0
  0
LWPOLYLINE
  5
43E
330
416
100
AcDbEntity
  8
0
  6
Continuous
 62
     7
100
AcDbPolyline
 90
        6
 70
     0
 43
0.0
 10
38111.03084408544
 20
-3539.749634241575
 10
38114.98655158824
 20
-3539.751866040175
 10
38115.83491988534
 20
-3539.749542717275
 10
38116.53900351554
 20
-3539.744412453275
 10
38117.02990053904
 20
-3539.734368057974
 10
38117.21819333013
 20
-3539.717291326575
  0
LINE
  5
43F
330
416
100
AcDbEntity
  8
0
  6
Continuous
 62
     7
100
AcDbLine
 10
38117.14221019734
 20
-3534.378999158075
 30
0.0
 11
38121.55053713424
 21
-3534.376810691675
 31
0.0
  0
LWPOLYLINE
  5
440
330
416
100
AcDbEntity
  8
0
  6
Continuous
 62
     7
100
AcDbPolyline
 90
        3
 70
     0
 43
0.0
 10
38121.55053713424
 20
-3534.376810691675
 10
38122.36178760644
 20
-3534.371662323875
 10
38122.41624195414
 20
-3534.370683553275
  0
LINE
  5
441
330
416
100
AcDbEntity
  8
0
  6
Continuous
 62
     7
100
AcDbLine
 10
38128.19357218164
 20
-3534.314167172975
 30
0.0
 11
38122.05014821143
 21
-3534.374264842975
 31
0.0
  0
LWPOLYLINE
  5
442
330
416
100
AcDbEntity
  8
0
  6
Continuous
 62
     7
100
AcDbPolyline
 90
        4
 70
     0
 43
0.0
 10
38122.73121300874
 20
-3534.367602368174
 10
38122.63307166634
 20
-3534.374454642275
 10
38122.27148071023
 20
-3534.417215961875
 10
38121.53957893384
 20
-3534.576075200775
  0
LINE
  5
443
330
416
100
AcDbEntity
  8
0
  6
Continuous
 62
     7
100
AcDbLine
 10
38121.53957893384
 20
-3534.576075200775
 30
0.0
 11
38120.59743212914
 21
-3534.932123103875
 31
0.0
  0
LWPOLYLINE
  5
444
330
416
100
AcDbEntity
  8
0
  6
Continuous
 62
     7
100
AcDbPolyline
 90
        6
 70
     0
 43
0.0
 10
38120.59743212914
 20
-3534.932123103875
 10
38119.61686596404
 20
-3535.521499391975
 10
38118.71078893524
 20
-3536.347467991375
 10
38117.94783324323
 20
-3537.417397689476
 10
38117.41277498514
 20
-3538.708146222975
 10
38117.21819196583
 20
-3539.717282899975
  0
LINE
  5
445
330
416
100
AcDbEntity
  8
0
  6
Continuous
 62
     7
100
AcDbLine
 10
38114.42243744884
 20
-3566.317131859775
 30
0.0
 11
38117.21820634174
 21
-3539.717167683475
 31
0.0
  0
LINE
  5
446
330
416
100
AcDbEntity
  8
0
  6
Continuous
 62
     7
100
AcDbLine
 10
38117.21819439704
 20
-3539.717281244975
 30
0.0
 11
38117.21819963884
 21
-3539.717167662575
 31
0.0
  0
LINE
  5
447
330
416
100
AcDbEntity
  8
0
  6
Continuous
 62
     7
100
AcDbLine
 10
38080.04596604264
 20
-3474.899018006675
 30
0.0
 11
38480.52862170634
 21
-3474.899018006675
 31
0.0
  0
LINE
  5
448
330
416
100
AcDbEntity
  8
0
  6
Continuous
 62
     7
100
AcDbLine
 10
38479.38679376023
 20
-3394.899018006675
 30
0.0
 11
38080.04596604263
 21
-3394.899018007892
 31
0.0
  0
ARC
  5
449
330
416
100
AcDbEntity
  8
0
  6
Continuous
 62
     7
100
AcDbCircle
 10
38110.44434986744
 20
-3565.899018006675
 30
0.0
 40
4.0
100
AcDbArc
 50
270.0000002067733
 51
353.9999999554003
  0
ARC
  5
44A
330
416
100
AcDbEntity
  8
0
  6
Continuous
 62
     7
100
AcDbCircle
 10
38479.38679376023
 20
-3400.899018006675
 30
0.0
 40
6.0
100
AcDbArc
 50
358.5000000000156
 51
90.0
  0
ARC
  5
44B
330
416
100
AcDbEntity
  8
0
  6
Continuous
 62
     7
100
AcDbCircle
 10
38480.52864365734
 20
-3471.899018006675
 30
0.0
 40
3.0
100
AcDbArc
 50
269.9995807662904
 51
358.4999890253803
  0
LWPOLYLINE
  5
44C
330
416
100
AcDbEntity
  8
0
  6
Continuous
 62
     7
100
AcDbPolyline
 90
        6
 70
     0
 43
0.0
 10
38300.04596604064
 20
-3529.899018006676
 10
38311.52322399813
 20
-3528.719196066275
 10
38323.74048771273
 20
-3524.972314865475
 10
38336.42498846083
 20
-3518.662121769575
 10
38349.48087014664
 20
-3510.136215911475
 10
38362.54489316844
 20
-3500.329476808075
  0
LINE
  5
44D
330
416
100
AcDbEntity
  8
0
  6
Continuous
 62
     7
100
AcDbLine
 10
38260.04596604064
 20
-3529.899018006676
 30
0.0
 11
38300.04596604064
 21
-3529.899018006676
 31
0.0
  0
LINE
  5
44E
330
416
100
AcDbEntity
  8
0
  6
Continuous
 62
     7
100
AcDbLine
 10
38249.59421993504
 20
-3528.847304459875
 30
0.0
 11
38260.04596604064
 21
-3529.899018006676
 31
0.0
  0
LWPOLYLINE
  5
44F
330
416
100
AcDbEntity
  8
0
  6
Continuous
 62
     7
100
AcDbPolyline
 90
        3
 70
     0
 43
0.0
 10
38239.24892012088
 20
-3525.719418695071
 10
38240.71222405884
 20
-3526.337160221475
 10
38249.59421993504
 20
-3528.847304459875
  0
LINE
  5
450
330
416
100
AcDbEntity
  8
0
  6
Continuous
 62
     7
100
AcDbLine
 10
38375.14603751863
 20
-3490.559983820275
 30
0.0
 11
38362.54489316844
 21
-3500.329476808075
 31
0.0
  0
LWPOLYLINE
  5
451
330
416
100
AcDbEntity
  8
0
  6
Continuous
 62
     7
100
AcDbPolyline
 90
        4
 70
     0
 43
0.0
 10
38374.50973707643
 20
-3491.046074057275
 10
38385.18193959373
 20
-3483.177137091175
 10
38395.01005500143
 20
-3476.743988165775
 10
38398.41059376829
 20
-3474.899018006675
  0
LINE
  5
452
330
416
100
AcDbEntity
  8
0
  6
Continuous
 62
     7
100
AcDbLine
 10
38110.44434988188
 20
-3569.899018006675
 30
0.0
 11
38080.04596604264
 21
-3569.899018006675
 31
0.0
  0
ENDBLK
  5
418
330
416
100
AcDbEntity
  8
0
100
AcDbBlockEnd
  0
ENDSEC
  0
SECTION
  2
ENTITIES
  0
LWPOLYLINE
  5
3C
330
2
100
AcDbEntity
  8
0
  6
Continuous
 62
     7
100
AcDbPolyline
 90
        4
 70
     0
 43
0.0
 10
39918.32180217476
 20
-3182.931055542363
 10
39916.77019695717
 20
-3184.481578276764
 10
39915.59494508276
 20
-3186.673817170964
 10
39915.14742728656
 20
-3189.311473899864
  0
LINE
  5
3D
330
2
100
AcDbEntity
  8
0
  6
Continuous
 62
     7
100
AcDbLine
 10
39915.14745344076
 20
-3189.311473898464
 30
0.0
 11
39915.14745344076
 21
-3659.152987004864
 31
0.0
  0
LWPOLYLINE
  5
3E
330
2
100
AcDbEntity
  8
0
  6
Continuous
 62
     7
100
AcDbPolyline
 90
        6
 70
     0
 43
0.0
 10
39915.14767097616
 20
-3659.152987000763
 10
39915.50789663376
 20
-3661.527224777464
 10
39916.59528735656
 20
-3663.742842059764
 10
39918.31579631166
 20
-3665.528843149664
 10
39920.50470635616
 20
-3666.703319469963
 10
39923.14676809217
 20
-3667.152327472364
  0
LWPOLYLINE
  5
40
330
2
100
AcDbEntity
  8
0
  6
Continuous
 62
     7
100
AcDbPolyline
 90
        6
 70
     0
 43
0.0
 10
40717.82979425866
 20
-3667.152084078664
 10
40720.20403203536
 20
-3666.791858421064
 10
40722.41964931765
 20
-3665.704467698264
 10
40724.20565040755
 20
-3663.983958743164
 10
40725.38012672786
 20
-3661.795048698664
 10
40725.82913473025
 20
-3659.152986962664
  0
LINE
  5
41
330
2
100
AcDbEntity
  8
0
  6
Continuous
 62
     7
100
AcDbLine
 10
39923.14676809066
 20
-3667.152301614064
 30
0.0
 11
40717.82979426276
 21
-3667.152301614064
 31
0.0
  0
LINE
  5
44
330
2
100
AcDbEntity
  8
0
  6
Continuous
 62
     7
100
AcDbLine
 10
40685.98828114936
 20
-3205.465541893464
 30
0.0
 11
39954.98828116156
 21
-3205.465541893464
 31
0.0
  0
LINE
  5
45
330
2
100
AcDbEntity
  8
0
  6
Continuous
 62
     7
100
AcDbLine
 10
39954.98904502316
 20
-3203.082596887364
 30
0.0
 11
40685.98726234916
 21
-3203.082596887364
 31
0.0
  0
LINE
  5
46
330
2
100
AcDbEntity
  8
0
  6
Continuous
 62
     7
100
AcDbLine
 10
39954.98828115636
 20
-3198.753548442564
 30
0.0
 11
40685.98828115636
 21
-3198.753548442564
 31
0.0
  0
LINE
  5
48
330
2
100
AcDbEntity
  8
0
  6
Continuous
 62
     7
100
AcDbLine
 10
40717.82842328707
 20
-3181.311473898464
 30
0.0
 11
39923.14813902566
 21
-3181.311473898464
 31
0.0
  0
LINE
  5
4A
330
2
100
AcDbEntity
  8
0
  6
Continuous
 62
     7
100
AcDbLine
 10
40725.82910887196
 20
-3659.152986964164
 30
0.0
 11
40725.82910887196
 21
-3189.311473871164
 31
0.0
  0
LWPOLYLINE
  5
4B
330
2
100
AcDbEntity
  8
0
  6
Continuous
 62
     7
100
AcDbPolyline
 90
        4
 70
     0
 43
0.0
 10
40725.82913502897
 20
-3189.311473865263
 10
40725.45208737025
 20
-3186.884763185164
 10
40724.34020749286
 20
-3184.663501093663
 10
40722.65474204316
 20
-3182.931041854164
  0
CIRCLE
  5
4C
330
2
100
AcDbEntity
  8
0
  6
Continuous
 62
     7
100
AcDbCircle
 10
40320.48828115636
 20
-3405.531763997963
 30
0.0
 40
22.25
  0
SPLINE
  5
4D
330
2
100
AcDbEntity
  8
0
  6
Continuous
 62
     7
100
AcDbSpline
210
0.0
220
0.0
230
1.0
 70
     8
 71
     3
 72
    10
 73
     6
 74
     4
 42
0.0000000001
 43
0.0000000001
 44
0.0000000001
 12
-0.7975438710257752
 22
0.6032609499952915
 32
0.0
 13
-0.9999999796846379
 23
-0.0002015706418653
 33
0.0
 40
0.0
 40
0.0
 40
0.0
 40
0.0
 40
0.9904037676762056
 40
3.078542525610471
 40
5.166612870744654
 40
5.166612870744654
 40
5.166612870744654
 40
5.166612870744654
 10
40722.65306198186
 20
-3182.930806836564
 30
0.0
 10
40722.38976516361
 20
-3182.731649530641
 30
0.0
 10
40721.53274031677
 20
-3182.162689838997
 30
0.0
 10
40719.92298753887
 20
-3181.495120372333
 30
0.0
 10
40718.5244467213
 20
-3181.31133360057
 30
0.0
 10
40717.82842328707
 20
-3181.311473898464
 30
0.0
 11
40722.65306198186
 21
-3182.930806836564
 31
0.0
 11
40721.82776245626
 21
-3182.383284858864
 31
0.0
 11
40719.89862381215
 21
-3181.584068014564
 31
0.0
 11
40717.82842328707
 21
-3181.311473898464
 31
0.0
  0
SPLINE
  5
4E
330
2
100
AcDbEntity
  8
0
  6
Continuous
 62
     7
100
AcDbSpline
210
0.0
220
0.0
230
1.0
 70
     8
 71
     3
 72
    16
 73
    12
 74
    10
 42
0.0000000001
 43
0.0000000001
 44
0.0000000001
 12
-0.9999851461050855
 22
-0.0054504650435472
 32
0.0
 13
-0.9999159778087243
 23
0.0129629210760138
 33
0.0
 40
0.0
 40
0.0
 40
0.0
 40
0.0
 40
1.638735349125308
 40
6.677526351784531
 40
11.32423281173174
 40
15.60184616912941
 40
19.53885010941269
 40
23.16841504865025
 40
26.52397085906456
 40
29.63881069819005
 40
30.96030171567816
 40
30.96030171567816
 40
30.96030171567816
 40
30.96030171567816
 10
40019.94074426366
 20
-3647.626535582163
 30
0.0
 10
40019.39450726115
 20
-3647.629512872076
 30
0.0
 10
40017.16869810589
 20
-3647.641626178685
 30
0.0
 10
40013.39400855533
 20
-3647.661953957628
 30
0.0
 10
40008.73970579071
 20
-3647.687012720359
 30
0.0
 10
40004.45263724443
 20
-3647.705828844279
 30
0.0
 10
40000.50457958114
 20
-3647.713908530064
 30
0.0
 10
39996.86386630419
 20
-3647.709786586164
 30
0.0
 10
39993.49724389039
 20
-3647.693498134461
 30
0.0
 10
39990.90004280629
 20
-3647.670399047066
 30
0.0
 10
39989.42137156688
 20
-3647.652648152084
 30
0.0
 10
39988.98091157257
 20
-3647.646938024163
 30
0.0
 11
40019.94074426366
 21
-3647.626535582163
 31
0.0
 11
40018.30203316496
 21
-3647.635450708464
 31
0.0
 11
40013.26331560936
 21
-3647.662656652964
 31
0.0
 11
40008.61667225025
 21
-3647.686872726164
 31
0.0
 11
40004.33909557536
 21
-3647.704587852663
 31
0.0
 11
40000.40209851445
 21
-3647.711947764064
 31
0.0
 11
39996.77253648306
 21
-3647.707353378463
 31
0.0
 11
39993.41702171246
 21
-3647.690757562864
 31
0.0
 11
39990.30230720666
 21
-3647.662815287964
 31
0.0
 11
39988.98091157257
 21
-3647.646938024163
 31
0.0
  0
SPLINE
  5
4F
330
2
100
AcDbEntity
  8
0
  6
Continuous
 62
     7
100
AcDbSpline
210
0.0
220
0.0
230
1.0
 70
     8
 71
     3
 72
    81
 73
    77
 74
    75
 42
0.0000000001
 43
0.0000000001
 44
0.0000000001
 12
-0.9999159778087216
 22
0.0129629210762146
 32
0.0
 13
-0.0012341274668271
 23
0.9999992384644079
 33
0.0
 40
0.0
 40
0.0
 40
0.0
 40
0.0
 40
1.572411848627305
 40
4.251117565175677
 40
6.722803606303067
 40
9.006128391776728
 40
11.12261497344261
 40
13.08847924357693
 40
14.91073412512274
 40
16.59561142051411
 40
18.15275710644365
 40
19.59280211012372
 40
20.92632937979666
 40
22.16407703267369
 40
23.31682110658002
 40
24.3955547859001
 40
25.39428271052305
 40
26.29571906708708
 40
27.11589880171028
 40
27.88889726095158
 40
28.65067444421664
 40
29.421354571069
 40
30.19969471288068
 40
30.97349703046344
 40
31.70313459293826
 40
32.40749859261016
 40
33.1416812188808
 40
33.92507786616449
 40
34.77405110731533
 40
35.70483483917897
 40
36.72774080463911
 40
37.84946588641292
 40
39.0707520422632
 40
40.39248856558939
 40
41.82610526952126
 40
43.38853794409545
 40
45.0956849297949
 40
46.97147623060108
 40
49.0541937667462
 40
51.37058041967666
 40
53.99068631601249
 40
56.77832455419811
 40
59.3739975047075
 40
61.63668293902376
 40
63.70980296230607
 40
65.6697119389485
 40
67.50370677058471
 40
69.30587606354507
 40
71.18443586180956
 40
73.20353634287883
 40
75.42990850325496
 40
77.89235114962533
 40
80.56601075051524
 40
83.44653881209778
 40
86.56322755170718
 40
89.93382678563685
 40
93.56345150945371
 40
97.4670000118381
 40
101.6784789259698
 40
106.2334848690011
 40
111.1618251013553
 40
116.4863987177556
 40
122.2321543297095
 40
128.4322789796765
 40
135.1260552442392
 40
144.3534426734885
 40
152.1563908278656
 40
160.5804061221212
 40
169.6749042570159
 40
179.4929899533498
 40
190.0915386227162
 40
201.5307821377774
 40
213.8748007995312
 40
227.1921816101918
 40
241.5536496628923
 40
257.0408912546313
 40
257.0408912546313
 40
257.0408912546313
 40
257.0408912546313
 10
39988.98091157257
 20
-3647.646938024163
 30
0.0
 10
39988.45681832885
 20
-3647.640143673932
 30
0.0
 10
39987.03991885632
 20
-3647.620157469205
 30
0.0
 10
39984.79931337956
 20
-3647.581356156247
 30
0.0
 10
39982.32196870602
 20
-3647.528337686671
 30
0.0
 10
39980.03219516288
 20
-3647.470475097513
 30
0.0
 10
39977.91118439265
 20
-3647.409183389185
 30
0.0
 10
39975.94400141671
 20
-3647.345756030992
 30
0.0
 10
39974.12080076481
 20
-3647.28144232218
 30
0.0
 10
39972.43392212929
 20
-3647.217386127312
 30
0.0
 10
39970.87449939281
 20
-3647.154491107648
 30
0.0
 10
39969.43221949091
 20
-3647.093392068153
 30
0.0
 10
39968.09640971576
 20
-3647.034503072238
 30
0.0
 10
39966.85635530815
 20
-3646.978022061045
 30
0.0
 10
39965.70120525076
 20
-3646.924084050919
 30
0.0
 10
39964.62568349557
 20
-3646.872977557691
 30
0.0
 10
39963.6338626591
 20
-3646.825302215428
 30
0.0
 10
39962.72814109197
 20
-3646.781474745576
 30
0.0
 10
39961.89757808381
 20
-3646.741215089502
 30
0.0
 10
39961.11351817713
 20
-3646.703113671844
 30
0.0
 10
39960.34594290031
 20
-3646.665726904694
 30
0.0
 10
39959.57659807695
 20
-3646.628069780441
 30
0.0
 10
39958.80324581766
 20
-3646.590300706563
 30
0.0
 10
39958.04360574851
 20
-3646.552207410903
 30
0.0
 10
39957.30846612836
 20
-3646.518020838517
 30
0.0
 10
39956.58661787235
 20
-3646.482243721737
 30
0.0
 10
39955.84737372769
 20
-3646.436149321371
 30
0.0
 10
39955.06134902661
 20
-3646.367686461163
 30
0.0
 10
39954.21362867204
 20
-3646.25924682335
 30
0.0
 10
39953.29211891997
 20
-3646.104177345965
 30
0.0
 10
39952.28878249523
 20
-3645.892417708371
 30
0.0
 10
39951.20161866932
 20
-3645.613557273201
 30
0.0
 10
39950.03397966294
 20
-3645.252731206505
 30
0.0
 10
39948.78982788812
 20
-3644.793323124015
 30
0.0
 10
39947.47140495888
 20
-3644.213592515728
 30
0.0
 10
39946.08179051614
 20
-3643.484792198578
 30
0.0
 10
39944.62870833627
 20
-3642.569746428497
 30
0.0
 10
39943.12838647051
 20
-3641.417485736916
 30
0.0
 10
39941.61341497813
 20
-3639.968795635571
 30
0.0
 10
39940.12426821433
 20
-3638.155884137753
 30
0.0
 10
39938.769397327
 20
-3635.956653101866
 30
0.0
 10
39937.68452406531
 20
-3633.511121646415
 30
0.0
 10
39936.95423943804
 20
-3631.060734303934
 30
0.0
 10
39936.6136538061
 20
-3628.768720133763
 30
0.0
 10
39936.53134775256
 20
-3626.670043107079
 30
0.0
 10
39936.52802161152
 20
-3624.714499632181
 30
0.0
 10
39936.51657068731
 20
-3622.849141833953
 30
0.0
 10
39936.50887697729
 20
-3621.010924701616
 30
0.0
 10
39936.50327083999
 20
-3619.110986746506
 30
0.0
 10
39936.50049659857
 20
-3617.06964435422
 30
0.0
 10
39936.50069391891
 20
-3614.83367168367
 30
0.0
 10
39936.50426664155
 20
-3612.379515438336
 30
0.0
 10
39936.51178338232
 20
-3609.707315131242
 30
0.0
 10
39936.52341595371
 20
-3606.817045809794
 30
0.0
 10
39936.53912505487
 20
-3603.694479609971
 30
0.0
 10
39936.55825390537
 20
-3600.322229557774
 30
0.0
 10
39936.57952890451
 20
-3596.687701003943
 30
0.0
 10
39936.60118399518
 20
-3592.772876755969
 30
0.0
 10
39936.62278966681
 20
-3588.549587391338
 30
0.0
 10
39936.64350127393
 20
-3583.984692409691
 30
0.0
 10
39936.66309256287
 20
-3579.048757778929
 30
0.0
 10
39936.6814786281
 20
-3573.715899452758
 30
0.0
 10
39936.69856602591
 20
-3567.959106560354
 30
0.0
 10
39936.71390541944
 20
-3561.745906672818
 30
0.0
 10
39936.73026518705
 20
-3554.372161174518
 30
0.0
 10
39936.73825687898
 20
-3546.464126819162
 30
0.0
 10
39936.75104147476
 20
-3537.979352805412
 30
0.0
 10
39936.75903703651
 20
-3529.538869020458
 30
0.0
 10
39936.76527462753
 20
-3520.426671395329
 30
0.0
 10
39936.76868250496
 20
-3510.589627598676
 30
0.0
 10
39936.76883861294
 20
-3499.971001453977
 30
0.0
 10
39936.76508145124
 20
-3488.510398211435
 30
0.0
 10
39936.75634785459
 20
-3476.143519954939
 30
0.0
 10
39936.74157837789
 20
-3462.802572036947
 30
0.0
 10
39936.72240819565
 20
-3448.413887987511
 30
0.0
 10
39936.70890213611
 20
-3438.464327241915
 30
0.0
 10
39936.70253105936
 20
-3433.301917309364
 30
0.0
 11
39988.98091157257
 21
-3647.646938024163
 31
0.0
 11
39987.40865647266
 21
-3647.624736165563
 31
0.0
 11
39984.73035387196
 21
-3647.578265799364
 31
0.0
 11
39982.25923456726
 21
-3647.525338794364
 31
0.0
 11
39979.97663893686
 21
-3647.467639019364
 31
0.0
 11
39977.86103527696
 21
-3647.406511246663
 31
0.0
 11
39975.89619126846
 21
-3647.343183915664
 31
0.0
 11
39974.07506785776
 21
-3647.278978181364
 31
0.0
 11
39972.39140251857
 21
-3647.215083532763
 31
0.0
 11
39970.83552015186
 21
-3647.152371905664
 31
0.0
 11
39969.39676391406
 21
-3647.091461308664
 31
0.0
 11
39968.06452923657
 21
-3647.032760856863
 31
0.0
 11
39966.82806140407
 21
-3646.976488737764
 31
0.0
 11
39965.67656966396
 21
-3646.922770282764
 31
0.0
 11
39964.59904987117
 21
-3646.871609291564
 31
0.0
 11
39963.60147224166
 21
-3646.823689144064
 31
0.0
 11
39962.70108783896
 21
-3646.780152581064
 31
0.0
 11
39961.88187026736
 21
-3646.740436495364
 31
0.0
 11
39961.10978287106
 21
-3646.702917560564
 31
0.0
 11
39960.34890849356
 21
-3646.665841171863
 31
0.0
 11
39959.57914772666
 21
-3646.628208477664
 31
0.0
 11
39958.80174315717
 21
-3646.590057308863
 31
0.0
 11
39958.02887963996
 21
-3646.551952053664
 31
0.0
 11
39957.30006767097
 21
-3646.517252105264
 31
0.0
 11
39956.59662323207
 21
-3646.481272035564
 31
0.0
 11
39955.86394710336
 21
-3646.434263322064
 31
0.0
 11
39955.08365810606
 21
-3646.364554013763
 31
0.0
 11
39954.24146992226
 21
-3646.257434327163
 31
0.0
 11
39953.32354093287
 21
-3646.103276207264
 31
0.0
 11
39952.32260847267
 21
-3645.892395140564
 31
0.0
 11
39951.23612725886
 21
-3645.613422505463
 31
0.0
 11
39950.06935622536
 21
-3645.252610601764
 31
0.0
 11
39948.82959804686
 21
-3644.794367111964
 31
0.0
 11
39947.51751972066
 21
-3644.216693051863
 31
0.0
 11
39946.13429616807
 21
-3643.490133717663
 31
0.0
 11
39944.69064682216
 21
-3642.578965568064
 31
0.0
 11
39943.20396093486
 21
-3641.435130756264
 31
0.0
 11
39941.69870265946
 21
-3639.995717730164
 31
0.0
 11
39940.22864313566
 21
-3638.205585857264
 31
0.0
 11
39938.84938003256
 21
-3635.977899119764
 31
0.0
 11
39937.71630043386
 21
-3633.430928847064
 31
0.0
 11
39936.98674878746
 21
-3630.939890416764
 31
0.0
 11
39936.64692239327
 21
-3628.702869317964
 31
0.0
 11
39936.54319526766
 21
-3626.632345878264
 31
0.0
 11
39936.52645244806
 21
-3624.672508416963
 31
0.0
 11
39936.51710786697
 21
-3622.838537391764
 31
0.0
 11
39936.50934670436
 21
-3621.036384810864
 31
0.0
 11
39936.50388943966
 21
-3619.157832939364
 31
0.0
 11
39936.50105374896
 21
-3617.138734449564
 31
0.0
 11
39936.50116886666
 21
-3614.912362292164
 31
0.0
 11
39936.50469822357
 21
-3612.449922175063
 31
0.0
 11
39936.51210928026
 21
-3609.776272845464
 31
0.0
 11
39936.52356310716
 21
-3606.895767555864
 31
0.0
 11
39936.53901948566
 21
-3603.779117142364
 31
0.0
 11
39936.55786213846
 21
-3600.408570576864
 31
0.0
 11
39936.57880672776
 21
-3596.779006283464
 31
0.0
 11
39936.60035603436
 21
-3592.875517262363
 31
0.0
 11
39936.62181360467
 21
-3588.664093011964
 31
0.0
 11
39936.64252240976
 21
-3584.109134144263
 31
0.0
 11
39936.66215660596
 21
-3579.180833022763
 31
0.0
 11
39936.68058528646
 21
-3573.856291297863
 31
0.0
 11
39936.69765645237
 21
-3568.110561045964
 31
0.0
 11
39936.71325053886
 21
-3561.910456006564
 31
0.0
 11
39936.72725817786
 21
-3555.216694398464
 31
0.0
 11
39936.73956362857
 21
-3545.989315174363
 31
0.0
 11
39936.75002978836
 21
-3538.186374039164
 31
0.0
 11
39936.75847053396
 21
-3529.762362973663
 31
0.0
 11
39936.76461665516
 21
-3520.667866915564
 31
0.0
 11
39936.76807030107
 21
-3510.849781826664
 31
0.0
 11
39936.76825251416
 21
-3500.251233158863
 31
0.0
 11
39936.76448637767
 21
-3488.811990263763
 31
0.0
 11
39936.75578354626
 21
-3476.467974669863
 31
0.0
 11
39936.74148261706
 21
-3463.150601537764
 31
0.0
 11
39936.72285024256
 21
-3448.789145571764
 31
0.0
 11
39936.70253105936
 21
-3433.301917309364
 31
0.0
  0
SPLINE
  5
50
330
2
100
AcDbEntity
  8
0
  6
Continuous
 62
     7
100
AcDbSpline
210
0.0
220
0.0
230
1.0
 70
     8
 71
     3
 72
    16
 73
    12
 74
    10
 42
0.0000000001
 43
0.0000000001
 44
0.0000000001
 12
-0.9999160240250281
 22
-0.0129593556159012
 32
0.0
 13
-0.9999851307097562
 23
0.0054532888601044
 33
0.0
 40
0.0
 40
0.0
 40
0.0
 40
0.0
 40
0.1000396420501266
 40
3.256729204398237
 40
6.652734593063325
 40
10.32040600185289
 40
14.29538146393919
 40
18.61317796528027
 40
23.30499239063628
 40
28.3949518050355
 40
30.95841686823209
 40
30.95841686823209
 40
30.95841686823209
 40
30.95841686823209
 10
40651.99323325425
 20
-3647.646969598863
 30
0.0
 10
40651.95988950722
 20
-3647.64740174863
 30
0.0
 10
40650.87440326289
 20
-3647.661391155587
 30
0.0
 10
40648.6569394914
 20
-3647.6847293715
 30
0.0
 10
40645.25020718541
 20
-3647.705909495306
 30
0.0
 10
40641.57065679907
 20
-3647.714125237291
 30
0.0
 10
40637.58383896349
 20
-3647.709174673758
 30
0.0
 10
40633.25567377669
 20
-3647.692199494064
 30
0.0
 10
40628.5558833594
 20
-3647.667192729893
 30
0.0
 10
40624.44086320117
 20
-3647.645075648493
 30
0.0
 10
40621.88975948912
 20
-3647.631190510888
 30
0.0
 10
40621.03528384036
 20
-3647.626530739064
 30
0.0
 11
40651.99323325425
 21
-3647.646969598863
 31
0.0
 11
40651.89320191916
 21
-3647.648258777064
 31
0.0
 11
40648.73668956526
 21
-3647.681706537664
 31
0.0
 11
40645.34075205566
 21
-3647.703178164764
 31
0.0
 11
40641.67309091766
 21
-3647.711858005663
 31
0.0
 11
40637.69811772086
 21
-3647.707614312063
 31
0.0
 11
40633.38035046056
 21
-3647.691723659764
 31
0.0
 11
40628.68859673156
 21
-3647.667858446564
 31
0.0
 11
40623.59871099117
 21
-3647.640472502164
 31
0.0
 11
40621.03528384036
 21
-3647.626530739064
 31
0.0
  0
SPLINE
  5
51
330
2
100
AcDbEntity
  8
0
  6
Continuous
 62
     7
100
AcDbSpline
210
0.0
220
0.0
230
1.0
 70
     8
 71
     3
 72
    29
 73
    25
 74
    23
 42
0.0000000001
 43
0.0000000001
 44
0.0000000001
 12
-0.9999851307097538
 22
0.00545328886056
 32
0.0
 13
-0.9999999999999996
 23
0.000000030462202
 33
0.0
 40
0.0
 40
0.0
 40
0.0
 40
0.0
 40
2.9491180624347
 40
8.911403197326693
 40
15.35055586388636
 40
22.29815547134153
 40
29.79144437363062
 40
37.87230672418227
 40
46.58636689386574
 40
55.98027277617828
 40
66.10557119368566
 40
77.02143191439614
 40
88.79485546869359
 40
101.4988149287218
 40
115.2130938925809
 40
130.0246551450526
 40
146.0291768090541
 40
163.3277325572752
 40
182.0247174956805
 40
202.2315302050671
 40
224.0650863280947
 40
247.6464650492489
 40
273.0944850084914
 40
300.5495135189359
 40
300.5495135189359
 40
300.5495135189359
 40
300.5495135189359
 10
40621.03528384036
 20
-3647.626530739064
 30
0.0
 10
40620.05225910331
 20
-3647.621169941504
 30
0.0
 10
40617.08183573767
 20
-3647.604934990261
 30
0.0
 10
40611.96505985982
 20
-3647.577031220082
 30
0.0
 10
40605.51547201577
 20
-3647.54271215726
 30
0.0
 10
40598.55555526845
 20
-3647.505973188495
 30
0.0
 10
40591.04841638045
 20
-3647.465052458214
 30
0.0
 10
40582.95248480933
 20
-3647.417589254962
 30
0.0
 10
40574.22304244211
 20
-3647.363562286241
 30
0.0
 10
40564.81214580036
 20
-3647.30351910419
 30
0.0
 10
40554.66733611361
 20
-3647.237936023419
 30
0.0
 10
40543.72936863138
 20
-3647.167504672283
 30
0.0
 10
40531.931854395
 20
-3647.093238492391
 30
0.0
 10
40519.20153075803
 20
-3647.016612837381
 30
0.0
 10
40505.45847772574
 20
-3646.939891702204
 30
0.0
 10
40490.61520626604
 20
-3646.866055989805
 30
0.0
 10
40474.57713081256
 20
-3646.799087536605
 30
0.0
 10
40457.24385910089
 20
-3646.744652732131
 30
0.0
 10
40438.50978335839
 20
-3646.703757177914
 30
0.0
 10
40418.26401399082
 20
-3646.677202037829
 30
0.0
 10
40396.39010067099
 20
-3646.664151840471
 30
0.0
 10
40372.76911519774
 20
-3646.662173016709
 30
0.0
 10
40347.27430665113
 20
-3646.667263730858
 30
0.0
 10
40329.6399573265
 20
-3646.670586436944
 30
0.0
 10
40320.48828115636
 20
-3646.670586158164
 30
0.0
 11
40621.03528384036
 21
-3647.626530739064
 31
0.0
 11
40618.08620973816
 21
-3647.610428382063
 31
0.0
 11
40612.12401265876
 21
-3647.578024428663
 31
0.0
 11
40605.68495170236
 21
-3647.543657831064
 31
0.0
 11
40598.73745017416
 21
-3647.506741424663
 31
0.0
 11
40591.24427407596
 21
-3647.465625314263
 31
0.0
 11
40583.16354970036
 21
-3647.418403559063
 31
0.0
 11
40574.44965503056
 21
-3647.364697650964
 31
0.0
 11
40565.05593917326
 21
-3647.304947186464
 31
0.0
 11
40554.93085110586
 21
-3647.239681031264
 31
0.0
 11
40544.01521536736
 21
-3647.169597521564
 31
0.0
 11
40532.24202365486
 21
-3647.095711869063
 31
0.0
 11
40519.53829262336
 21
-3647.019528923563
 31
0.0
 11
40505.82422568106
 21
-3646.943270148364
 31
0.0
 11
40491.01284600596
 21
-3646.869929465264
 31
0.0
 11
40475.00846203006
 21
-3646.803542377764
 31
0.0
 11
40457.70999299485
 21
-3646.748770008264
 31
0.0
 11
40439.01305368036
 21
-3646.707465565864
 31
0.0
 11
40418.80625932806
 21
-3646.680228163464
 31
0.0
 11
40396.97270765156
 21
-3646.666293781564
 31
0.0
 11
40373.39132912086
 21
-3646.663296754464
 31
0.0
 11
40347.94330944346
 21
-3646.667084225064
 31
0.0
 11
40320.48828115636
 21
-3646.670586158164
 31
0.0
  0
SPLINE
  5
52
330
2
100
AcDbEntity
  8
0
  6
Continuous
 62
     7
100
AcDbSpline
210
0.0
220
0.0
230
1.0
 70
     8
 71
     3
 72
    12
 73
     8
 74
     6
 42
0.0000000001
 43
0.0000000001
 44
0.0000000001
 12
1.0
 22
0.0000000132249639
 32
0.0
 13
0.0
 23
-1.0
 33
0.0
 40
0.0
 40
0.0
 40
0.0
 40
0.0
 40
3.566376004037981
 40
6.769318417592959
 40
9.362131622471256
 40
11.11836516569757
 40
12.03027854258763
 40
12.03027854258763
 40
12.03027854258763
 40
12.03027854258763
 10
40320.48828115636
 20
-3329.605219380063
 30
0.0
 10
40321.6770731577
 20
-3329.605219364342
 30
0.0
 10
40323.93723197873
 20
-3329.676301256187
 30
0.0
 10
40327.03501600448
 20
-3329.95236828966
 30
0.0
 10
40329.54745658591
 20
-3330.444535430062
 30
0.0
 10
40331.1569125222
 20
-3330.901676088477
 30
0.0
 10
40331.98828195176
 20
-3331.578414932034
 30
0.0
 10
40331.98828195176
 20
-3331.882386057664
 30
0.0
 11
40320.48828115636
 21
-3329.605219380063
 31
0.0
 11
40324.05294261846
 21
-3329.715792716564
 31
0.0
 11
40327.24008698027
 21
-3330.033520464164
 31
0.0
 11
40329.78440732086
 21
-3330.532633998164
 31
0.0
 11
40331.42176072137
 21
-3331.167795473863
 31
0.0
 11
40331.98828195176
 21
-3331.882386057664
 31
0.0
  0
SPLINE
  5
53
330
2
100
AcDbEntity
  8
0
  6
Continuous
 62
     7
100
AcDbSpline
210
0.0
220
0.0
230
1.0
 70
     8
 71
     3
 72
    96
 73
    92
 74
    90
 42
0.0000000001
 43
0.0000000001
 44
0.0000000001
 12
-0.001252858979257
 22
-0.999999215171881
 32
0.0
 13
-0.9999160240250288
 23
-0.0129593556158481
 33
0.0
 40
0.0
 40
0.0
 40
0.0
 40
0.0
 40
14.78454165553541
 40
28.46940767136182
 40
41.13967884819426
 40
52.87347989623778
 40
63.74291160137139
 40
73.81317587132129
 40
83.14388823199369
 40
91.78994046837546
 40
99.80137026754389
 40
107.2244963614264
 40
114.1028404617614
 40
122.4758254421553
 40
128.3803448680481
 40
133.8514294351994
 40
138.9233348806568
 40
143.6258908410923
 40
147.9812536067712
 40
152.0091759395276
 40
155.7320019807449
 40
159.1777903336525
 40
162.3763940314593
 40
165.3571039194929
 40
168.134710632266
 40
170.7083030168397
 40
173.0862981060263
 40
175.2863863292713
 40
177.3293057827904
 40
179.2253533246715
 40
180.9631877953553
 40
182.5462223016224
 40
183.9926558395915
 40
185.3206909254293
 40
186.548730364479
 40
187.6953498778959
 40
188.7781818734849
 40
189.8177284373443
 40
190.7797707585329
 40
191.6187547771188
 40
192.3770512349462
 40
193.118891090416
 40
193.8545561353047
 40
194.5712636129684
 40
195.2716045409323
 40
195.9760975965873
 40
196.7114917784731
 40
197.5058831372674
 40
198.385074939413
 40
199.361233224235
 40
200.4318687745468
 40
201.5944421881199
 40
202.8596156152769
 40
204.2412673352866
 40
205.7514153571158
 40
207.4110043755955
 40
209.1937296768577
 40
211.0002278511153
 40
212.7344347481926
 40
214.3418097591668
 40
215.7998618095779
 40
217.097608117448
 40
218.2545505598827
 40
219.3012081222051
 40
220.2541510223186
 40
221.1206735369581
 40
221.8996684597758
 40
222.5978858178905
 40
223.2769754233236
 40
224.0027948570902
 40
224.781997866146
 40
225.586920394214
 40
226.3833416687458
 40
227.1798745302133
 40
228.00735088959
 40
228.9006627100806
 40
229.8885557236733
 40
230.9766434795303
 40
232.1544586824124
 40
233.4183589140489
 40
234.7766279414696
 40
236.2400318903153
 40
237.8195271316724
 40
239.5266090794017
 40
241.3729913557459
 40
243.3687716540222
 40
245.5204895194638
 40
247.8377343205012
 40
250.3402639787633
 40
253.0493029591326
 40
255.8793779700475
 40
255.8793779700475
 40
255.8793779700475
 40
255.8793779700475
 10
40704.27255501916
 20
-3434.473901402364
 30
0.0
 10
40704.2663807039
 20
-3439.402078086434
 30
0.0
 10
40704.25351561989
 20
-3448.891871941704
 30
0.0
 10
40704.23527284367
 20
-3462.605086098391
 30
0.0
 10
40704.22110213725
 20
-3475.301391139933
 30
0.0
 10
40704.21232701249
 20
-3487.059222802502
 30
0.0
 10
40704.20817697952
 20
-3497.950387892541
 30
0.0
 10
40704.20757499027
 20
-3508.040524160845
 30
0.0
 10
40704.20999317033
 20
-3517.389533604553
 30
0.0
 10
40704.21478778347
 20
-3526.052263908721
 30
0.0
 10
40704.22177457945
 20
-3534.079130271556
 30
0.0
 10
40704.22997237217
 20
-3541.516759399812
 30
0.0
 10
40704.24262623996
 20
-3549.074900616336
 30
0.0
 10
40704.24967959783
 20
-3556.126847870515
 30
0.0
 10
40704.26499356111
 20
-3562.709693906987
 30
0.0
 10
40704.27873078489
 20
-3568.19217976805
 30
0.0
 10
40704.29378256441
 20
-3573.274006355714
 30
0.0
 10
40704.30968417146
 20
-3577.98392103243
 30
0.0
 10
40704.32638276836
 20
-3582.345836241757
 30
0.0
 10
40704.3436997121
 20
-3586.381169631552
 30
0.0
 10
40704.36163953295
 20
-3590.113305574972
 30
0.0
 10
40704.37974749453
 20
-3593.568997573478
 30
0.0
 10
40704.39760885274
 20
-3596.777315219243
 30
0.0
 10
40704.41501533716
 20
-3599.762904582222
 30
0.0
 10
40704.43096063177
 20
-3602.540161820305
 30
0.0
 10
40704.44476063467
 20
-3605.116523040827
 30
0.0
 10
40704.45597480109
 20
-3607.500388785212
 30
0.0
 10
40704.46454519087
 20
-3609.707373350563
 30
0.0
 10
40704.47059832916
 20
-3611.753716454767
 30
0.0
 10
40704.47431094325
 20
-3613.645980298103
 30
0.0
 10
40704.47594924228
 20
-3615.384951988434
 30
0.0
 10
40704.47587160129
 20
-3616.974053097663
 30
0.0
 10
40704.47428991888
 20
-3618.426553538647
 30
0.0
 10
40704.47145974529
 20
-3619.760720139936
 30
0.0
 10
40704.46753191991
 20
-3620.994945446052
 30
0.0
 10
40704.46281152118
 20
-3622.147432885844
 30
0.0
 10
40704.45773012115
 20
-3623.237087025638
 30
0.0
 10
40704.45184431157
 20
-3624.265211214645
 30
0.0
 10
40704.44801269007
 20
-3625.212059751771
 30
0.0
 10
40704.44345547541
 20
-3626.06516032571
 30
0.0
 10
40704.4307151686
 20
-3626.84478711861
 30
0.0
 10
40704.4059661255
 20
-3627.589692648724
 30
0.0
 10
40704.3643613835
 20
-3628.32000160949
 30
0.0
 10
40704.30202415503
 20
-3629.034989257876
 30
0.0
 10
40704.21489685073
 20
-3629.736977559871
 30
0.0
 10
40704.09664350878
 20
-3630.440734028875
 30
0.0
 10
40703.94325192888
 20
-3631.169735901128
 30
0.0
 10
40703.74490891489
 20
-3631.94810134334
 30
0.0
 10
40703.48921278905
 20
-3632.793844309281
 30
0.0
 10
40703.16332677141
 20
-3633.713520085843
 30
0.0
 10
40702.75642654691
 20
-3634.703404762294
 30
0.0
 10
40702.25591467471
 20
-3635.757343817819
 30
0.0
 10
40701.64254258405
 20
-3636.870159929364
 30
0.0
 10
40700.89168935249
 20
-3638.036227342288
 30
0.0
 10
40699.97146567441
 20
-3639.244609658239
 30
0.0
 10
40698.85929083837
 20
-3640.467609706464
 30
0.0
 10
40697.56433172714
 20
-3641.648283293981
 30
0.0
 10
40696.14016138989
 20
-3642.711447778932
 30
0.0
 10
40694.67583812374
 20
-3643.610178166517
 30
0.0
 10
40693.24840263134
 20
-3644.335998165513
 30
0.0
 10
40691.90829201304
 20
-3644.903726401164
 30
0.0
 10
40690.67837486699
 20
-3645.339736030973
 30
0.0
 10
40689.55918874396
 20
-3645.672364128731
 30
0.0
 10
40688.537707141
 20
-3645.925971831507
 30
0.0
 10
40687.60176203745
 20
-3646.118886808512
 30
0.0
 10
40686.74709713216
 20
-3646.260726679876
 30
0.0
 10
40685.97205623737
 20
-3646.360429876593
 30
0.0
 10
40685.25618527174
 20
-3646.426183721331
 30
0.0
 10
40684.55665506585
 20
-3646.472794073712
 30
0.0
 10
40683.82959081598
 20
-3646.510643621225
 30
0.0
 10
40683.06041526509
 20
-3646.545875047733
 30
0.0
 10
40682.2678959774
 20
-3646.585657451442
 30
0.0
 10
40681.46955617514
 20
-3646.624660028438
 30
0.0
 10
40680.66371127274
 20
-3646.664115753404
 30
0.0
 10
40679.82559794411
 20
-3646.70493985778
 30
0.0
 10
40678.92376765458
 20
-3646.748748893598
 30
0.0
 10
40677.93516359369
 20
-3646.796656871023
 30
0.0
 10
40676.8518274201
 20
-3646.848973408872
 30
0.0
 10
40675.6765676074
 20
-3646.905139427939
 30
0.0
 10
40674.41130178434
 20
-3646.964588731797
 30
0.0
 10
40673.05086972724
 20
-3647.026896802761
 30
0.0
 10
40671.58524501262
 20
-3647.091703121204
 30
0.0
 10
40670.00333373279
 20
-3647.158671195548
 30
0.0
 10
40668.29371924753
 20
-3647.227218716493
 30
0.0
 10
40666.4452668368
 20
-3647.296507084027
 30
0.0
 10
40664.44849110361
 20
-3647.365389261226
 30
0.0
 10
40662.29461682199
 20
-3647.432474815717
 30
0.0
 10
40659.97165651263
 20
-3647.496279565006
 30
0.0
 10
40657.46273814051
 20
-3647.555259060422
 30
0.0
 10
40654.78268209027
 20
-3647.607017151831
 30
0.0
 10
40652.93651237179
 20
-3647.634744282701
 30
0.0
 10
40651.99323325425
 20
-3647.646969598863
 30
0.0
 11
40704.27255501916
 21
-3434.473901402364
 31
0.0
 11
40704.25308361286
 21
-3449.258430235864
 31
0.0
 11
40704.23533024086
 21
-3462.943284735964
 31
0.0
 11
40704.22156462146
 21
-3475.613548434964
 31
0.0
 11
40704.21285364266
 21
-3487.347346249564
 31
0.0
 11
40704.20867990466
 21
-3498.216777153363
 31
0.0
 11
40704.20811490506
 21
-3508.287041407463
 31
0.0
 11
40704.21052814197
 21
-3517.617753456064
 31
0.0
 11
40704.21537899465
 21
-3526.263804331664
 31
0.0
 11
40704.22226654666
 21
-3534.275231170164
 31
0.0
 11
40704.23090715036
 21
-3541.698352235164
 31
0.0
 11
40704.24109518296
 21
-3548.576688790364
 31
0.0
 11
40704.25267316416
 21
-3556.949665765864
 31
0.0
 11
40704.26551284666
 21
-3562.854171231464
 31
0.0
 11
40704.27949594205
 21
-3568.325237929464
 31
0.0
 11
40704.29451067576
 21
-3573.397121150263
 31
0.0
 11
40704.31044279086
 21
-3578.099650121863
 31
0.0
 11
40704.32714985965
 21
-3582.454980843464
 31
0.0
 11
40704.34449582297
 21
-3586.482865826464
 31
0.0
 11
40704.36236257826
 21
-3590.205648993963
 31
0.0
 11
40704.38037411236
 21
-3593.651390272364
 31
0.0
 11
40704.39815832146
 21
-3596.849944529764
 31
0.0
 11
40704.41536437846
 21
-3599.830604756664
 31
0.0
 11
40704.43116605586
 21
-3602.608166521564
 31
0.0
 11
40704.44481907306
 21
-3605.181722690963
 31
0.0
 11
40704.45591578805
 21
-3607.559691889064
 31
0.0
 11
40704.46439679116
 21
-3609.759763765764
 31
0.0
 11
40704.47039136825
 21
-3611.802674424263
 31
0.0
 11
40704.47407809046
 21
-3613.698718381864
 31
0.0
 11
40704.47569745316
 21
-3615.436552098064
 31
0.0
 11
40704.47558258965
 21
-3617.019586600163
 31
0.0
 11
40704.47398744816
 21
-3618.466019258563
 31
0.0
 11
40704.47114498596
 21
-3619.794051302463
 31
0.0
 11
40704.46725219206
 21
-3621.022084571563
 31
0.0
 11
40704.46261288756
 21
-3622.168694699463
 31
0.0
 11
40704.45746736836
 21
-3623.251514469464
 31
0.0
 11
40704.45199840666
 21
-3624.291046647364
 31
0.0
 11
40704.44762483066
 21
-3625.253079027063
 31
0.0
 11
40704.44169626136
 21
-3626.092042098664
 31
0.0
 11
40704.42847027216
 21
-3626.850223205764
 31
0.0
 11
40704.40295835186
 21
-3627.591624253164
 31
0.0
 11
40704.36027693586
 21
-3628.326050120764
 31
0.0
 11
40704.29716028566
 21
-3629.039973013663
 31
0.0
 11
40704.21011496826
 21
-3629.734883459764
 31
0.0
 11
40704.09373170745
 21
-3630.429696673564
 31
0.0
 11
40703.94246577256
 21
-3631.149365499964
 31
0.0
 11
40703.74655029836
 21
-3631.919219224964
 31
0.0
 11
40703.49237143156
 21
-3632.760867208764
 31
0.0
 11
40703.16667579956
 21
-3633.681088569264
 31
0.0
 11
40702.75972449316
 21
-3634.671366871464
 31
0.0
 11
40702.26060272546
 21
-3635.721345158363
 31
0.0
 11
40701.64943856045
 21
-3636.829109647864
 31
0.0
 11
40700.90066643676
 21
-3637.990273625164
 31
0.0
 11
40699.98557511546
 21
-3639.191587456564
 31
0.0
 11
40698.86922540356
 21
-3640.419593576664
 31
0.0
 11
40697.55176690126
 21
-3641.620598403664
 31
0.0
 11
40696.10523379306
 21
-3642.702715597164
 31
0.0
 11
40694.62809380786
 21
-3643.611302976564
 31
0.0
 11
40693.19578720025
 21
-3644.340790610264
 31
0.0
 11
40691.85350488206
 21
-3644.910170940064
 31
0.0
 11
40690.63047326906
 21
-3645.344151530863
 31
0.0
 11
40689.52152945436
 21
-3645.673938478664
 31
0.0
 11
40688.50576598435
 21
-3645.926360002664
 31
0.0
 11
40687.57236437786
 21
-3646.118353783464
 31
0.0
 11
40686.71749866616
 21
-3646.260007880964
 31
0.0
 11
40685.94480857776
 21
-3646.358917521864
 31
0.0
 11
40685.24961407166
 21
-3646.423818044663
 31
0.0
 11
40684.57210835106
 21
-3646.470172017063
 31
0.0
 11
40683.84732775596
 21
-3646.508991334464
 31
0.0
 11
40683.06900612036
 21
-3646.546042122363
 31
0.0
 11
40682.26505715356
 21
-3646.585619072364
 31
0.0
 11
40681.46959396566
 21
-3646.624672410464
 31
0.0
 11
40680.67401184616
 21
-3646.663578586464
 31
0.0
 11
40679.84751626076
 21
-3646.703854790963
 31
0.0
 11
40678.95525678256
 21
-3646.747202595764
 31
0.0
 11
40677.96852142095
 21
-3646.795014021964
 31
0.0
 11
40676.88169756176
 21
-3646.847443627464
 31
0.0
 11
40675.70522269256
 21
-3646.903617769764
 31
0.0
 11
40674.44271222466
 21
-3646.962872423464
 31
0.0
 11
40673.08586249696
 21
-3647.024949531064
 31
0.0
 11
40671.62388523626
 21
-3647.089552988264
 31
0.0
 11
40670.04580125385
 21
-3647.156307478463
 31
0.0
 11
40668.34008774576
 21
-3647.224646373364
 31
0.0
 11
40666.49499943975
 21
-3647.293759711164
 31
0.0
 11
40664.50040420916
 21
-3647.362526454964
 31
0.0
 11
40662.34972852235
 21
-3647.429488105564
 31
0.0
 11
40660.03335741916
 21
-3647.493114988363
 31
0.0
 11
40657.53151974716
 21
-3647.551961852864
 31
0.0
 11
40654.82298722225
 21
-3647.604342752864
 31
0.0
 11
40651.99323325425
 21
-3647.646969598863
 31
0.0
  0
SPLINE
  5
54
330
2
100
AcDbEntity
  8
0
  6
Continuous
 62
     7
100
AcDbSpline
210
0.0
220
0.0
230
1.0
 70
     8
 71
     3
 72
    29
 73
    25
 74
    23
 42
0.0000000001
 43
0.0000000001
 44
0.0000000001
 12
-0.9999999999999996
 22
-0.0000000283340497
 32
0.0
 13
-0.9999851461050882
 23
-0.0054504650430364
 33
0.0
 40
0.0
 40
0.0
 40
0.0
 40
0.0
 40
27.48501425773426
 40
52.93060388076276
 40
76.49534866211638
 40
98.30999109762036
 40
118.4959537100737
 40
137.1705767470116
 40
154.4456032054811
 40
170.4257615282173
 40
185.2106512444225
 40
198.8935553233582
 40
211.5597755687042
 40
223.2875609598572
 40
234.1487117026849
 40
244.2091085442033
 40
253.5293157237283
 40
262.1648421554315
 40
270.1670931815876
 40
277.5843199886353
 40
284.4602421213234
 40
290.832215610213
 40
296.732624505228
 40
300.5500477611925
 40
300.5500477611925
 40
300.5500477611925
 40
300.5500477611925
 10
40320.48828115636
 20
-3646.670586158164
 30
0.0
 10
40311.32660973711
 20
-3646.670586417751
 30
0.0
 10
40293.68307527612
 20
-3646.667258399552
 30
0.0
 10
40268.18462623793
 20
-3646.662171274316
 30
0.0
 10
40244.5763000868
 20
-3646.664157808316
 30
0.0
 10
40222.72118600997
 20
-3646.677198980179
 30
0.0
 10
40202.49612517547
 20
-3646.703712982543
 30
0.0
 10
40183.78429641182
 20
-3646.744525076506
 30
0.0
 10
40166.47444257505
 20
-3646.79882183413
 30
0.0
 10
40150.46122128904
 20
-3646.865603700864
 30
0.0
 10
40135.6454190201
 20
-3646.939223853283
 30
0.0
 10
40121.93429361522
 20
-3647.015691176138
 30
0.0
 10
40109.24221965615
 20
-3647.092022965711
 30
0.0
 10
40097.49073333284
 20
-3647.16595286952
 30
0.0
 10
40086.60784778254
 20
-3647.236004015289
 30
0.0
 10
40076.52747355622
 20
-3647.301178906011
 30
0.0
 10
40067.18895375989
 20
-3647.360809148057
 30
0.0
 10
40058.53645853299
 20
-3647.414469829028
 30
0.0
 10
40050.5182626743
 20
-3647.461701439271
 30
0.0
 10
40043.08657406782
 20
-3647.502414432241
 30
0.0
 10
40036.19829623396
 20
-3647.538838158897
 30
0.0
 10
40029.8156178529
 20
-3647.572696459565
 30
0.0
 10
40024.45242870405
 20
-3647.601881489278
 30
0.0
 10
40021.21319978111
 20
-3647.619600004826
 30
0.0
 10
40019.94074426366
 20
-3647.626535582163
 30
0.0
 11
40320.48828115636
 21
-3646.670586158164
 31
0.0
 11
40293.00326712246
 21
-3646.667078401764
 31
0.0
 11
40267.55767778065
 21
-3646.663295310464
 31
0.0
 11
40243.99293319055
 21
-3646.666297608664
 31
0.0
 11
40222.17829519806
 21
-3646.680220430964
 31
0.0
 11
40201.99235090346
 21
-3646.707414675564
 31
0.0
 11
40183.31777335445
 21
-3646.748632850164
 31
0.0
 11
40166.04283329145
 21
-3646.803267643463
 31
0.0
 11
40150.06281212036
 21
-3646.869474825864
 31
0.0
 11
40135.27810326745
 21
-3646.942605225064
 31
0.0
 11
40121.59541031846
 21
-3647.018616387363
 31
0.0
 11
40108.92941745366
 21
-3647.094511396664
 31
0.0
 11
40097.20186272496
 21
-3647.168065909164
 31
0.0
 11
40086.34093569466
 21
-3647.237776030063
 31
0.0
 11
40076.28074792465
 21
-3647.302634654164
 31
0.0
 11
40066.96072962266
 21
-3647.361970306363
 31
0.0
 11
40058.32536795097
 21
-3647.415314018864
 31
0.0
 11
40050.32325474676
 21
-3647.462279460964
 31
0.0
 11
40042.90614059005
 21
-3647.503158472463
 31
0.0
 11
40036.03031580406
 21
-3647.539746545464
 31
0.0
 11
40029.65843267816
 21
-3647.573681379264
 31
0.0
 11
40023.75811062326
 21
-3647.605693515264
 31
0.0
 11
40019.94074426366
 21
-3647.626535582163
 31
0.0
  0
SPLINE
  5
55
330
2
100
AcDbEntity
  8
0
  6
Continuous
 62
     7
100
AcDbSpline
210
0.0
220
0.0
230
1.0
 70
     8
 71
     3
 72
    13
 73
     9
 74
     7
 42
0.0000000001
 43
0.0000000001
 44
0.0000000001
 12
0.0
 22
1.0
 32
0.0
 13
0.9999999999999998
 23
0.0000000132263926
 33
0.0
 40
0.0
 40
0.0
 40
0.0
 40
0.0
 40
0.7130606699622248
 40
1.980099816035579
 40
3.854452674746856
 40
6.254373175275745
 40
9.045624803567957
 40
12.04410036470958
 40
12.04410036470958
 40
12.04410036470958
 40
12.04410036470958
 10
40308.98828195176
 20
-3331.882386051164
 30
0.0
 10
40308.98828195176
 20
-3331.644699161176
 30
0.0
 10
40309.51696870121
 20
-3331.085960318216
 30
0.0
 10
40310.69639961842
 20
-3330.653762540548
 30
0.0
 10
40312.50447344445
 20
-3330.194825778573
 30
0.0
 10
40314.83473439207
 20
-3329.870076598645
 30
0.0
 10
40317.55873539671
 20
-3329.652574540102
 30
0.0
 10
40319.48878930264
 20
-3329.605219393283
 30
0.0
 10
40320.48828115636
 20
-3329.605219380063
 30
0.0
 11
40308.98828195176
 21
-3331.882386051164
 31
0.0
 11
40309.37906883056
 21
-3331.285945664864
 31
0.0
 11
40310.52093977035
 21
-3330.736838248664
 31
0.0
 11
40312.33587715116
 21
-3330.268649245464
 31
0.0
 11
40314.70878602476
 21
-3329.909592305064
 31
0.0
 11
40317.49080966206
 21
-3329.682810176264
 31
0.0
 11
40320.48828115636
 21
-3329.605219380063
 31
0.0
  0
SPLINE
  5
56
330
2
100
AcDbEntity
  8
0
  6
Continuous
 62
     7
100
AcDbSpline
210
0.0
220
0.0
230
1.0
 70
     8
 71
     3
 72
    10
 73
     6
 74
     4
 42
0.0000000001
 43
0.0000000001
 44
0.0000000001
 12
-0.9999999796831453
 22
0.0002015780468596
 32
0.0
 13
-0.7975421657148864
 23
-0.6032632045026521
 33
0.0
 40
0.0
 40
0.0
 40
0.0
 40
0.0
 40
2.088084171845204
 40
4.176216703761913
 40
5.166635461113536
 40
5.166635461113536
 40
5.166635461113536
 40
5.166635461113536
 10
39923.14813902566
 20
-3181.311473898464
 30
0.0
 10
39922.45211098252
 20
-3181.311333594487
 30
0.0
 10
39921.05356748244
 20
-3181.495121978965
 30
0.0
 10
39919.44380877302
 20
-3182.162696464829
 30
0.0
 10
39918.5867824781
 20
-3182.731659455211
 30
0.0
 10
39918.32348223786
 20
-3182.930820519664
 30
0.0
 11
39923.14813902566
 21
-3181.311473898464
 31
0.0
 11
39921.07792502986
 21
-3181.584071624664
 31
0.0
 11
39919.14879321757
 21
-3182.383288692563
 31
0.0
 11
39918.32348223786
 21
-3182.930820519664
 31
0.0
  0
SPLINE
  5
57
330
2
100
AcDbEntity
  8
0
  6
Continuous
 62
     7
100
AcDbSpline
210
0.0
220
0.0
230
1.0
 70
     8
 71
     3
 72
     9
 73
     5
 74
     3
 42
0.0000000001
 43
0.0000000001
 44
0.0000000001
 12
-0.0120626306992966
 22
0.9999272438235756
 32
0.0
 13
-0.015922867764508
 23
0.9998732231048865
 33
0.0
 40
0.0
 40
0.0
 40
0.0
 40
0.0
 40
3.692115226381887
 40
7.127132591839972
 40
7.127132591839972
 40
7.127132591839972
 40
7.127132591839972
 10
39936.70250477896
 20
-3433.301902806464
 30
0.0
 10
39936.68765923814
 20
-3432.071287272399
 30
0.0
 10
39936.65699665559
 20
-3429.695772697822
 30
0.0
 10
39936.62157497372
 20
-3427.320324105971
 30
0.0
 10
39936.60334319796
 20
-3426.175463477764
 30
0.0
 11
39936.70250477896
 21
-3433.301902806464
 31
0.0
 11
39936.65461339997
 21
-3429.610098198864
 31
0.0
 11
39936.60334319796
 21
-3426.175463477764
 31
0.0
  0
SPLINE
  5
58
330
2
100
AcDbEntity
  8
0
  6
Continuous
 62
     7
100
AcDbSpline
210
0.0
220
0.0
230
1.0
 70
     8
 71
     3
 72
     9
 73
     5
 74
     3
 42
0.0000000001
 43
0.0000000001
 44
0.0000000001
 12
-0.0157022952617161
 22
-0.9998767113617127
 32
0.0
 13
-0.011910886230387
 23
-0.9999290628785658
 33
0.0
 40
0.0
 40
0.0
 40
0.0
 40
0.0
 40
3.554962176816752
 40
7.259966960276539
 40
7.259966960276539
 40
7.259966960276539
 40
7.259966960276539
 10
40704.37237569806
 20
-3427.214607049664
 30
0.0
 10
40704.35376867615
 20
-3428.399448346454
 30
0.0
 10
40704.31815514702
 20
-3430.819177007588
 30
0.0
 10
40704.28722540644
 20
-3433.238969899035
 30
0.0
 10
40704.27251544296
 20
-3434.473883886064
 30
0.0
 11
40704.37237569806
 21
-3427.214607049664
 31
0.0
 11
40704.32001422316
 21
-3430.769183586264
 31
0.0
 11
40704.27251544296
 21
-3434.473883886064
 31
0.0
  0
SPLINE
  5
59
330
2
100
AcDbEntity
  8
0
  6
Continuous
 62
     7
100
AcDbSpline
210
0.0
220
0.0
230
1.0
 70
     8
 71
     3
 72
    13
 73
     9
 74
     7
 42
0.0000000001
 43
0.0000000001
 44
0.0000000001
 12
0.0
 22
-1.0
 32
0.0
 13
-0.9999999999999998
 23
0.0000000152270405
 33
0.0
 40
0.0
 40
0.0
 40
0.0
 40
0.0
 40
0.7469837357130942
 40
2.056083097470391
 40
3.929786127352342
 40
6.29704394772817
 40
9.065420773481879
 40
12.07063186642721
 40
12.07063186642721
 40
12.07063186642721
 40
12.07063186642721
 10
40331.98828195176
 20
-3331.882386057664
 30
0.0
 10
40331.98828195176
 20
-3332.131380636235
 30
0.0
 10
40331.42968819344
 20
-3332.70540205704
 30
0.0
 10
40330.23676213687
 20
-3333.155609081622
 30
0.0
 10
40328.428467958
 20
-3333.634210696781
 30
0.0
 10
40326.12126729536
 20
-3333.98206353861
 30
0.0
 10
40323.41470613138
 20
-3334.219139223144
 30
0.0
 10
40321.49001818734
 20
-3334.271773391717
 30
0.0
 10
40320.48828115636
 20
-3334.271773376464
 30
0.0
 11
40331.98828195176
 21
-3331.882386057664
 31
0.0
 11
40331.57375090976
 21
-3332.503794712764
 31
0.0
 11
40330.39617021626
 21
-3333.075673064563
 31
0.0
 11
40328.58650592236
 21
-3333.561345986963
 31
0.0
 11
40326.24969278296
 21
-3333.939782163464
 31
0.0
 11
40323.49225899056
 21
-3334.185686880564
 31
0.0
 11
40320.48828115636
 21
-3334.271773376464
 31
0.0
  0
SPLINE
  5
5A
330
2
100
AcDbEntity
  8
0
  6
Continuous
 62
     7
100
AcDbSpline
210
0.0
220
0.0
230
1.0
 70
     8
 71
     3
 72
    35
 73
    31
 74
    29
 42
0.0000000001
 43
0.0000000001
 44
0.0000000001
 12
0.1286500879892222
 22
0.9916900497939694
 32
0.0
 13
0.0326623785488575
 23
0.9994664421717875
 33
0.0
 40
0.0
 40
0.0
 40
0.0
 40
0.0
 40
0.1946766878591948
 40
0.4057854629861665
 40
0.6353503776844432
 40
0.8857708682070089
 40
1.159427212805544
 40
1.458733894925253
 40
1.785378013913143
 40
2.139350956497704
 40
2.520377649574018
 40
2.928119794546499
 40
3.364557377626218
 40
3.835497650863715
 40
4.347296575718401
 40
4.90636174982216
 40
5.519323538335083
 40
6.192633709836158
 40
6.93321867522216
 40
7.744424195414159
 40
8.628087972219875
 40
9.586529569213457
 40
10.6278327173533
 40
11.76382344124069
 40
12.98875576960698
 40
14.32877683228204
 40
15.82186919364271
 40
17.50956437794055
 40
19.40425442851297
 40
21.47978157960216
 40
21.47978157960216
 40
21.47978157960216
 40
21.47978157960216
 10
40696.10708545136
 20
-3355.399020561664
 30
0.0
 10
40696.11543384236
 20
-3355.334667583572
 30
0.0
 10
40696.13964328522
 20
-3355.201512052363
 30
0.0
 10
40696.17505285599
 20
-3354.992739949576
 30
0.0
 10
40696.21313624096
 20
-3354.765535561031
 30
0.0
 10
40696.25402851214
 20
-3354.517674719202
 30
0.0
 10
40696.29808419688
 20
-3354.246771361282
 30
0.0
 10
40696.34548097835
 20
-3353.950671652571
 30
0.0
 10
40696.39625477309
 20
-3353.628000233621
 30
0.0
 10
40696.4502695715
 20
-3353.278265071166
 30
0.0
 10
40696.50727307768
 20
-3352.901639930534
 30
0.0
 10
40696.56709402703
 20
-3352.497641962989
 30
0.0
 10
40696.6298629166
 20
-3352.063784876424
 30
0.0
 10
40696.69599294845
 20
-3351.595370016562
 30
0.0
 10
40696.7660039587
 20
-3351.086225016995
 30
0.0
 10
40696.8403650268
 20
-3350.529896052
 30
0.0
 10
40696.91938208838
 20
-3349.919877941752
 30
0.0
 10
40697.00276069895
 20
-3349.249420110104
 30
0.0
 10
40697.08970886559
 20
-3348.512827726381
 30
0.0
 10
40697.17989890212
 20
-3347.706035110237
 30
0.0
 10
40697.2818595947
 20
-3346.827485022702
 30
0.0
 10
40697.40720402046
 20
-3345.874489211244
 30
0.0
 10
40697.56845524616
 20
-3344.841643823821
 30
0.0
 10
40697.76848936099
 20
-3343.725300962461
 30
0.0
 10
40697.99580189865
 20
-3342.51278469759
 30
0.0
 10
40698.23846459934
 20
-3341.182025742374
 30
0.0
 10
40698.48579623596
 20
-3339.695420960612
 30
0.0
 10
40698.71944084013
 20
-3338.019520718974
 30
0.0
 10
40698.91246995016
 20
-3336.142978970681
 30
0.0
 10
40698.98912887583
 20
-3334.821161123941
 30
0.0
 10
40699.01172609366
 20
-3334.129687878164
 30
0.0
 11
40696.10708545136
 21
-3355.399020561664
 31
0.0
 11
40696.13829604126
 21
-3355.206862002463
 31
0.0
 11
40696.17396089926
 21
-3354.998787657964
 31
0.0
 11
40696.21189404847
 21
-3354.772378457063
 31
0.0
 11
40696.25267753476
 21
-3354.525301284264
 31
0.0
 11
40696.29660463726
 21
-3354.255193519463
 31
0.0
 11
40696.34391586846
 21
-3353.959649720064
 31
0.0
 11
40696.39469209326
 21
-3353.636976269863
 31
0.0
 11
40696.44872343806
 21
-3353.287151373864
 31
0.0
 11
40696.50574570975
 21
-3352.910415655664
 31
0.0
 11
40696.56547700875
 21
-3352.507072341964
 31
0.0
 11
40696.62797869126
 21
-3352.075133337464
 31
0.0
 11
40696.69382071266
 21
-3351.608818455464
 31
0.0
 11
40696.76355276496
 21
-3351.101792242764
 31
0.0
 11
40696.83762693256
 21
-3350.547656080264
 31
0.0
 11
40696.91630638676
 21
-3349.939764891264
 31
0.0
 11
40696.99933244166
 21
-3349.271593310564
 31
0.0
 11
40697.08622688105
 21
-3348.536123768464
 31
0.0
 11
40697.17775747886
 21
-3347.730098616464
 31
0.0
 11
40697.28112384726
 21
-3346.852501291764
 31
0.0
 11
40697.40725518626
 21
-3345.902395413363
 31
0.0
 11
40697.56725704846
 21
-3344.873458267363
 31
0.0
 11
40697.76469489726
 21
-3343.754756689364
 31
0.0
 11
40697.98778415286
 21
-3342.550310595463
 31
0.0
 11
40698.22608622426
 21
-3341.231648936363
 31
0.0
 11
40698.46906911687
 21
-3339.758460518864
 31
0.0
 11
40698.70043668436
 21
-3338.086699745364
 31
0.0
 11
40698.89291091856
 21
-3336.201811404663
 31
0.0
 11
40699.01172609366
 21
-3334.129687878164
 31
0.0
  0
SPLINE
  5
5B
330
2
100
AcDbEntity
  8
0
  6
Continuous
 62
     7
100
AcDbSpline
210
0.0
220
0.0
230
1.0
 70
     8
 71
     3
 72
     9
 73
     5
 74
     3
 42
0.0000000001
 43
0.0000000001
 44
0.0000000001
 12
-0.0024615017022056
 22
-0.999996970500096
 32
0.0
 13
0.0004686355883352
 23
-0.9999998901903367
 33
0.0
 40
0.0
 40
0.0
 40
0.0
 40
0.0
 40
3.547628602734123
 40
7.245505856849129
 40
7.245505856849129
 40
7.245505856849129
 40
7.245505856849129
 10
40709.09029995585
 20
-3427.226095076463
 30
0.0
 10
40709.08738912458
 20
-3428.408634361528
 30
0.0
 10
40709.0833822881
 20
-3430.823800711092
 30
0.0
 10
40709.08288572076
 20
-3433.238970159047
 30
0.0
 10
40709.08346337306
 20
-3434.471595775064
 30
0.0
 11
40709.09029995585
 21
-3427.226095076463
 31
0.0
 11
40709.08430692586
 21
-3430.773718617164
 31
0.0
 11
40709.08346337306
 21
-3434.471595775064
 31
0.0
  0
SPLINE
  5
5C
330
2
100
AcDbEntity
  8
0
  6
Continuous
 62
     7
100
AcDbSpline
210
0.0
220
0.0
230
1.0
 70
     8
 71
     3
 72
    42
 73
    38
 74
    36
 42
0.0000000001
 43
0.0000000001
 44
0.0000000001
 12
0.0043656420078863
 22
-0.9999904705395243
 32
0.0
 13
-0.0024293735557311
 23
-0.9999970490677092
 33
0.0
 40
0.0
 40
0.0
 40
0.0
 40
0.0
 40
3.753255537279916
 40
7.125203782945494
 40
10.10864332010703
 40
12.77825712171968
 40
15.17440367374677
 40
17.32913878729073
 40
19.25774848651424
 40
20.9713631527738
 40
22.56821186169418
 40
24.16574472329274
 40
25.78979031454339
 40
27.41485890435842
 40
29.01003623651227
 40
30.56938567339085
 40
32.13296197531839
 40
33.75917333633186
 40
35.50692969016913
 40
37.38589990026585
 40
39.31583008268954
 40
41.22401395186662
 40
43.1143511325552
 40
45.03389620956659
 40
47.05696347324355
 40
49.26384591320744
 40
51.72533283422428
 40
54.47456396768881
 40
57.50306057591566
 40
60.79995130150685
 40
64.37259541369107
 40
68.23938657072637
 40
72.41806516811975
 40
76.92742252462607
 40
81.79110668463172
 40
87.0407862623149
 40
92.71860779444862
 40
92.71860779444862
 40
92.71860779444862
 40
92.71860779444862
 10
40708.47675620106
 20
-3334.515700227464
 30
0.0
 10
40708.48221799107
 20
-3335.76677348439
 30
0.0
 10
40708.50842609726
 20
-3338.141770419774
 30
0.0
 10
40708.58124401854
 20
-3341.5105686881
 30
0.0
 10
40708.66735383328
 20
-3344.517683715829
 30
0.0
 10
40708.75367858708
 20
-3347.19936201747
 30
0.0
 10
40708.83230805431
 20
-3349.604909091997
 30
0.0
 10
40708.89905218384
 20
-3351.763710247528
 30
0.0
 10
40708.95301341565
 20
-3353.695279899417
 30
0.0
 10
40708.99601963986
 20
-3355.441111052313
 30
0.0
 10
40709.03109029559
 20
-3357.076736419077
 30
0.0
 10
40709.06066827326
 20
-3358.682608753515
 30
0.0
 10
40709.08576172524
 20
-3360.297965052461
 30
0.0
 10
40709.10634401702
 20
-3361.912599706118
 30
0.0
 10
40709.12249408863
 20
-3363.505717941047
 30
0.0
 10
40709.13473610622
 20
-3365.078372609172
 30
0.0
 10
40709.14369845481
 20
-3366.661394001135
 30
0.0
 10
40709.14985054591
 20
-3368.307231425641
 30
0.0
 10
40709.15332757165
 20
-3370.058208077104
 30
0.0
 10
40709.15417415988
 20
-3371.910427399464
 30
0.0
 10
40709.1527499857
 20
-3373.816121917441
 30
0.0
 10
40709.14991783059
 20
-3375.725603638535
 30
0.0
 10
40709.14636489265
 20
-3377.631622398471
 30
0.0
 10
40709.14218988942
 20
-3379.575934442025
 30
0.0
 10
40709.13740240971
 20
-3381.625760449862
 30
0.0
 10
40709.13202958587
 20
-3383.856232853058
 30
0.0
 10
40709.1262229833
 20
-3386.328759537065
 30
0.0
 10
40709.12045054678
 20
-3389.07515842201
 30
0.0
 10
40709.11562754091
 20
-3392.100027577771
 30
0.0
 10
40709.11233641496
 20
-3395.399369908757
 30
0.0
 10
40709.11031929353
 20
-3398.978144749106
 30
0.0
 10
40709.1093739085
 20
-3402.850849293741
 30
0.0
 10
40709.10898370203
 20
-3407.035791644136
 30
0.0
 10
40709.1083849322
 20
-3411.553031646719
 30
0.0
 10
40709.10643187867
 20
-3416.427271762425
 30
0.0
 10
40709.10144934237
 20
-3421.690998143853
 30
0.0
 10
40709.09489780569
 20
-3425.333493484042
 30
0.0
 10
40709.09029995585
 20
-3427.226095076463
 30
0.0
 11
40708.47675620106
 21
-3334.515700227464
 31
0.0
 11
40708.51679835715
 21
-3338.268742160864
 31
0.0
 11
40708.58822492716
 21
-3341.639933822064
 31
0.0
 11
40708.67221140216
 21
-3344.622190977963
 31
0.0
 11
40708.75684372966
 21
-3347.290462931664
 31
0.0
 11
40708.83419395406
 21
-3349.685360683464
 31
0.0
 11
40708.90025320216
 21
-3351.839082946263
 31
0.0
 11
40708.95389156736
 21
-3353.766946607863
 31
0.0
 11
40708.99603511466
 21
-3355.480042969964
 31
0.0
 11
40709.03028148366
 21
-3357.076524409064
 31
0.0
 11
40709.05974420666
 21
-3358.673785562363
 31
0.0
 11
40709.08500252866
 21
-3360.297634723964
 31
0.0
 11
40709.10575770726
 21
-3361.922570767064
 31
0.0
 11
40709.12198251916
 21
-3363.517665584463
 31
0.0
 11
40709.13417423636
 21
-3365.076967360363
 31
0.0
 11
40709.14308883575
 21
-3366.640518249164
 31
0.0
 11
40709.14924130716
 21
-3368.266717971764
 31
0.0
 11
40709.15281153196
 21
-3370.014470679063
 31
0.0
 11
40709.15379427246
 21
-3371.893440632163
 31
0.0
 11
40709.15250652816
 21
-3373.823370384964
 31
0.0
 11
40709.14978731465
 21
-3375.731552316664
 31
0.0
 11
40709.14629449286
 21
-3377.621886270464
 31
0.0
 11
40709.14220533856
 21
-3379.541426991963
 31
0.0
 11
40709.13752188036
 21
-3381.564488834464
 31
0.0
 11
40709.13225501485
 21
-3383.771364989563
 31
0.0
 11
40709.12654382445
 21
-3386.232845284963
 31
0.0
 11
40709.12086744276
 21
-3388.982070558363
 31
0.0
 11
40709.11605870816
 21
-3392.010563348864
 31
0.0
 11
40709.11265694006
 21
-3395.307452319464
 31
0.0
 11
40709.11055728986
 21
-3398.880095814663
 31
0.0
 11
40709.10949275126
 21
-3402.746886825164
 31
0.0
 11
40709.10896764326
 21
-3406.925565389564
 31
0.0
 11
40709.10820668515
 21
-3411.434922681864
 31
0.0
 11
40709.10605781596
 21
-3416.298606367163
 31
0.0
 11
40709.10086813635
 21
-3421.548283379664
 31
0.0
 11
40709.09029995585
 21
-3427.226095076463
 31
0.0
  0
SPLINE
  5
5D
330
2
100
AcDbEntity
  8
0
  6
Continuous
 62
     7
100
AcDbSpline
210
0.0
220
0.0
230
1.0
 70
     8
 71
     3
 72
    10
 73
     6
 74
     4
 42
0.0000000001
 43
0.0000000001
 44
0.0000000001
 12
0.0040459453425361
 22
-0.9999918151296466
 32
0.0
 13
0.004371462596076
 23
-0.9999904451117377
 33
0.0
 40
0.0
 40
0.0
 40
0.0
 40
0.0
 40
37.00975732883235
 40
74.91357770200497
 40
113.7363178049618
 40
113.7363178049618
 40
113.7363178049618
 40
113.7363178049618
 10
40707.94316697506
 20
-3220.780635899664
 30
0.0
 10
40707.99308012682
 20
-3233.117120702586
 30
0.0
 10
40708.10723934448
 20
-3258.088055426551
 30
0.0
 10
40708.29800093067
 20
-3295.999680538641
 30
0.0
 10
40708.42018548231
 20
-3321.574910508792
 30
0.0
 10
40708.47675620106
 20
-3334.515700227464
 30
0.0
 11
40707.94316697506
 21
-3220.780635899664
 31
0.0
 11
40708.10868071675
 21
-3257.790023124264
 31
0.0
 11
40708.29487258365
 21
-3295.693386187064
 31
0.0
 11
40708.47675620106
 21
-3334.515700227464
 31
0.0
  0
SPLINE
  5
5E
330
2
100
AcDbEntity
  8
0
  6
Continuous
 62
     7
100
AcDbSpline
210
0.0
220
0.0
230
1.0
 70
     8
 71
     3
 72
    14
 73
    10
 74
     8
 42
0.0000000001
 43
0.0000000001
 44
0.0000000001
 12
0.9999993490865165
 22
0.001140976136229
 32
0.0
 13
0.0026993899229727
 23
-0.9999963566403849
 33
0.0
 40
0.0
 40
0.0
 40
0.0
 40
0.0
 40
4.947628333873375
 40
9.940314448382721
 40
14.82648241866624
 40
19.4014625647797
 40
24.3469724448762
 40
29.40300007947321
 40
34.44577239793169
 40
34.44577239793169
 40
34.44577239793169
 40
34.44577239793169
 10
40685.98828115636
 20
-3198.753548442564
 30
0.0
 10
40687.63748952749
 20
-3198.751666733944
 30
0.0
 10
40690.96177045385
 20
-3199.142810883888
 30
0.0
 10
40695.65900643179
 20
-3200.805833609937
 30
0.0
 10
40699.75094228046
 20
-3203.427648464841
 30
0.0
 10
40703.17622762514
 20
-3206.840306679344
 30
0.0
 10
40705.82525674616
 20
-3210.964314706854
 30
0.0
 10
40707.52927463052
 20
-3215.723629342937
 30
0.0
 10
40707.93862950547
 20
-3219.099717917722
 30
0.0
 10
40707.94316697506
 20
-3220.780635899664
 30
0.0
 11
40685.98828115636
 21
-3198.753548442564
 31
0.0
 11
40690.90333514315
 21
-3199.320355673464
 31
0.0
 11
40695.60769355966
 21
-3200.992458100664
 31
0.0
 11
40699.72461102115
 21
-3203.624116902464
 31
0.0
 11
40702.96496384946
 21
-3206.853754170864
 31
0.0
 11
40705.63774309427
 21
-3211.014802005563
 31
0.0
 11
40707.34666818356
 21
-3215.773267144764
 31
0.0
 11
40707.94316697506
 21
-3220.780635899664
 31
0.0
  0
SPLINE
  5
5F
330
2
100
AcDbEntity
  8
0
  6
Continuous
 62
     7
100
AcDbSpline
210
0.0
220
0.0
230
1.0
 70
     8
 71
     3
 72
    14
 73
    10
 74
     8
 42
0.0000000001
 43
0.0000000001
 44
0.0000000001
 12
0.0024291623131356
 22
0.9999970495808756
 32
0.0
 13
0.9999995315550618
 23
-0.0009679306054303
 33
0.0
 40
0.0
 40
0.0
 40
0.0
 40
0.0
 40
5.030725691220774
 40
10.0942069280788
 40
14.99783020804054
 40
19.55289299360705
 40
24.47018891538952
 40
29.47294534298722
 40
34.44572132850675
 40
34.44572132850675
 40
34.44572132850675
 40
34.44572132850675
 10
39933.03339533767
 20
-3220.780635899664
 30
0.0
 10
39933.03746882074
 20
-3219.103732283507
 30
0.0
 10
39933.44830003359
 20
-3215.729819874208
 30
0.0
 10
39935.14071783452
 20
-3210.982427275113
 30
0.0
 10
39937.77960940423
 20
-3206.874714202842
 30
0.0
 10
39941.18421692928
 20
-3203.456457458209
 30
0.0
 10
39945.27968500381
 20
-3200.825387876745
 30
0.0
 10
39949.99403574078
 20
-3199.14454287589
 30
0.0
 10
39953.33068993768
 20
-3198.75194400854
 30
0.0
 10
39954.98828115636
 20
-3198.753548442564
 30
0.0
 11
39933.03339533767
 21
-3220.780635899664
 31
0.0
 11
39933.62784755806
 21
-3215.785155188264
 31
0.0
 11
39935.33591574716
 21
-3211.018463956663
 31
0.0
 11
39937.98305004517
 21
-3206.890728344963
 31
0.0
 11
39941.19942195117
 21
-3203.665275083364
 31
0.0
 11
39945.33745340396
 21
-3201.008868699164
 31
0.0
 11
39950.04851582286
 21
-3199.325579431364
 31
0.0
 11
39954.98828115636
 21
-3198.753548442564
 31
0.0
  0
SPLINE
  5
60
330
2
100
AcDbEntity
  8
0
  6
Continuous
 62
     7
100
AcDbSpline
210
0.0
220
0.0
230
1.0
 70
     8
 71
     3
 72
    10
 73
     6
 74
     4
 42
0.0000000001
 43
0.0000000001
 44
0.0000000001
 12
0.0043716770648795
 22
0.9999904441741632
 32
0.0
 13
0.0040457063228113
 23
0.9999918160966867
 33
0.0
 40
0.0
 40
0.0
 40
0.0
 40
0.0
 40
38.8666873041767
 40
76.76893170002827
 40
113.7363469031819
 40
113.7363469031819
 40
113.7363469031819
 40
113.7363469031819
 10
39932.49980791616
 20
-3334.515729333764
 30
0.0
 10
39932.55644545131
 20
-3321.560290700136
 30
0.0
 10
39932.6787033873
 20
-3295.970937177709
 30
0.0
 10
39932.86946062798
 20
-3258.059302342862
 30
0.0
 10
39932.98354223585
 20
-3233.103006788132
 30
0.0
 10
39933.03339533767
 20
-3220.780635899664
 30
0.0
 11
39932.49980791616
 21
-3334.515729333764
 31
0.0
 11
39932.68190487837
 21
-3295.649468609364
 31
0.0
 11
39932.86808411646
 21
-3257.747681480863
 31
0.0
 11
39933.03339533767
 21
-3220.780635899664
 31
0.0
  0
SPLINE
  5
61
330
2
100
AcDbEntity
  8
0
  6
Continuous
 62
     7
100
AcDbSpline
210
0.0
220
0.0
230
1.0
 70
     8
 71
     3
 72
    37
 73
    33
 74
    31
 42
0.0000000001
 43
0.0000000001
 44
0.0000000001
 12
-0.0024828669033543
 22
0.9999969176812196
 32
0.0
 13
0.0043705676425197
 23
0.9999904490236307
 33
0.0
 40
0.0
 40
0.0
 40
0.0
 40
0.0
 40
4.92530726307235
 40
9.541674017175377
 40
13.72059997491607
 40
17.52654883083511
 40
21.10570141724426
 40
24.58723094438042
 40
28.05646415239076
 40
31.53872714336304
 40
35.00665856773524
 40
38.44001906465556
 40
42.0364970068603
 40
46.08055009556112
 40
50.42221804529034
 40
54.57392874668395
 40
58.2008039745175
 40
61.43596463476175
 40
64.34025029723959
 40
66.95044443575259
 40
69.32063151495754
 40
71.48177402684433
 40
73.41667866799131
 40
75.27243456810679
 40
77.19398973123678
 40
79.14287599004012
 40
81.06848828618479
 40
82.9269289638643
 40
84.80842821197139
 40
86.89670064607893
 40
89.18491476461699
 40
91.67976841314731
 40
91.67976841314731
 40
91.67976841314731
 40
91.67976841314731
 10
39931.88690981406
 20
-3426.187269368263
 30
0.0
 10
39931.88283351993
 20
-3424.545505341028
 30
0.0
 10
39931.87655951059
 20
-3421.36495296152
 30
0.0
 10
39931.87123942585
 20
-3416.791422414492
 30
0.0
 10
39931.86873380376
 20
-3412.591009161137
 30
0.0
 10
39931.86776510382
 20
-3408.736333450899
 30
0.0
 10
39931.86740378718
 20
-3405.114123145672
 30
0.0
 10
39931.86698049789
 20
-3401.604151394347
 30
0.0
 10
39931.86588651084
 20
-3398.12647627892
 30
0.0
 10
39931.86354540852
 20
-3394.653334430033
 30
0.0
 10
39931.85960938283
 20
-3391.192151535482
 30
0.0
 10
39931.85356019153
 20
-3387.692899910631
 30
0.0
 10
39931.84502777134
 20
-3384.001612497937
 30
0.0
 10
39931.83515465715
 20
-3380.00755839864
 30
0.0
 10
39931.82612880056
 20
-3375.828424064984
 30
0.0
 10
39931.82142708956
 20
-3371.788340728065
 30
0.0
 10
39931.82560446875
 20
-3368.117088484395
 30
0.0
 10
39931.84158551564
 20
-3364.861677702503
 30
0.0
 10
39931.8685625464
 20
-3361.945246245799
 30
0.0
 10
39931.90442505309
 20
-3359.31726012545
 30
0.0
 10
39931.94745259348
 20
-3356.937133407631
 30
0.0
 10
39931.99569886098
 20
-3354.782255799975
 30
0.0
 10
39932.04780302783
 20
-3352.799001668659
 30
0.0
 10
39932.10389661911
 20
-3350.895753879187
 30
0.0
 10
39932.16436416591
 20
-3348.987978671328
 30
0.0
 10
39932.22747024093
 20
-3347.056991763783
 30
0.0
 10
39932.28879873685
 20
-3345.14699593778
 30
0.0
 10
39932.34565000272
 20
-3343.259332313521
 30
0.0
 10
39932.39787564522
 20
-3341.317292615496
 30
0.0
 10
39932.44462696405
 20
-3339.231811553295
 30
0.0
 10
39932.48217604262
 20
-3336.941656566134
 30
0.0
 10
39932.49617327395
 20
-3335.347339273845
 30
0.0
 10
39932.49980791616
 20
-3334.515729333764
 30
0.0
 11
39931.88690981406
 21
-3426.187269368263
 31
0.0
 11
39931.87704229016
 21
-3421.261971989664
 31
0.0
 11
39931.87152752426
 21
-3416.645608529564
 31
0.0
 11
39931.86891130856
 21
-3412.466683390764
 31
0.0
 11
39931.86784519276
 21
-3408.660734684164
 31
0.0
 11
39931.86738793417
 21
-3405.081582126964
 31
0.0
 11
39931.86686724777
 21
-3401.600052638764
 31
0.0
 11
39931.86568041076
 21
-3398.130819633764
 31
0.0
 11
39931.86327284326
 21
-3394.648557475064
 31
0.0
 11
39931.85925267536
 21
-3391.180628380864
 31
0.0
 11
39931.85332843637
 21
-3387.747272995063
 31
0.0
 11
39931.84528208606
 21
-3384.150804053864
 31
0.0
 11
39931.83560284856
 21
-3380.106762548564
 31
0.0
 11
39931.82672886367
 21
-3375.765103667664
 31
0.0
 11
39931.82292356726
 21
-3371.613394710163
 31
0.0
 11
39931.82816276046
 21
-3367.986523266463
 31
0.0
 11
39931.84459350816
 21
-3364.751404330764
 31
0.0
 11
39931.87171039846
 21
-3361.847245264264
 31
0.0
 11
39931.90753666496
 21
-3359.237297004364
 31
0.0
 11
39931.95049273546
 21
-3356.867499214163
 31
0.0
 11
39931.99886133067
 21
-3354.706898039564
 31
0.0
 11
39932.04954835226
 21
-3352.772657414364
 31
0.0
 11
39932.10392502736
 21
-3350.917698347964
 31
0.0
 11
39932.16438842376
 21
-3348.997094686963
 31
0.0
 11
39932.22753719027
 21
-3347.049231785464
 31
0.0
 11
39932.28886762196
 21
-3345.124596419164
 31
0.0
 11
39932.34442705306
 21
-3343.266986421863
 31
0.0
 11
39932.39469392916
 21
-3341.386158768464
 31
0.0
 11
39932.44113434706
 21
-3339.298402784964
 31
0.0
 11
39932.47826834906
 21
-3337.010489998564
 31
0.0
 11
39932.49980791616
 21
-3334.515729333764
 31
0.0
  0
SPLINE
  5
62
330
2
100
AcDbEntity
  8
0
  6
Continuous
 62
     7
100
AcDbSpline
210
0.0
220
0.0
230
1.0
 70
     8
 71
     3
 72
     9
 73
     5
 74
     3
 42
0.0000000001
 43
0.0000000001
 44
0.0000000001
 12
0.0004968089958885
 22
0.9999998765904031
 32
0.0
 13
-0.0024851062813916
 23
0.9999969121186175
 33
0.0
 40
0.0
 40
0.0
 40
0.0
 40
0.0
 40
3.684568139137673
 40
7.112019164754314
 40
7.112019164754314
 40
7.112019164754314
 40
7.112019164754314
 10
39931.89361931826
 20
-3433.299283398964
 30
0.0
 10
39931.89422949379
 20
-3432.071094170822
 30
0.0
 10
39931.893750538
 20
-3429.700420218411
 30
0.0
 10
39931.88974900742
 20
-3427.329749515615
 30
0.0
 10
39931.88690981406
 20
-3426.187269368263
 30
0.0
 11
39931.89361931826
 21
-3433.299283398964
 31
0.0
 11
39931.89278775297
 21
-3429.614715353664
 31
0.0
 11
39931.88690981406
 21
-3426.187269368263
 31
0.0
  0
SPLINE
  5
63
330
2
100
AcDbEntity
  8
0
  6
Continuous
 62
     7
100
AcDbSpline
210
0.0
220
0.0
230
1.0
 70
     8
 71
     3
 72
   110
 73
   106
 74
   104
 42
0.0000000001
 43
0.0000000001
 44
0.0000000001
 12
-0.9999999999999984
 22
-0.0000000556661991
 32
0.0
 13
0.0004903913176315
 23
0.9999998797581707
 33
0.0
 40
0.0
 40
0.0
 40
0.0
 40
0.0
 40
27.48621631745483
 40
52.9307899663532
 40
76.49281042687715
 40
98.30335084304284
 40
118.4840902678623
 40
137.1527803339042
 40
154.4214171228585
 40
170.3958379822855
 40
185.1764358529034
 40
198.8562590243063
 40
211.5205157659575
 40
223.2472836106162
 40
234.1081972472871
 40
244.1690696028941
 40
253.4903683612796
 40
262.1276991785295
 40
270.1324274681127
 40
277.551626614583
 40
284.4282563040924
 40
290.7998753292408
 40
296.7000552050704
 40
302.1565088292599
 40
307.1959591769789
 40
311.8455899435424
 40
316.1333998150348
 40
320.0868151841876
 40
323.7368144405548
 40
327.1155544286159
 40
330.2554012068353
 40
333.175214103697
 40
335.879979025583
 40
338.3772695362986
 40
340.6854836530996
 40
342.8259646015454
 40
344.8147259879972
 40
346.6585561698567
 40
348.3635278343202
 40
349.9392047120892
 40
351.396230823524
 40
352.7453030670249
 40
353.996957421911
 40
355.1617915732353
 40
356.2509844105552
 40
357.2586338973862
 40
358.1675138377407
 40
358.9946568308007
 40
359.7746576836719
 40
360.5437790184315
 40
361.3221577817155
 40
362.1091031882675
 40
362.890771048616
 40
363.6619649516632
 40
364.4604439701613
 40
365.3498265990152
 40
366.3390191354267
 40
367.4080691276298
 40
368.5619694642074
 40
369.8193050435822
 40
371.1959116757526
 40
372.6963001485805
 40
374.3230998855112
 40
376.0935460854308
 40
378.032614692396
 40
380.1666584816699
 40
382.5269322694465
 40
385.1477935224168
 40
388.0571148954378
 40
391.3165414190027
 40
394.741970885387
 40
397.9678909868051
 40
400.8273540974303
 40
403.3101437720697
 40
405.4169200984376
 40
407.2746604669804
 40
409.0925928071214
 40
410.9896955345099
 40
413.0276044459095
 40
415.2722699728852
 40
417.7524760211441
 40
420.4430196102138
 40
423.3388097708679
 40
426.468322694164
 40
429.848030850592
 40
433.4816541330258
 40
437.384735230437
 40
441.5933731768624
 40
446.1438298496543
 40
451.0670261722729
 40
456.3866195385303
 40
462.1274127215639
 40
468.3226219652525
 40
475.0115482873914
 40
484.2341763406552
 40
492.0325553595135
 40
500.4521926677954
 40
509.5425471951684
 40
519.3567187243789
 40
529.9515022460224
 40
541.3876497760289
 40
553.7300593993386
 40
567.046768202878
 40
581.408087522862
 40
596.8959856681967
 40
596.8959856681967
 40
596.8959856681967
 40
596.8959856681967
 10
40320.48828115636
 20
-3652.605237295064
 30
0.0
 10
40311.32620905053
 20
-3652.605237805082
 30
0.0
 10
40293.68261259811
 20
-3652.601660747661
 30
0.0
 10
40268.18500962435
 20
-3652.596540525808
 30
0.0
 10
40244.57929749556
 20
-3652.599543004999
 30
0.0
 10
40222.72820114004
 20
-3652.614987655971
 30
0.0
 10
40202.50823130072
 20
-3652.645348939206
 30
0.0
 10
40183.80226258932
 20
-3652.691307025977
 30
0.0
 10
40166.4984488754
 20
-3652.751800551528
 30
0.0
 10
40150.49073044817
 20
-3652.825443688057
 30
0.0
 10
40135.6793339068
 20
-3652.9059186291
 30
0.0
 10
40121.9713581543
 20
-3652.988837351909
 30
0.0
 10
40109.28134097684
 20
-3653.070944373927
 30
0.0
 10
40097.53095967744
 20
-3653.149834345654
 30
0.0
 10
40086.64836119733
 20
-3653.224011467086
 30
0.0
 10
40076.5675656839
 20
-3653.292513504351
 30
0.0
 10
40067.22793909117
 20
-3653.35476100683
 30
0.0
 10
40058.5736652793
 20
-3653.410411318364
 30
0.0
 10
40050.55339329843
 20
-3653.459086089669
 30
0.0
 10
40043.11999130369
 20
-3653.50083085688
 30
0.0
 10
40036.23094213581
 20
-3653.537971291181
 30
0.0
 10
40029.84822509506
 20
-3653.572333466347
 30
0.0
 10
40023.93889637274
 20
-3653.604727481825
 30
0.0
 10
40018.47361742599
 20
-3653.63472836828
 30
0.0
 10
40013.42517817499
 20
-3653.661754798736
 30
0.0
 10
40008.76628117715
 20
-3653.68667481615
 30
0.0
 10
40004.46936760707
 20
-3653.705289855003
 30
0.0
 10
40000.50562924152
 20
-3653.71334428856
 30
0.0
 10
39996.84490610432
 20
-3653.709312420814
 30
0.0
 10
39993.45540748174
 20
-3653.693145137282
 30
0.0
 10
39990.30938755124
 20
-3653.66538369298
 30
0.0
 10
39987.38815409333
 20
-3653.627122071005
 30
0.0
 10
39984.68126833256
 20
-3653.579878039027
 30
0.0
 10
39982.17843109673
 20
-3653.525365383646
 30
0.0
 10
39979.86387824489
 20
-3653.465181182184
 30
0.0
 10
39977.71902484064
 20
-3653.400629117795
 30
0.0
 10
39975.72914729731
 20
-3653.332923984534
 30
0.0
 10
39973.88460282098
 20
-3653.263289364886
 30
0.0
 10
39972.17789126496
 20
-3653.192891901754
 30
0.0
 10
39970.60022454325
 20
-3653.122699511237
 30
0.0
 10
39969.14127413742
 20
-3653.05343400747
 30
0.0
 10
39967.79039015048
 20
-3652.985605156369
 30
0.0
 10
39966.5369428445
 20
-3652.919522170352
 30
0.0
 10
39965.37014014575
 20
-3652.855437387164
 30
0.0
 10
39964.28466534901
 20
-3652.793752910319
 30
0.0
 10
39963.28446638459
 20
-3652.73526129829
 30
0.0
 10
39962.37154218796
 20
-3652.680624120776
 30
0.0
 10
39961.53442625678
 20
-3652.629513361551
 30
0.0
 10
39960.74386771226
 20
-3652.580304295753
 30
0.0
 10
39959.96959410551
 20
-3652.531125836434
 30
0.0
 10
39959.19307027236
 20
-3652.480864491801
 30
0.0
 10
39958.41245711765
 20
-3652.429046423571
 30
0.0
 10
39957.63428053442
 20
-3652.376703609653
 30
0.0
 10
39956.85239740744
 20
-3652.322129490321
 30
0.0
 10
39956.03539474554
 20
-3652.255473561499
 30
0.0
 10
39955.14765703624
 20
-3652.163749796895
 30
0.0
 10
39954.17398664604
 20
-3652.030356492989
 30
0.0
 10
39953.11924786916
 20
-3651.844518266835
 30
0.0
 10
39951.98521443083
 20
-3651.598585017571
 30
0.0
 10
39950.76269654934
 20
-3651.281468801523
 30
0.0
 10
39949.44465920498
 20
-3650.8773671524
 30
0.0
 10
39948.03165251625
 20
-3650.368305007559
 30
0.0
 10
39946.52665222855
 20
-3649.733514947441
 30
0.0
 10
39944.93043266063
 20
-3648.945960154021
 30
0.0
 10
39943.24345381423
 20
-3647.968978291693
 30
0.0
 10
39941.4721628417
 20
-3646.755956025579
 30
0.0
 10
39939.63799978999
 20
-3645.246895684568
 30
0.0
 10
39937.77837435581
 20
-3643.380115622852
 30
0.0
 10
39935.94963100297
 20
-3641.082510214098
 30
0.0
 10
39934.27380371326
 20
-3638.348620283645
 30
0.0
 10
39932.90740619007
 20
-3635.331781336224
 30
0.0
 10
39931.94927787495
 20
-3632.301150926172
 30
0.0
 10
39931.43591728644
 20
-3629.48457060221
 30
0.0
 10
39931.24562439806
 20
-3627.006302298981
 30
0.0
 10
39931.19616984975
 20
-3624.857615490902
 30
0.0
 10
39931.16769306862
 20
-3622.930363556451
 30
0.0
 10
39931.14144155754
 20
-3621.072949301729
 30
0.0
 10
39931.12286392278
 20
-3619.155387180025
 30
0.0
 10
39931.10940992017
 20
-3617.0955350638
 30
0.0
 10
39931.10282726334
 20
-3614.841279774476
 30
0.0
 10
39931.10371373684
 20
-3612.369470639129
 30
0.0
 10
39931.11338158092
 20
-3609.680636914293
 30
0.0
 10
39931.1325454196
 20
-3606.775414010563
 30
0.0
 10
39931.16154073893
 20
-3603.640541303169
 30
0.0
 10
39931.19992896315
 20
-3600.259809503647
 30
0.0
 10
39931.24584101155
 20
-3596.621294734384
 30
0.0
 10
39931.29615826226
 20
-3592.706504026569
 30
0.0
 10
39931.34878627414
 20
-3588.486106704078
 30
0.0
 10
39931.40249723269
 20
-3583.925658771653
 30
0.0
 10
39931.45567759086
 20
-3578.994862553573
 30
0.0
 10
39931.50812653901
 20
-3573.667259221759
 30
0.0
 10
39931.55956443636
 20
-3567.915622415802
 30
0.0
 10
39931.60822163634
 20
-3561.707504623292
 30
0.0
 10
39931.66371819754
 20
-3554.338784294781
 30
0.0
 10
39931.69253236272
 20
-3546.435513225873
 30
0.0
 10
39931.74166872963
 20
-3537.955439522453
 30
0.0
 10
39931.77651000711
 20
-3529.519385000137
 30
0.0
 10
39931.80836694058
 20
-3520.411386081811
 30
0.0
 10
39931.83430122245
 20
-3510.57831573252
 30
0.0
 10
39931.85425069191
 20
-3499.963299332431
 30
0.0
 10
39931.86712005679
 20
-3488.505525491425
 30
0.0
 10
39931.87508249692
 20
-3476.140439262628
 30
0.0
 10
39931.88143108639
 20
-3462.800294835044
 30
0.0
 10
39931.88686065661
 20
-3448.411653766142
 30
0.0
 10
39931.891087608
 20
-3438.461915493311
 30
0.0
 10
39931.89361931826
 20
-3433.299283398964
 30
0.0
 11
40320.48828115636
 21
-3652.605237295064
 31
0.0
 11
40293.00206508866
 21
-3652.601531945664
 31
0.0
 11
40267.55749170487
 21
-3652.597858937064
 31
0.0
 11
40243.99547160496
 21
-3652.601981300563
 31
0.0
 11
40222.18493734816
 21
-3652.618372703364
 31
0.0
 11
40202.00422184276
 21
-3652.649443954864
 31
0.0
 11
40183.33558936125
 21
-3652.695812613963
 31
0.0
 11
40166.06705960136
 21
-3652.756611301964
 31
0.0
 11
40150.09280538726
 21
-3652.829577714164
 31
0.0
 11
40135.31242352946
 21
-3652.909487353364
 31
0.0
 11
40121.63284849775
 21
-3652.991882455463
 31
0.0
 11
40108.96885476096
 21
-3653.073500179564
 31
0.0
 11
40097.24234952456
 21
-3653.151979623764
 31
0.0
 11
40086.38168669726
 21
-3653.225790022663
 31
0.0
 11
40076.32104530696
 21
-3653.293961655964
 31
0.0
 11
40066.99995235096
 21
-3653.355902342664
 31
0.0
 11
40058.36279872236
 21
-3653.411227224364
 31
0.0
 11
40050.35821685386
 21
-3653.459643137064
 31
0.0
 11
40042.93913610896
 21
-3653.501558237864
 31
0.0
 11
40036.06260764356
 21
-3653.538869778764
 31
0.0
 11
40029.69108157805
 21
-3653.573287772264
 31
0.0
 11
40023.79098988586
 21
-3653.605545962663
 31
0.0
 11
40018.33461772976
 21
-3653.635362855163
 31
0.0
 11
40013.29524016055
 21
-3653.662446468364
 31
0.0
 11
40008.64567161226
 21
-3653.686500159964
 31
0.0
 11
40004.35789770667
 21
-3653.704062293564
 31
0.0
 11
40000.40448915227
 21
-3653.711402801064
 31
0.0
 11
39996.75449267936
 21
-3653.706895108564
 31
0.0
 11
39993.37579296307
 21
-3653.690398623564
 31
0.0
 11
39990.23607084916
 21
-3653.662419378564
 31
0.0
 11
39987.31651094536
 21
-3653.623983447364
 31
0.0
 11
39984.61216032946
 21
-3653.576643940264
 31
0.0
 11
39982.11546405737
 21
-3653.522168075664
 31
0.0
 11
39979.80803178386
 21
-3653.462095517963
 31
0.0
 11
39977.66852100616
 21
-3653.397656998663
 31
0.0
 11
39975.68091073176
 21
-3653.330001626863
 31
0.0
 11
39973.83839357757
 21
-3653.260429534564
 31
0.0
 11
39972.13487057966
 21
-3653.190160250763
 31
0.0
 11
39970.56075071956
 21
-3653.120129620564
 31
0.0
 11
39969.10536356526
 21
-3653.051040399164
 31
0.0
 11
39967.75798840836
 21
-3652.983393486863
 31
0.0
 11
39966.50806844286
 21
-3652.917524647864
 31
0.0
 11
39965.34498557846
 21
-3652.853674427664
 31
0.0
 11
39964.25754590966
 21
-3652.791900617664
 31
0.0
 11
39963.25161358766
 21
-3652.733098816064
 31
0.0
 11
39962.34435671426
 21
-3652.678805983764
 31
0.0
 11
39961.51875176277
 21
-3652.628387782364
 31
0.0
 11
39960.74025860297
 21
-3652.579913762263
 31
0.0
 11
39959.97268353006
 21
-3652.531168146664
 31
0.0
 11
39959.19593373126
 21
-3652.480836752964
 31
0.0
 11
39958.41070970707
 21
-3652.428814596863
 31
0.0
 11
39957.63081873056
 21
-3652.376139093364
 31
0.0
 11
39956.86157805416
 21
-3652.321286400964
 31
0.0
 11
39956.06583572016
 21
-3652.255234293764
 31
0.0
 11
39955.18129657886
 21
-3652.162541424464
 31
0.0
 11
39954.20129906836
 21
-3652.027980087164
 31
0.0
 11
39953.14840230836
 21
-3651.842841494164
 31
0.0
 11
39952.02062849766
 21
-3651.598685358364
 31
0.0
 11
39950.80355864896
 21
-3651.283037227464
 31
0.0
 11
39949.48745826496
 21
-3650.879396794664
 31
0.0
 11
39948.07595241517
 21
-3650.370656384063
 31
0.0
 11
39946.57715591566
 21
-3649.738132521163
 31
0.0
 11
39944.98968791816
 21
-3648.954279790264
 31
0.0
 11
39943.31207640087
 21
-3647.981856703564
 31
0.0
 11
39941.55223006386
 21
-3646.774759456164
 31
0.0
 11
39939.72989262326
 21
-3645.274766587564
 31
0.0
 11
39937.88066853777
 21
-3643.417541779164
 31
0.0
 11
39936.06828214746
 21
-3641.141710848764
 31
0.0
 11
39934.36128603777
 21
-3638.365017573664
 31
0.0
 11
39932.94539856377
 21
-3635.245910379263
 31
0.0
 11
39931.98217704776
 21
-3632.167150107363
 31
0.0
 11
39931.46595181326
 21
-3629.354670633964
 31
0.0
 11
39931.26002723696
 21
-3626.880435471864
 31
0.0
 11
39931.19733377616
 21
-3624.774592168264
 31
0.0
 11
39931.16769797726
 21
-3622.917088198864
 31
0.0
 11
39931.14313237756
 21
-3621.099321842964
 31
0.0
 11
39931.12428088286
 21
-3619.202312781464
 31
0.0
 11
39931.11102742787
 21
-3617.164446967164
 31
0.0
 11
39931.10422199126
 21
-3614.919791756664
 31
0.0
 11
39931.10497219376
 21
-3612.439585821864
 31
0.0
 11
39931.11443172516
 21
-3609.749058861964
 31
0.0
 11
39931.13326213496
 21
-3606.853329926064
 31
0.0
 11
39931.16182532396
 21
-3603.723947354164
 31
0.0
 11
39931.19965366366
 21
-3600.344450906564
 31
0.0
 11
39931.24484478837
 21
-3596.711108654464
 31
0.0
 11
39931.29460942577
 21
-3592.808344821764
 31
0.0
 11
39931.34689897637
 21
-3588.600031719464
 31
0.0
 11
39931.40031125436
 21
-3584.049888528363
 31
0.0
 11
39931.45351077766
 21
-3579.126979648264
 31
0.0
 11
39931.50597560706
 21
-3573.807645007164
 31
0.0
 11
39931.55719247966
 21
-3568.067080296064
 31
0.0
 11
39931.60662769896
 21
-3561.872068291864
 31
0.0
 11
39931.65371589926
 21
-3555.183307715764
 31
0.0
 11
39931.69784186417
 21
-3545.960785224163
 31
0.0
 11
39931.73838863896
 21
-3538.162511615164
 31
0.0
 11
39931.77473328916
 21
-3529.742952750864
 31
0.0
 11
39931.80626966687
 21
-3520.652652926864
 31
0.0
 11
39931.83242237807
 21
-3510.838516243464
 31
0.0
 11
39931.85243938196
 21
-3500.243751631164
 31
0.0
 11
39931.86590209826
 21
-3488.807612025364
 31
0.0
 11
39931.87454081246
 21
-3476.465205425264
 31
0.0
 11
39931.88105490426
 21
-3463.148498214963
 31
0.0
 11
39931.88682830626
 21
-3448.787180055464
 31
0.0
 11
39931.89361931826
 21
-3433.299283398964
 31
0.0
  0
SPLINE
  5
64
330
2
100
AcDbEntity
  8
0
  6
Continuous
 62
     7
100
AcDbSpline
210
0.0
220
0.0
230
1.0
 70
     8
 71
     3
 72
   125
 73
   121
 74
   119
 42
0.0000000001
 43
0.0000000001
 44
0.0000000001
 12
0.0004815273290862
 22
-0.9999998840657088
 32
0.0
 13
-0.9999999999999982
 23
0.0000000598512108
 33
0.0
 40
0.0
 40
0.0
 40
0.0
 40
0.0
 40
14.7849247699752
 40
28.46963703624528
 40
41.13925356702302
 40
52.87169887264523
 40
63.73838603680624
 40
73.80519414125797
 40
83.13230863883973
 40
91.77460548608898
 40
99.78209423952293
 40
107.2011263309906
 40
114.0752563287013
 40
122.443902418053
 40
128.3440613666469
 40
133.8107714909581
 40
138.8783075549984
 40
143.5765030493872
 40
147.927512179312
 40
151.9510894986251
 40
155.6706301692825
 40
159.1145516454001
 40
162.3129291299553
 40
165.296644551623
 40
168.0806323444699
 40
170.6632522657535
 40
173.0520527359749
 40
175.2640525032163
 40
177.3196331161132
 40
179.2287431824954
 40
180.9796810944147
 40
182.5758880676204
 40
184.0354866184414
 40
185.3764471656854
 40
186.616607654418
 40
187.7740340446834
 40
188.8673036206436
 40
189.9142626708819
 40
190.9052825376751
 40
191.8105132832996
 40
192.6640880082637
 40
193.5306016360552
 40
194.4197210257213
 40
195.315176773284
 40
196.2079268753093
 40
197.10373680689
 40
198.0300933932151
 40
199.0229821367955
 40
200.1133869512084
 40
201.3148196212402
 40
202.6271000535052
 40
204.0562387231426
 40
205.6212221808252
 40
207.3440778364588
 40
209.2393889189361
 40
211.3248021078835
 40
213.5686868698616
 40
215.8405981600733
 40
218.0057486175627
 40
219.9986568881323
 40
221.7977751324399
 40
223.3941680074114
 40
224.8151758645235
 40
226.0995423649418
 40
227.2713160898556
 40
228.3466429136008
 40
229.326552527878
 40
230.2103960988007
 40
231.0444022955304
 40
231.8813509458078
 40
232.7163209505386
 40
233.5321415206383
 40
234.3371080101999
 40
235.141679666326
 40
235.9771295921301
 40
236.878473907844
 40
237.8746627604753
 40
238.9719599256988
 40
240.160819598171
 40
241.4376631936437
 40
242.8110054302501
 40
244.2914471946096
 40
245.8895696365385
 40
247.6169787277934
 40
249.4853656084283
 40
251.5046928472908
 40
253.6812755268356
 40
256.0244154939959
 40
258.5536192158958
 40
261.289883669009
 40
264.2472709077287
 40
267.4305024987906
 40
270.8513733787416
 40
274.5412150960976
 40
278.5344862553895
 40
282.8645336324914
 40
287.5608858231441
 40
292.6515022530002
 40
298.1644880608996
 40
304.1266092993822
 40
310.5653444341746
 40
317.5135388137814
 40
325.0087169013954
 40
333.092124020439
 40
341.8080516769462
 40
351.203089973272
 40
361.3288899778134
 40
372.2445302436562
 40
384.0169467597905
 40
396.718949176504
 40
410.4301496696321
 40
425.2374187095759
 40
441.2361996645527
 40
458.528354256607
 40
477.2193964815884
 40
497.4209791703246
 40
519.2504293846098
 40
542.8290827211053
 40
568.2760883030414
 40
595.7323183471551
 40
595.7323183471551
 40
595.7323183471551
 40
595.7323183471551
 10
40709.08346337306
 20
-3434.471595775064
 30
0.0
 10
40709.08583648817
 20
-3439.399903460362
 30
0.0
 10
40709.08990762806
 20
-3448.889781610954
 30
0.0
 10
40709.09505258041
 20
-3462.602865173292
 30
0.0
 10
40709.10107429623
 20
-3475.298455134824
 30
0.0
 10
40709.10840522886
 20
-3487.054702614233
 30
0.0
 10
40709.11959786839
 20
-3497.943344287336
 30
0.0
 10
40709.13686672045
 20
-3508.030200363655
 30
0.0
 10
40709.15963671916
 20
-3517.37557978456
 30
0.0
 10
40709.18688728726
 20
-3526.034504731457
 30
0.0
 10
40709.21884677668
 20
-3534.057380403367
 30
0.0
 10
40709.25255138241
 20
-3541.490856534091
 30
0.0
 10
40709.29965521699
 20
-3549.044647863292
 30
0.0
 10
40709.3245595045
 20
-3556.092263262512
 30
0.0
 10
40709.37584523315
 20
-3562.670576540234
 30
0.0
 10
40709.41916977328
 20
-3568.148538934326
 30
0.0
 10
40709.46451004204
 20
-3573.225818292728
 30
0.0
 10
40709.51019875934
 20
-3577.931177039002
 30
0.0
 10
40709.55609529856
 20
-3582.288529852454
 30
0.0
 10
40709.60190188343
 20
-3586.319645770117
 30
0.0
 10
40709.64715183921
 20
-3590.048384608723
 30
0.0
 10
40709.69060488145
 20
-3593.502057870381
 30
0.0
 10
40709.73180913598
 20
-3596.710464739379
 30
0.0
 10
40709.76955304009
 20
-3599.69892008691
 30
0.0
 10
40709.80217902111
 20
-3602.482170570971
 30
0.0
 10
40709.82868785637
 20
-3605.067171949503
 30
0.0
 10
40709.84873918025
 20
-3607.461563015168
 30
0.0
 10
40709.86259453088
 20
-3609.680315182651
 30
0.0
 10
40709.87074285469
 20
-3611.739197778636
 30
0.0
 10
40709.87370892102
 20
-3613.644406864451
 30
0.0
 10
40709.87220139754
 20
-3615.396492914368
 30
0.0
 10
40709.86692132314
 20
-3616.99873362604
 30
0.0
 10
40709.85849417512
 20
-3618.464299549053
 30
0.0
 10
40709.84745547533
 20
-3619.811162197736
 30
0.0
 10
40709.8342593003
 20
-3621.057275831031
 30
0.0
 10
40709.8195014146
 20
-3622.220801899963
 30
0.0
 10
40709.80323343223
 20
-3623.319900634049
 30
0.0
 10
40709.78617789022
 20
-3624.36351059059
 30
0.0
 10
40709.76851104195
 20
-3625.344423868182
 30
0.0
 10
40709.74396643924
 20
-3626.260727273802
 30
0.0
 10
40709.70656172624
 20
-3627.135082111392
 30
0.0
 10
40709.65120450394
 20
-3628.003135000373
 30
0.0
 10
40709.57155817758
 20
-3628.883361724964
 30
0.0
 10
40709.46277529557
 20
-3629.769327846008
 30
0.0
 10
40709.32139830101
 20
-3630.652973105795
 30
0.0
 10
40709.14476468435
 20
-3631.540752767457
 30
0.0
 10
40708.9277310226
 20
-3632.453879242564
 30
0.0
 10
40708.65889801496
 20
-3633.420664829736
 30
0.0
 10
40708.3234857022
 20
-3634.463260359107
 30
0.0
 10
40707.90695401358
 20
-3635.59052748648
 30
0.0
 10
40707.39563707478
 20
-3636.801799341982
 30
0.0
 10
40706.77229420297
 20
-3638.095584673028
 30
0.0
 10
40706.01176557532
 20
-3639.472778392973
 30
0.0
 10
40705.08235638798
 20
-3640.930753031802
 30
0.0
 10
40703.94722351609
 20
-3642.458143859054
 30
0.0
 10
40702.57928910264
 20
-3644.021421503583
 30
0.0
 10
40700.99074615059
 20
-3645.548289486566
 30
0.0
 10
40699.25076691841
 20
-3646.943054208859
 30
0.0
 10
40697.46714138462
 20
-3648.135879459661
 30
0.0
 10
40695.73534986947
 20
-3649.110979940519
 30
0.0
 10
40694.11316307672
 20
-3649.884886081764
 30
0.0
 10
40692.62524293181
 20
-3650.490118103395
 30
0.0
 10
40691.27053416182
 20
-3650.961783040926
 30
0.0
 10
40690.03164811897
 20
-3651.33114426296
 30
0.0
 10
40688.890526333
 20
-3651.621374365941
 30
0.0
 10
40687.83855817158
 20
-3651.847096806569
 30
0.0
 10
40686.87366566654
 20
-3652.017939576668
 30
0.0
 10
40685.98312821793
 20
-3652.144015345061
 30
0.0
 10
40685.13652541293
 20
-3652.237117084411
 30
0.0
 10
40684.30424306393
 20
-3652.308750261056
 30
0.0
 10
40683.47708470731
 20
-3652.367699880794
 30
0.0
 10
40682.66033880259
 20
-3652.422535766413
 30
0.0
 10
40681.85367512028
 20
-3652.476300370822
 30
0.0
 10
40681.04038397089
 20
-3652.528993207487
 30
0.0
 10
40680.19496724606
 20
-3652.582719884383
 30
0.0
 10
40679.28572481896
 20
-3652.639195718767
 30
0.0
 10
40678.28928386558
 20
-3652.699714816458
 30
0.0
 10
40677.19708629439
 20
-3652.764472601436
 30
0.0
 10
40676.01138222456
 20
-3652.832736421035
 30
0.0
 10
40674.73366856779
 20
-3652.90370121975
 30
0.0
 10
40673.35873328462
 20
-3652.976805493028
 30
0.0
 10
40671.87664569004
 20
-3653.05154411975
 30
0.0
 10
40670.27645050905
 20
-3653.127433536557
 30
0.0
 10
40668.54682603365
 20
-3653.203799177104
 30
0.0
 10
40666.67665439722
 20
-3653.279718586202
 30
0.0
 10
40664.65658231454
 20
-3653.354004023836
 30
0.0
 10
40662.47805827503
 20
-3653.425275792557
 30
0.0
 10
40660.12935993723
 20
-3653.492124115855
 30
0.0
 10
40657.59388262814
 20
-3653.553128904235
 30
0.0
 10
40654.85344509721
 20
-3653.606708558787
 30
0.0
 10
40651.89480578254
 20
-3653.651036204604
 30
0.0
 10
40648.70780668336
 20
-3653.684400054531
 30
0.0
 10
40645.27654678181
 20
-3653.7054783118
 30
0.0
 10
40641.5752192254
 20
-3653.713574123552
 30
0.0
 10
40637.57082921597
 20
-3653.708620928287
 30
0.0
 10
40633.23096865596
 20
-3653.691792597846
 30
0.0
 10
40628.52536185778
 20
-3653.66698603431
 30
0.0
 10
40623.42544994349
 20
-3653.639726597946
 30
0.0
 10
40617.90362485216
 20
-3653.609494905461
 30
0.0
 10
40611.93243409744
 20
-3653.576716154482
 30
0.0
 10
40605.48284442034
 20
-3653.541910143113
 30
0.0
 10
40598.5222425726
 20
-3653.504472653897
 30
0.0
 10
40591.01343304707
 20
-3653.462526218321
 30
0.0
 10
40582.9154093768
 20
-3653.413639218249
 30
0.0
 10
40574.18413122674
 20
-3653.357625475939
 30
0.0
 10
40564.77208442845
 20
-3653.294965884342
 30
0.0
 10
40554.62682562788
 20
-3653.226050594265
 30
0.0
 10
40543.68912753435
 20
-3653.151484814846
 30
0.0
 10
40531.89270720504
 20
-3653.072247505399
 30
0.0
 10
40519.16443399163
 20
-3652.989833490737
 30
0.0
 10
40505.42452788967
 20
-3652.906646305541
 30
0.0
 10
40490.58566266615
 20
-3652.825940645538
 30
0.0
 10
40474.55309520898
 20
-3652.752095448575
 30
0.0
 10
40457.22587184562
 20
-3652.691450327335
 30
0.0
 10
40438.49766553944
 20
-3652.645399226748
 30
0.0
 10
40418.25699399737
 20
-3652.614991504651
 30
0.0
 10
40396.38710232773
 20
-3652.599535853406
 30
0.0
 10
40372.76873199499
 20
-3652.596541826131
 30
0.0
 10
40347.27476951088
 20
-3652.601666455343
 30
0.0
 10
40329.64035783773
 20
-3652.605237842826
 30
0.0
 10
40320.48828115636
 20
-3652.605237295064
 30
0.0
 11
40709.08346337306
 21
-3434.471595775064
 31
0.0
 11
40709.08992723116
 21
-3449.256519132064
 31
0.0
 11
40709.09541433266
 21
-3462.941230298264
 31
0.0
 11
40709.10154975456
 21
-3475.610845343464
 31
0.0
 11
40709.10940612506
 21
-3487.343288018664
 31
0.0
 11
40709.12115825406
 21
-3498.209968827964
 31
0.0
 11
40709.13855073325
 21
-3508.276761907864
 31
0.0
 11
40709.16133964476
 21
-3517.603848565364
 31
0.0
 11
40709.18880392186
 21
-3526.246101773264
 31
0.0
 11
40709.22039101056
 21
-3534.253528225764
 31
0.0
 11
40709.25555911645
 21
-3541.672476963864
 31
0.0
 11
40709.29375668965
 21
-3548.546500834264
 31
0.0
 11
40709.33444047466
 21
-3556.915048031863
 31
0.0
 11
40709.37708664036
 21
-3562.815052855864
 31
0.0
 11
40709.42118762806
 21
-3568.281585091764
 31
0.0
 11
40709.46629292336
 21
-3573.348920414463
 31
0.0
 11
40709.51199163916
 21
-3578.046893650963
 31
0.0
 11
40709.55787026746
 21
-3582.397660893664
 31
0.0
 11
40709.60359148456
 21
-3586.420978432064
 31
0.0
 11
40709.64855388486
 21
-3590.140247336464
 31
0.0
 11
40709.69178983806
 21
-3593.583897403764
 31
0.0
 11
40709.73261071616
 21
-3596.782014379363
 31
0.0
 11
40709.76992693566
 21
-3599.765496441864
 31
0.0
 11
40709.80225950895
 21
-3602.549296476964
 31
0.0
 11
40709.82850943636
 21
-3605.131782991764
 31
0.0
 11
40709.84835230135
 21
-3607.520501046964
 31
0.0
 11
40709.86204610377
 21
-3609.732458426764
 31
0.0
 11
40709.87008318756
 21
-3611.788023327564
 31
0.0
 11
40709.87298863606
 21
-3613.697131183064
 31
0.0
 11
40709.87141358195
 21
-3615.448068386564
 31
0.0
 11
40709.86608906406
 21
-3617.044266479164
 31
0.0
 11
40709.85764665386
 21
-3618.503840614064
 31
0.0
 11
40709.84662423806
 21
-3619.844755859564
 31
0.0
 11
40709.83351963096
 21
-3621.084847109063
 31
0.0
 11
40709.81881019806
 21
-3622.242180026364
 31
0.0
 11
40709.80271809916
 21
-3623.335331164164
 31
0.0
 11
40709.78557431566
 21
-3624.382149841664
 31
0.0
 11
40709.76648202946
 21
-3625.372985782164
 31
0.0
 11
40709.74102588866
 21
-3626.277858528864
 31
0.0
 11
40709.70379441286
 21
-3627.130620880464
 31
0.0
 11
40709.64790909336
 21
-3627.995330483864
 31
0.0
 11
40709.56705811956
 21
-3628.880766200964
 31
0.0
 11
40709.45726543976
 21
-3629.769465567064
 31
0.0
 11
40709.31603980176
 21
-3630.650974536864
 31
0.0
 11
40709.14145098655
 21
-3631.529606529863
 31
0.0
 11
40708.92739388496
 21
-3632.430892323764
 31
0.0
 11
40708.66155665126
 21
-3633.387531556863
 31
0.0
 11
40708.32784100706
 21
-3634.425614659563
 31
0.0
 11
40707.91166191986
 21
-3635.552661875964
 31
0.0
 11
40707.40132750906
 21
-3636.761644391164
 31
0.0
 11
40706.78071274116
 21
-3638.048996187264
 31
0.0
 11
40706.02375048636
 21
-3639.418733887564
 31
0.0
 11
40705.09711252756
 21
-3640.871171047463
 31
0.0
 11
40703.96634101616
 21
-3642.392210129264
 31
0.0
 11
40702.59313846645
 21
-3643.961688681564
 31
0.0
 11
40700.97541978776
 21
-3645.516682283363
 31
0.0
 11
40699.20324044856
 21
-3646.938287467764
 31
0.0
 11
40697.40435196776
 21
-3648.143225946364
 31
0.0
 11
40695.66817989766
 21
-3649.121688984963
 31
0.0
 11
40694.04463061666
 21
-3649.896875536164
 31
0.0
 11
40692.56599633746
 21
-3650.498632031464
 31
0.0
 11
40691.22405764916
 21
-3650.966033236863
 31
0.0
 11
40689.99325674766
 21
-3651.333084252764
 31
0.0
 11
40688.85761464516
 21
-3651.621824061964
 31
0.0
 11
40687.80615417296
 21
-3651.847120873464
 31
0.0
 11
40686.84119739226
 21
-3652.017653168164
 31
0.0
 11
40685.96609701276
 21
-3652.141664392064
 31
0.0
 11
40685.13718898826
 21
-3652.233739486964
 31
0.0
 11
40684.30343165046
 21
-3652.306758285064
 31
0.0
 11
40683.47067955586
 21
-3652.367576520263
 31
0.0
 11
40682.65672420266
 21
-3652.422711677863
 31
0.0
 11
40681.85352752756
 21
-3652.476061002364
 31
0.0
 11
40681.05064481546
 21
-3652.528165708964
 31
0.0
 11
40680.21687578815
 21
-3652.581135394964
 31
0.0
 11
40679.31726686197
 21
-3652.637040272963
 31
0.0
 11
40678.32291102225
 21
-3652.697444694564
 31
0.0
 11
40677.22753606275
 21
-3652.762365930764
 31
0.0
 11
40676.04063983806
 21
-3652.830664339364
 31
0.0
 11
40674.76575893626
 21
-3652.901433354764
 31
0.0
 11
40673.39435159166
 21
-3652.974308549563
 31
0.0
 11
40671.91578805566
 21
-3653.048858450064
 31
0.0
 11
40670.31945941626
 21
-3653.124556629964
 31
0.0
 11
40668.59373131826
 21
-3653.200745213963
 31
0.0
 11
40666.72688231625
 21
-3653.276536634564
 31
0.0
 11
40664.70891983627
 21
-3653.350765516763
 31
0.0
 11
40662.53350236106
 21
-3653.421976256563
 31
0.0
 11
40660.19131283665
 21
-3653.488708089164
 31
0.0
 11
40657.66284328526
 21
-3653.549644076264
 31
0.0
 11
40654.92710428796
 21
-3653.603265863264
 31
0.0
 11
40651.97005186705
 21
-3653.647765972964
 31
0.0
 11
40648.78699753316
 21
-3653.681358677664
 31
0.0
 11
40645.36619358316
 21
-3653.702757578463
 31
0.0
 11
40641.67636182435
 21
-3653.711330258863
 31
0.0
 11
40637.68309293396
 21
-3653.707073423563
 31
0.0
 11
40633.35307428346
 21
-3653.691300843963
 31
0.0
 11
40628.65678177845
 21
-3653.667623722064
 31
0.0
 11
40623.56623828565
 21
-3653.640373330463
 31
0.0
 11
40618.05333449396
 21
-3653.610301723164
 31
0.0
 11
40612.09130251746
 21
-3653.577676985064
 31
0.0
 11
40605.65266159795
 21
-3653.542845307564
 31
0.0
 11
40598.70456908235
 21
-3653.505221758664
 31
0.0
 11
40591.20950946746
 21
-3653.463079924864
 31
0.0
 11
40583.12624880076
 21
-3653.414421457364
 31
0.0
 11
40574.41049901076
 21
-3653.358739220464
 31
0.0
 11
40565.01566764815
 21
-3653.296383325063
 31
0.0
 11
40554.89009991315
 21
-3653.227799245764
 31
0.0
 11
40543.97471178636
 21
-3653.153607233964
 31
0.0
 11
40532.20255914416
 21
-3653.074785928464
 31
0.0
 11
40519.50082088565
 21
-3652.992867635864
 31
0.0
 11
40505.78986953876
 21
-3652.910210961664
 31
0.0
 11
40490.98281733726
 21
-3652.830076553164
 31
0.0
 11
40474.98420366266
 21
-3652.756915523963
 31
0.0
 11
40457.69215648486
 21
-3652.695966068963
 31
0.0
 11
40439.00117201356
 21
-3652.649501567463
 31
0.0
 11
40418.79961329446
 21
-3652.618381664164
 31
0.0
 11
40396.97016924447
 21
-3652.601976602164
 31
0.0
 11
40373.39151626737
 21
-3652.597859788463
 31
0.0
 11
40347.94451095126
 21
-3652.601537990564
 31
0.0
 11
40320.48828115636
 21
-3652.605237295064
 31
0.0
  0
SPLINE
  5
69
330
2
100
AcDbEntity
  8
0
  6
Continuous
 62
     7
100
AcDbSpline
210
0.0
220
0.0
230
1.0
 70
     8
 71
     3
 72
    42
 73
    38
 74
    36
 42
0.0000000001
 43
0.0000000001
 44
0.0000000001
 12
-0.0027025124952289
 22
-0.9999963482064389
 32
0.0
 13
-0.0033085393194087
 23
-0.999994526768808
 33
0.0
 40
0.0
 40
0.0
 40
0.0
 40
0.0
 40
3.805429171517495
 40
7.215073280826723
 40
10.22109909688745
 40
12.89939394176573
 40
15.29270934370448
 40
17.43698852043507
 40
19.35171884214816
 40
21.05110763107333
 40
22.63427913602484
 40
24.21860764536797
 40
25.82977600068334
 40
27.44253568962798
 40
29.02641841742242
 40
30.57560449905168
 40
32.1300005298682
 40
33.7478345676667
 40
35.48802998099531
 40
37.36062727179683
 40
39.28602386250297
 40
41.1916277918879
 40
43.0804616947257
 40
44.99891203184108
 40
47.02137703602114
 40
49.22821858320943
 40
51.69039882764614
 40
54.44134985705613
 40
57.4724263751499
 40
60.7717347902011
 40
64.34616816272778
 40
68.21407076104673
 40
72.39303380275718
 40
76.90168934943888
 40
81.76349338690561
 40
87.00988185115896
 40
92.68275785661721
 40
92.68275785661721
 40
92.68275785661721
 40
92.68275785661721
 10
40704.22540183486
 20
-3334.534403279464
 30
0.0
 10
40704.22197376156
 20
-3335.802875037756
 30
0.0
 10
40704.22972410838
 20
-3338.207942823768
 30
0.0
 10
40704.27055941223
 20
-3341.614752625678
 30
0.0
 10
40704.3221083687
 20
-3344.645641103407
 30
0.0
 10
40704.37241318131
 20
-3347.337715901954
 30
0.0
 10
40704.41544227184
 20
-3349.742628438818
 30
0.0
 10
40704.44956632833
 20
-3351.893134489934
 30
0.0
 10
40704.47568254871
 20
-3353.812424498783
 30
0.0
 10
40704.49558681845
 20
-3355.544741471021
 30
0.0
 10
40704.51121985662
 20
-3357.166963229201
 30
0.0
 10
40704.52385413149
 20
-3358.759803313822
 30
0.0
 10
40704.53387199211
 20
-3360.362525006159
 30
0.0
 10
40704.54105622906
 20
-3361.965113277867
 30
0.0
 10
40704.54561182893
 20
-3363.547050172055
 30
0.0
 10
40704.54779152141
 20
-3365.109537446682
 30
0.0
 10
40704.54789203569
 20
-3366.683343240531
 30
0.0
 10
40704.54601776756
 20
-3368.320817687751
 30
0.0
 10
40704.54212074485
 20
-3370.06435587991
 30
0.0
 10
40704.53628041839
 20
-3371.91040995297
 30
0.0
 10
40704.52894271638
 20
-3373.811595143293
 30
0.0
 10
40704.52094778384
 20
-3375.718189865159
 30
0.0
 10
40704.51265011282
 20
-3377.622467850382
 30
0.0
 10
40704.50394732573
 20
-3379.565698112732
 30
0.0
 10
40704.49469804778
 20
-3381.614929534781
 30
0.0
 10
40704.48475285388
 20
-3383.845402966034
 30
0.0
 10
40704.47414763401
 20
-3386.318704521632
 30
0.0
 10
40704.46325511708
 20
-3389.066752289334
 30
0.0
 10
40704.45291086704
 20
-3392.093846775924
 30
0.0
 10
40704.44345621045
 20
-3395.395439477213
 30
0.0
 10
40704.43476282676
 20
-3398.975977139325
 30
0.0
 10
40704.42667059791
 20
-3402.84973507385
 30
0.0
 10
40704.41879644178
 20
-3407.034901405531
 30
0.0
 10
40704.41055393351
 20
-3411.551368087335
 30
0.0
 10
40704.40105835923
 20
-3416.423641561838
 30
0.0
 10
40704.38903597896
 20
-3421.683984123146
 30
0.0
 10
40704.37859392597
 20
-3425.323724383432
 30
0.0
 10
40704.37233761486
 20
-3427.214672702264
 30
0.0
 11
40704.22540183486
 21
-3334.534403279464
 31
0.0
 11
40704.23601197926
 21
-3338.339817659564
 31
0.0
 11
40704.27520406046
 21
-3341.749236515163
 31
0.0
 11
40704.32485502486
 21
-3344.754852257164
 31
0.0
 11
40704.37381374206
 21
-3347.432699586664
 31
0.0
 11
40704.41607590976
 21
-3349.825641817964
 31
0.0
 11
40704.44992699316
 21
-3351.969653779664
 31
0.0
 11
40704.47594343916
 21
-3353.884207343663
 31
0.0
 11
40704.49548853396
 21
-3355.583483732364
 31
0.0
 11
40704.51076650075
 21
-3357.166581517664
 31
0.0
 11
40704.52334295416
 21
-3358.750860110064
 31
0.0
 11
40704.53339427196
 21
-3360.361997112363
 31
0.0
 11
40704.54066458346
 21
-3361.974740413964
 31
0.0
 11
40704.54524885296
 21
-3363.558616507564
 31
0.0
 11
40704.54744597675
 21
-3365.107801031164
 31
0.0
 11
40704.54758387106
 21
-3366.662197055864
 31
0.0
 11
40704.54578112347
 21
-3368.280030089264
 31
0.0
 11
40704.54195995005
 21
-3370.020221307264
 31
0.0
 11
40704.53612194386
 21
-3371.892809497764
 31
0.0
 11
40704.52880959775
 21
-3373.818192202864
 31
0.0
 11
40704.52087200275
 21
-3375.723779600563
 31
0.0
 11
40704.51265529406
 21
-3377.612595631364
 31
0.0
 11
40704.50409169995
 21
-3379.531026855263
 31
0.0
 11
40704.49499309265
 21
-3381.553471393064
 31
0.0
 11
40704.48519176946
 21
-3383.760291174664
 31
0.0
 11
40704.47468601636
 21
-3386.222449005764
 31
0.0
 11
40704.46386365325
 21
-3388.973378747264
 31
0.0
 11
40704.45348419286
 21
-3392.004437493863
 31
0.0
 11
40704.44394882976
 21
-3395.303732129764
 31
0.0
 11
40704.43519430826
 21
-3398.878154781463
 31
0.0
 11
40704.42701581766
 21
-3402.746048733264
 31
0.0
 11
40704.41904103466
 21
-3406.925004165763
 31
0.0
 11
40704.41067916256
 21
-3411.433651958364
 31
0.0
 11
40704.40104584906
 21
-3416.295446451964
 31
0.0
 11
40704.38887067066
 21
-3421.541820788863
 31
0.0
 11
40704.37233761486
 21
-3427.214672702264
 31
0.0
  0
SPLINE
  5
6A
330
2
100
AcDbEntity
  8
0
  6
Continuous
 62
     7
100
AcDbSpline
210
0.0
220
0.0
230
1.0
 70
     8
 71
     3
 72
    29
 73
    25
 74
    23
 42
0.0000000001
 43
0.0000000001
 44
0.0000000001
 12
0.0327036818136877
 22
-0.9994650915343811
 32
0.0
 13
0.1691102199505492
 23
-0.9855971456473874
 33
0.0
 40
0.0
 40
0.0
 40
0.0
 40
0.0
 40
1.897725438377751
 40
3.563341952140758
 40
5.039916762733874
 40
6.362717838941556
 40
7.552002500949752
 40
8.625769788798905
 40
9.600964702580085
 40
10.49379388143612
 40
11.33617935181433
 40
12.17951609675952
 40
13.00514131026429
 40
13.78514737558771
 40
14.52914996808022
 40
15.2516378708085
 40
15.97845187351424
 40
16.74098267089718
 40
17.54893558049441
 40
18.38433924730299
 40
19.22434840988712
 40
20.03975035764623
 40
20.80102364605441
 40
21.47971525348451
 40
21.47971525348451
 40
21.47971525348451
 40
21.47971525348451
 10
39941.96487782916
 20
-3334.129921532864
 30
0.0
 10
39941.98556536546
 20
-3334.762158309189
 30
0.0
 10
39942.05177112591
 20
-3335.948572650645
 30
0.0
 10
39942.21292405156
 20
-3337.62113106543
 30
0.0
 10
39942.40375029554
 20
-3339.097390223404
 30
0.0
 10
39942.6075074751
 20
-3340.411339805787
 30
0.0
 10
39942.81183295303
 20
-3341.589068236012
 30
0.0
 10
39943.00692623205
 20
-3342.650712277006
 30
0.0
 10
39943.18675062475
 20
-3343.614678392131
 30
0.0
 10
39943.34810784879
 20
-3344.503633975119
 30
0.0
 10
39943.48973652533
 20
-3345.351449766015
 30
0.0
 10
39943.61069322869
 20
-3346.179840447614
 30
0.0
 10
39943.71387905197
 20
-3346.989650570072
 30
0.0
 10
39943.8028790867
 20
-3347.767794598686
 30
0.0
 10
39943.88677606703
 20
-3348.511912287264
 30
0.0
 10
39943.9730414903
 20
-3349.237911342912
 30
0.0
 10
39944.0636941644
 20
-3349.969597379596
 30
0.0
 10
39944.16203637077
 20
-3350.7290266358
 30
0.0
 10
39944.26972310668
 20
-3351.523731300425
 30
0.0
 10
39944.38612914655
 20
-3352.343300349942
 30
0.0
 10
39944.50832123588
 20
-3353.164537503584
 30
0.0
 10
39944.63246025972
 20
-3353.960484040903
 30
0.0
 10
39944.75301718439
 20
-3354.7025440408
 30
0.0
 10
39944.8312232748
 20
-3355.176123652911
 30
0.0
 10
39944.86948117046
 20
-3355.399095823263
 30
0.0
 11
39941.96487782916
 21
-3334.129921532864
 31
0.0
 11
39942.06962219656
 21
-3336.024754099863
 31
0.0
 11
39942.22847149977
 21
-3337.682778608063
 31
0.0
 11
39942.41682238857
 21
-3339.147291193864
 31
0.0
 11
39942.61843553966
 21
-3340.454637676064
 31
0.0
 11
39942.82045622046
 21
-3341.626638380763
 31
0.0
 11
39943.01336059546
 21
-3342.682935730264
 31
0.0
 11
39943.19097337716
 21
-3343.641819883663
 31
0.0
 11
39943.34899458506
 21
-3344.520553768563
 31
0.0
 11
39943.48683794236
 21
-3345.351584748463
 31
0.0
 11
39943.60897679096
 21
-3346.186030053464
 31
0.0
 11
39943.71399427436
 21
-3347.004949049064
 31
0.0
 11
39943.80403022896
 21
-3347.779741272063
 31
0.0
 11
39943.88832901536
 21
-3348.518952725064
 31
0.0
 11
39943.97346707646
 21
-3349.236406751564
 31
0.0
 11
39944.06287671016
 21
-3349.957700389364
 31
0.0
 11
39944.16081461866
 21
-3350.713915559164
 31
0.0
 11
39944.26933441046
 21
-3351.514547408964
 31
0.0
 11
39944.38682250877
 21
-3352.341648269364
 31
0.0
 11
39944.51051320507
 21
-3353.172500846464
 31
0.0
 11
39944.63612031576
 21
-3353.978170251464
 31
0.0
 11
39944.75777666916
 21
-3354.729659939564
 31
0.0
 11
39944.86948117046
 21
-3355.399095823263
 31
0.0
  0
SPLINE
  5
6B
330
2
100
AcDbEntity
  8
0
  6
Continuous
 62
     7
100
AcDbSpline
210
0.0
220
0.0
230
1.0
 70
     8
 71
     3
 72
    37
 73
    33
 74
    31
 42
0.0000000001
 43
0.0000000001
 44
0.0000000001
 12
-0.0034139918440635
 22
0.9999941723128634
 32
0.0
 13
-0.0026935998838858
 23
0.9999963722532523
 33
0.0
 40
0.0
 40
0.0
 40
0.0
 40
0.0
 40
4.920837829296874
 40
9.533965529936089
 40
13.71077827004869
 40
17.51559167160137
 40
21.09445680413711
 40
24.57649218753981
 40
28.04702150158426
 40
31.53122481574614
 40
35.00162180037607
 40
38.43768931218799
 40
42.03589506362995
 40
46.07965450340646
 40
50.41818156289255
 40
54.5620389622301
 40
58.17490964483566
 40
61.39134063597468
 40
64.27571835486242
 40
66.86597544289788
 40
69.21651097896404
 40
71.35935261677033
 40
73.27888157108721
 40
75.12303397962391
 40
77.03760170867018
 40
78.98579524723238
 40
80.91722138430878
 40
82.78702831452962
 40
84.68479619090851
 40
86.79564786404515
 40
89.1130149058935
 40
91.64341407083169
 40
91.64341407083169
 40
91.64341407083169
 40
91.64341407083169
 10
39936.60333859386
 20
-3426.175458244963
 30
0.0
 10
39936.5977386938
 20
-3424.535188527566
 30
0.0
 10
39936.58816583509
 20
-3421.35721412279
 30
0.0
 10
39936.57696848658
 20
-3416.786968290813
 30
0.0
 10
39936.568189665
 20
-3412.588726134565
 30
0.0
 10
39936.56087516879
 20
-3408.735235979857
 30
0.0
 10
39936.5541777039
 20
-3405.113337534084
 30
0.0
 10
39936.54738268535
 20
-3401.602867489116
 30
0.0
 10
39936.53986316329
 20
-3398.123952893366
 30
0.0
 10
39936.53106054107
 20
-3394.648920734216
 30
0.0
 10
39936.520672076
 20
-3391.185380227958
 30
0.0
 10
39936.50817935434
 20
-3387.683845526175
 30
0.0
 10
39936.49264454806
 20
-3383.991200471573
 30
0.0
 10
39936.4745573065
 20
-3379.997744019502
 30
0.0
 10
39936.45568044024
 20
-3375.822405381168
 30
0.0
 10
39936.43939976819
 20
-3371.790686179309
 30
0.0
 10
39936.42927494637
 20
-3368.132978601126
 30
0.0
 10
39936.42775937531
 20
-3364.895081990713
 30
0.0
 10
39936.43458384804
 20
-3361.998064221982
 30
0.0
 10
39936.44785905832
 20
-3359.389704835523
 30
0.0
 10
39936.4660686008
 20
-3357.028560963299
 30
0.0
 10
39936.4879297927
 20
-3354.891035448857
 30
0.0
 10
39936.51238860994
 20
-3352.922344726725
 30
0.0
 10
39936.5402955275
 20
-3351.029799322249
 30
0.0
 10
39936.57196072291
 20
-3349.127757385763
 30
0.0
 10
39936.60696642935
 20
-3347.196678539598
 30
0.0
 10
39936.6423840172
 20
-3345.280530420886
 30
0.0
 10
39936.67625355829
 20
-3343.381164862214
 30
0.0
 10
39936.70718911215
 20
-3341.421931517899
 30
0.0
 10
39936.7335412046
 20
-3339.313428233562
 30
0.0
 10
39936.75146182375
 20
-3336.993947346594
 30
0.0
 10
39936.75343912123
 20
-3335.378008747294
 30
0.0
 10
39936.75116716026
 20
-3334.534545418864
 30
0.0
 11
39936.60333859386
 21
-3426.175458244963
 31
0.0
 11
39936.58833282667
 21
-3421.254643295263
 31
0.0
 11
39936.57690185987
 21
-3416.641529757163
 31
0.0
 11
39936.56807093186
 21
-3412.464726352564
 31
0.0
 11
39936.56076422456
 21
-3408.659919966864
 31
0.0
 11
39936.55406572606
 21
-3405.081061103064
 31
0.0
 11
39936.54724399736
 21
-3401.599032401963
 31
0.0
 11
39936.53965846986
 21
-3398.128511377764
 31
0.0
 11
39936.53077758456
 21
-3394.644319381864
 31
0.0
 11
39936.52030735846
 21
-3391.173938191664
 31
0.0
 11
39936.50801458216
 21
-3387.737892669064
 31
0.0
 11
39936.49308736426
 21
-3384.139717880664
 31
0.0
 11
39936.47500764416
 21
-3380.095998858464
 31
0.0
 11
39936.45574425036
 21
-3375.757514564663
 31
0.0
 11
39936.43962223217
 21
-3371.613688527464
 31
0.0
 11
39936.43037448197
 21
-3368.000829680464
 31
0.0
 11
39936.42930369376
 21
-3364.784398867564
 31
0.0
 11
39936.43619959416
 21
-3361.900029391963
 31
0.0
 11
39936.44945283946
 21
-3359.309806209763
 31
0.0
 11
39936.46763325956
 21
-3356.959340983764
 31
0.0
 11
39936.48951849756
 21
-3354.816611107864
 31
0.0
 11
39936.51345820476
 21
-3352.897231443264
 31
0.0
 11
39936.54052297736
 21
-3351.053277646663
 31
0.0
 11
39936.57224193666
 21
-3349.138972682264
 31
0.0
 11
39936.60718382907
 21
-3347.191092519664
 31
0.0
 11
39936.64255052076
 21
-3345.259990212664
 31
0.0
 11
39936.67545589546
 21
-3343.390472843764
 31
0.0
 11
39936.70508227137
 21
-3341.492936232663
 31
0.0
 11
39936.73108068196
 21
-3339.382244670964
 31
0.0
 11
39936.74851218886
 21
-3337.064943190963
 31
0.0
 11
39936.75116716026
 21
-3334.534545418864
 31
0.0
  0
SPLINE
  5
6C
330
2
100
AcDbEntity
  8
0
  6
Continuous
 62
     7
100
AcDbSpline
210
0.0
220
0.0
230
1.0
 70
     8
 71
     3
 72
    42
 73
    38
 74
    36
 42
0.0000000001
 43
0.0000000001
 44
0.0000000001
 12
-0.06654779444386
 22
0.9977832385115807
 32
0.0
 13
-0.9999999999999326
 23
0.0000003674458672
 33
0.0
 40
0.0
 40
0.0
 40
0.0
 40
0.0
 40
6.39458772260543
 40
12.20945233076291
 40
17.41765514884383
 40
22.42988855709897
 40
27.54335963411767
 40
32.78318732954128
 40
37.58999964321477
 40
41.81237895837144
 40
45.8942166673678
 40
50.26888900585067
 40
55.0051638663556
 40
60.13828897163481
 40
65.68501952737197
 40
71.6720780146429
 40
78.13680747268659
 40
85.11572700771871
 40
92.64654794148993
 40
100.7700667768238
 40
109.5328864310828
 40
118.9858937918059
 40
129.1827142849583
 40
140.1795033175679
 40
152.0380164136069
 40
164.8260982693228
 40
178.6210188437957
 40
193.5038226482633
 40
209.5563067162388
 40
226.8652237147096
 40
245.5227528620368
 40
265.6382449849031
 40
287.3368900419508
 40
310.7587737033605
 40
336.0946041563794
 40
363.5756202600678
 40
393.4702030717102
 40
393.4702030717102
 40
393.4702030717102
 40
393.4702030717102
 10
40696.10709525896
 20
-3355.399019528864
 30
0.0
 10
40695.96524668919
 20
-3353.272215379928
 30
0.0
 10
40695.55848557087
 20
-3349.228538229155
 30
0.0
 10
40695.01461521856
 20
-3343.421160708955
 30
0.0
 10
40693.08621492321
 20
-3338.3567193685
 30
0.0
 10
40690.02111915053
 20
-3334.193150489352
 30
0.0
 10
40685.94174096923
 20
-3330.988610043881
 30
0.0
 10
40681.24480175058
 20
-3329.001466043353
 30
0.0
 10
40676.56050124281
 20
-3328.027709823614
 30
0.0
 10
40672.18403286017
 20
-3327.889675157502
 30
0.0
 10
40667.95968789379
 20
-3327.854384885875
 30
0.0
 10
40663.56301021454
 20
-3327.734141732256
 30
0.0
 10
40658.81541728789
 20
-3327.677409519457
 30
0.0
 10
40653.67711697177
 20
-3327.61026356894
 30
0.0
 10
40648.12201292366
 20
-3327.533814344105
 30
0.0
 10
40642.12296906668
 20
-3327.459011924477
 30
0.0
 10
40635.64650413233
 20
-3327.383731340007
 30
0.0
 10
40628.65540059124
 20
-3327.310038643041
 30
0.0
 10
40621.11129844592
 20
-3327.240516816244
 30
0.0
 10
40612.97247601518
 20
-3327.178728227394
 30
0.0
 10
40604.19284626527
 20
-3327.126421118066
 30
0.0
 10
40594.72206260561
 20
-3327.082878303019
 30
0.0
 10
40584.50661432453
 20
-3327.039870616231
 30
0.0
 10
40573.48933020452
 20
-3326.995296980701
 30
0.0
 10
40561.60830821815
 20
-3326.945090618301
 30
0.0
 10
40548.79459290066
 20
-3326.888910832013
 30
0.0
 10
40534.97274974595
 20
-3326.837691894731
 30
0.0
 10
40520.06272019935
 20
-3326.801573809963
 30
0.0
 10
40503.98133528739
 20
-3326.77782544661
 30
0.0
 10
40486.64170251774
 20
-3326.758315147742
 30
0.0
 10
40467.94775873699
 20
-3326.719625402353
 30
0.0
 10
40447.79064567976
 20
-3326.651189566582
 30
0.0
 10
40426.04556798448
 20
-3326.541919122869
 30
0.0
 10
40402.56064122906
 20
-3326.383950496223
 30
0.0
 10
40377.14837724953
 20
-3326.202718047183
 30
0.0
 10
40349.57834992527
 20
-3326.043043473286
 30
0.0
 10
40330.45314209357
 20
-3325.99329818321
 30
0.0
 10
40320.48828115636
 20
-3325.993294521663
 30
0.0
 11
40696.10709525896
 21
-3355.399019528864
 31
0.0
 11
40695.54617167356
 21
-3349.029080999063
 31
0.0
 11
40694.72256378826
 21
-3343.272839129364
 31
0.0
 11
40692.85130603776
 21
-3338.412410030463
 31
0.0
 11
40689.87860090386
 21
-3334.376879343464
 31
0.0
 11
40685.86332203376
 21
-3331.210632029864
 31
0.0
 11
40681.06018911416
 21
-3329.116423722564
 31
0.0
 11
40676.35452597967
 21
-3328.135516446864
 31
0.0
 11
40672.13845345286
 21
-3327.904822862663
 31
0.0
 11
40668.05708810256
 21
-3327.842726486264
 31
0.0
 11
40663.68343678155
 21
-3327.748216214964
 31
0.0
 11
40658.94768031616
 21
-3327.678143005664
 31
0.0
 11
40653.81498791325
 21
-3327.611494347163
 31
0.0
 11
40648.26875784476
 21
-3327.536983373064
 31
0.0
 11
40642.28217133716
 21
-3327.461808131463
 31
0.0
 11
40635.81787651566
 21
-3327.386845297564
 31
0.0
 11
40628.83934281786
 21
-3327.313460659564
 31
0.0
 11
40621.30883948566
 21
-3327.244297806464
 31
0.0
 11
40613.18555590426
 21
-3327.182474476164
 31
0.0
 11
40604.42289515216
 21
-3327.129702923463
 31
0.0
 11
40594.96999536445
 21
-3327.084605634464
 31
0.0
 11
40584.77326699266
 21
-3327.041261876364
 31
0.0
 11
40573.77657052525
 21
-3326.996141686364
 31
0.0
 11
40561.91816302186
 21
-3326.946098381363
 31
0.0
 11
40549.13019655305
 21
-3326.891773974964
 31
0.0
 11
40535.33536622945
 21
-3326.841874083364
 31
0.0
 11
40520.45260866386
 21
-3326.804775215864
 31
0.0
 11
40504.40014473255
 21
-3326.779349113864
 31
0.0
 11
40487.09124321596
 21
-3326.756198548063
 31
0.0
 11
40468.43375595356
 21
-3326.716664551764
 31
0.0
 11
40448.31838196976
 21
-3326.647723730964
 31
0.0
 11
40426.62000986206
 21
-3326.538888131864
 31
0.0
 11
40403.19862050016
 21
-3326.386721753163
 31
0.0
 11
40377.86338395246
 21
-3326.213246059263
 31
0.0
 11
40350.38278570196
 21
-3326.061701063064
 31
0.0
 11
40320.48828115636
 21
-3325.993294521663
 31
0.0
  0
SPLINE
  5
6F
330
2
100
AcDbEntity
  8
0
  6
Continuous
 62
     7
100
AcDbSpline
210
0.0
220
0.0
230
1.0
 70
     8
 71
     3
 72
    42
 73
    38
 74
    36
 42
0.0000000001
 43
0.0000000001
 44
0.0000000001
 12
-0.9999999999999518
 22
-0.000000310582282
 32
0.0
 13
-0.0665568089311045
 23
-0.9977826372436577
 33
0.0
 40
0.0
 40
0.0
 40
0.0
 40
0.0
 40
31.25735095950861
 40
59.86788335390856
 40
86.09764027461443
 40
110.1766793114896
 40
132.3068439089726
 40
152.6663609304665
 40
171.4135616551317
 40
188.689764018347
 40
204.6216830110635
 40
219.323343352586
 40
232.8975659242499
 40
245.4372944615227
 40
257.0267707326948
 40
267.7409969580251
 40
277.6457791182631
 40
286.8014067409167
 40
295.2639574984301
 40
303.0867691101436
 40
310.3176834172144
 40
316.9982085355844
 40
323.1686594381351
 40
328.8677237895329
 40
334.131664704742
 40
338.988986530095
 40
343.4573509637814
 40
347.569665973115
 40
351.3432622599209
 40
355.3318434297223
 40
359.8380282811973
 40
364.9626164818667
 40
370.2742702546669
 40
375.4646852102769
 40
380.8523464971636
 40
386.835320893911
 40
393.4670683536499
 40
393.4670683536499
 40
393.4670683536499
 40
393.4670683536499
 10
40320.48828115636
 20
-3325.993294272663
 30
0.0
 10
40310.06916416986
 20
-3325.993297508657
 30
0.0
 10
40290.11319506208
 20
-3326.04755855126
 30
0.0
 10
40261.41448025591
 20
-3326.218727969231
 30
0.0
 10
40235.10871851692
 20
-3326.407945688399
 30
0.0
 10
40210.96290510611
 20
-3326.565620305699
 30
0.0
 10
40188.77355861319
 20
-3326.668770414695
 30
0.0
 10
40168.36135493753
 20
-3326.731814406328
 30
0.0
 10
40149.56707353233
 20
-3326.764711830811
 30
0.0
 10
40132.24864297207
 20
-3326.783390006075
 30
0.0
 10
40116.27873769183
 20
-3326.811024828059
 30
0.0
 10
40101.54285719154
 20
-3326.852197614835
 30
0.0
 10
40087.93776296345
 20
-3326.907237682603
 30
0.0
 10
40075.370075745
 20
-3326.96254626128
 30
0.0
 10
40063.75569661489
 20
-3327.010264292516
 30
0.0
 10
40053.01962502417
 20
-3327.054218814375
 30
0.0
 10
40043.09483691672
 20
-3327.096607262602
 30
0.0
 10
40033.92062636642
 20
-3327.141884424733
 30
0.0
 10
40025.44047077412
 20
-3327.196865052649
 30
0.0
 10
40017.60196431545
 20
-3327.26019295151
 30
0.0
 10
40010.35754797177
 20
-3327.329993023971
 30
0.0
 10
40003.66397558163
 20
-3327.40249281224
 30
0.0
 10
39997.48106362993
 20
-3327.475823799414
 30
0.0
 10
39991.77036520016
 20
-3327.548065821285
 30
0.0
 10
39986.49744325242
 20
-3327.621739595798
 30
0.0
 10
39981.6345966931
 20
-3327.683009527299
 30
0.0
 10
39977.15571388174
 20
-3327.741015650407
 30
0.0
 10
39973.03849340987
 20
-3327.849416992683
 30
0.0
 10
39969.0821599654
 20
-3327.899107524234
 30
0.0
 10
39964.98709618535
 20
-3327.977613895617
 30
0.0
 10
39960.49893226675
 20
-3328.79615842704
 30
0.0
 10
39955.79955635923
 20
-3330.563329472229
 30
0.0
 10
39951.50130608959
 20
-3333.629122059101
 30
0.0
 10
39948.16867085953
 20
-3337.828976976136
 30
0.0
 10
39946.03343619848
 20
-3343.012035489581
 30
0.0
 10
39945.43076146902
 20
-3349.016416504062
 30
0.0
 10
39945.01661182825
 20
-3353.19341523246
 30
0.0
 10
39944.86948251206
 20
-3355.399096055764
 30
0.0
 11
40320.48828115636
 21
-3325.993294272663
 31
0.0
 11
40289.23101854395
 21
-3326.067611062363
 31
0.0
 11
40260.62094458476
 21
-3326.229573837463
 31
0.0
 11
40234.39180877305
 21
-3326.410080597263
 31
0.0
 11
40210.31324894526
 21
-3326.561993594363
 31
0.0
 11
40188.18332650206
 21
-3326.665520255764
 31
0.0
 11
40167.82390765486
 21
-3326.728746459663
 31
0.0
 11
40149.07673893056
 21
-3326.763385071963
 31
0.0
 11
40131.80055114266
 21
-3326.785826371163
 31
0.0
 11
40115.86865826346
 21
-3326.814672102864
 31
0.0
 11
40101.16705724375
 21
-3326.856436381064
 31
0.0
 11
40087.59293826556
 21
-3326.909468359963
 31
0.0
 11
40075.05332529786
 21
-3326.963305232964
 31
0.0
 11
40063.46394896156
 21
-3327.011433973964
 31
0.0
 11
40052.74981398006
 21
-3327.055651680963
 31
0.0
 11
40042.84512586276
 21
-3327.098813479164
 31
0.0
 11
40033.68961717036
 21
-3327.145479828064
 31
0.0
 11
40025.22724583625
 21
-3327.200586335763
 31
0.0
 11
40017.40469040216
 21
-3327.263895046364
 31
0.0
 11
40010.17410879695
 21
-3327.333259062264
 31
0.0
 11
40003.49397455766
 21
-3327.405525252063
 31
0.0
 11
39997.32395556396
 21
-3327.478531814263
 31
0.0
 11
39991.62535459326
 21
-3327.551205455664
 31
0.0
 11
39986.36189489566
 21
-3327.622381086963
 31
0.0
 11
39981.50497593206
 21
-3327.684939028964
 31
0.0
 11
39977.03712873656
 21
-3327.752925424063
 31
0.0
 11
39972.92579041307
 21
-3327.842546435663
 31
0.0
 11
39969.15266677526
 21
-3327.902270381063
 31
0.0
 11
39965.16782203196
 21
-3328.074874320364
 31
0.0
 11
39960.73444236347
 21
-3328.881624982364
 31
0.0
 11
39955.95763371676
 21
-3330.737292888863
 31
0.0
 11
39951.64344946096
 21
-3333.835918392064
 31
0.0
 11
39948.41583337396
 21
-3337.900755634364
 31
0.0
 11
39946.35386402266
 21
-3342.878222513864
 31
0.0
 11
39945.45431625606
 21
-3348.793186287864
 31
0.0
 11
39944.86948251206
 21
-3355.399096055764
 31
0.0
  0
SPLINE
  5
72
330
2
100
AcDbEntity
  8
0
  6
Continuous
 62
     7
100
AcDbSpline
210
0.0
220
0.0
230
1.0
 70
     8
 71
     3
 72
    13
 73
     9
 74
     7
 42
0.0000000001
 43
0.0000000001
 44
0.0000000001
 12
-0.9999999999999998
 22
0.0000000152272263
 32
0.0
 13
0.0
 23
1.0
 33
0.0
 40
0.0
 40
0.0
 40
0.0
 40
0.0
 40
3.002483743832104
 40
5.763271794620742
 40
8.134689711574672
 40
10.01887356090301
 40
11.32000328452135
 40
12.07048460076764
 40
12.07048460076764
 40
12.07048460076764
 40
12.07048460076764
 10
40320.48828115636
 20
-3334.271773376464
 30
0.0
 10
40319.48745324174
 20
-3334.271773361223
 30
0.0
 10
40317.56622146011
 20
-3334.219273561968
 30
0.0
 10
40314.86161979338
 20
-3333.982776864286
 30
0.0
 10
40312.55221831181
 20
-3333.63511116597
 30
0.0
 10
40310.74108058265
 20
-3333.156395117645
 30
0.0
 10
40309.54744279561
 20
-3332.704554055822
 30
0.0
 10
40308.98828195176
 20
-3332.132546489912
 30
0.0
 10
40308.98828195176
 20
-3331.882386051164
 30
0.0
 11
40320.48828115636
 21
-3334.271773376464
 31
0.0
 11
40317.48702725016
 21
-3334.185845368864
 31
0.0
 11
40314.73711392646
 21
-3333.941044687664
 31
0.0
 11
40312.39608752597
 21
-3333.562602711864
 31
0.0
 11
40310.57629594656
 21
-3333.074230532464
 31
0.0
 11
40309.40580138776
 21
-3332.506004305063
 31
0.0
 11
40308.98828195176
 21
-3331.882386051164
 31
0.0
  0
SPLINE
  5
79
330
2
100
AcDbEntity
  8
0
  6
Continuous
 62
     7
100
AcDbSpline
210
0.0
220
0.0
230
1.0
 70
     8
 71
     3
 72
    10
 73
     6
 74
     4
 42
0.0000000001
 43
0.0000000001
 44
0.0000000001
 12
-0.0021872008451056
 22
-0.9999976080733709
 32
0.0
 13
-0.0008510261684177
 23
-0.9999996378771648
 33
0.0
 40
0.0
 40
0.0
 40
0.0
 40
0.0
 40
37.01329983068237
 40
74.91833439045968
 40
113.7396070674613
 40
113.7396070674613
 40
113.7396070674613
 40
113.7396070674613
 10
40704.40552219086
 20
-3220.794947913063
 30
0.0
 10
40704.3785370173
 20
-3233.132685012258
 30
0.0
 10
40704.32391654397
 20
-3258.10540396883
 30
0.0
 10
40704.26262563358
 20
-3296.018559349241
 30
0.0
 10
40704.23641034361
 20
-3321.593982802919
 30
0.0
 10
40704.22539770397
 20
-3334.534402342563
 30
0.0
 11
40704.40552219086
 21
-3220.794947913063
 31
0.0
 11
40704.32804468016
 21
-3257.808166654364
 31
0.0
 11
40704.26681212856
 21
-3295.713151755964
 31
0.0
 11
40704.22539770397
 21
-3334.534402342563
 31
0.0
  0
SPLINE
  5
7A
330
2
100
AcDbEntity
  8
0
  6
Continuous
 62
     7
100
AcDbSpline
210
0.0
220
0.0
230
1.0
 70
     8
 71
     3
 72
     9
 73
     5
 74
     3
 42
0.0000000001
 43
0.0000000001
 44
0.0000000001
 12
0.0308035875832818
 22
0.9995254569004227
 32
0.0
 13
-0.0011358518660069
 23
0.9999993549200612
 33
0.0
 40
0.0
 40
0.0
 40
0.0
 40
0.0
 40
0.572824045322263
 40
1.1424330397492
 40
1.1424330397492
 40
1.1424330397492
 40
1.1424330397492
 10
40699.01171846516
 20
-3334.129694981964
 30
0.0
 10
40699.01760014371
 20
-3333.938844243422
 30
0.0
 10
40699.02518074006
 20
-3333.558095410589
 30
0.0
 10
40699.02926234307
 20
-3333.177289756092
 30
0.0
 10
40699.02904667926
 20
-3332.987420213764
 30
0.0
 11
40699.01171846516
 21
-3334.129694981964
 31
0.0
 11
40699.02432239476
 21
-3333.557009616463
 31
0.0
 11
40699.02904667926
 21
-3332.987420213764
 31
0.0
  0
SPLINE
  5
7B
330
2
100
AcDbEntity
  8
0
  6
Continuous
 62
     7
100
AcDbSpline
210
0.0
220
0.0
230
1.0
 70
     8
 71
     3
 72
    16
 73
    12
 74
    10
 42
0.0000000001
 43
0.0000000001
 44
0.0000000001
 12
-0.000875992188243
 22
0.9999996163187695
 32
0.0
 13
-0.0024424154693273
 23
0.9999970172988895
 33
0.0
 40
0.0
 40
0.0
 40
0.0
 40
0.0
 40
14.82855382538932
 40
28.54555876890988
 40
41.34087269761998
 40
53.39283064866906
 40
64.94158900562945
 40
77.14609906860328
 40
89.76175700267033
 40
102.2061757073024
 40
114.0046605898668
 40
114.0046605898668
 40
114.0046605898668
 40
114.0046605898668
 10
40699.02904667926
 20
-3332.987420213764
 30
0.0
 10
40699.02471678015
 20
-3328.044570835113
 30
0.0
 10
40699.0157301286
 20
-3318.529388783769
 30
0.0
 10
40699.00076002838
 20
-3304.749105975186
 30
0.0
 10
40698.98508063929
 20
-3291.894356557468
 30
0.0
 10
40698.9686028721
 20
-3279.762357627987
 30
0.0
 10
40698.95064488254
 20
-3267.827295636181
 30
0.0
 10
40698.93039170947
 20
-3255.704337036376
 30
0.0
 10
40698.90718530156
 20
-3243.282829717543
 30
0.0
 10
40698.88145513957
 20
-3230.996669373604
 30
0.0
 10
40698.86260128932
 20
-3222.915723423201
 30
0.0
 10
40698.85299568866
 20
-3218.982906859463
 30
0.0
 11
40699.02904667926
 21
-3332.987420213764
 31
0.0
 11
40699.01501587326
 21
-3318.158873026364
 31
0.0
 11
40699.00011071126
 21
-3304.441876180964
 31
0.0
 11
40698.98447427456
 21
-3291.646571806464
 31
0.0
 11
40698.96807464856
 21
-3279.594625013264
 31
0.0
 11
40698.95066307036
 21
-3268.045879781663
 31
0.0
 11
40698.93022539866
 21
-3255.841386831164
 31
0.0
 11
40698.90660023866
 21
-3243.225751018364
 31
0.0
 11
40698.88049556616
 21
-3230.781359693664
 31
0.0
 11
40698.85299568866
 21
-3218.982906859463
 31
0.0
  0
SPLINE
  5
7C
330
2
100
AcDbEntity
  8
0
  6
Continuous
 62
     7
100
AcDbSpline
210
0.0
220
0.0
230
1.0
 70
     8
 71
     3
 72
    14
 73
    10
 74
     8
 42
0.0000000001
 43
0.0000000001
 44
0.0000000001
 12
0.9999999706145924
 22
0.0002424269257308
 32
0.0
 13
0.0399958562772671
 23
-0.9991998456168056
 33
0.0
 40
0.0
 40
0.0
 40
0.0
 40
0.0
 40
3.982704016271607
 40
7.993192655749062
 40
11.95160489293179
 40
15.66711301679978
 40
19.74247782562435
 40
23.93301412976338
 40
28.1720034992962
 40
28.1720034992962
 40
28.1720034992962
 40
28.1720034992962
 10
40685.98726234746
 20
-3203.082603692364
 30
0.0
 10
40687.31483031387
 20
-3203.082281854133
 30
0.0
 10
40689.9873921248
 20
-3203.377990702286
 30
0.0
 10
40693.7919336651
 20
-3204.658345418834
 30
0.0
 10
40697.15052176809
 20
-3206.690393351461
 30
0.0
 10
40700.0386261255
 20
-3209.373652242445
 30
0.0
 10
40702.33519915067
 20
-3212.682471636385
 30
0.0
 10
40703.91400046333
 20
-3216.576985695323
 30
0.0
 10
40704.34900818766
 20
-3219.383082071861
 30
0.0
 10
40704.40552219086
 20
-3220.794947913063
 30
0.0
 11
40685.98726234746
 21
-3203.082603692364
 31
0.0
 11
40689.94630010715
 21
-3203.516137195765
 31
0.0
 11
40693.74617020207
 21
-3204.798715220363
 31
0.0
 11
40697.13533859306
 21
-3206.843847259364
 31
0.0
 11
40699.85424859936
 21
-3209.376144437064
 31
0.0
 11
40702.18166881596
 21
-3212.721546275464
 31
0.0
 11
40703.75237143846
 21
-3216.606580096164
 31
0.0
 11
40704.40552219086
 21
-3220.794947913063
 31
0.0
  0
SPLINE
  5
7D
330
2
100
AcDbEntity
  8
0
  6
Continuous
 62
     7
100
AcDbSpline
210
0.0
220
0.0
230
1.0
 70
     8
 71
     3
 72
    15
 73
    11
 74
     9
 42
0.0000000001
 43
0.0000000001
 44
0.0000000001
 12
0.0520048697046437
 22
0.9986468312306422
 32
0.0
 13
-0.9999999979780417
 23
0.0000635917956799
 33
0.0
 40
0.0
 40
0.0
 40
0.0
 40
0.0
 40
2.421475132076934
 40
5.127632749182826
 40
8.153836647764796
 40
11.24127368024553
 40
14.03742869934867
 40
16.54259859634066
 40
18.79882730145644
 40
20.84691249592238
 40
20.84691249592238
 40
20.84691249592238
 40
20.84691249592238
 10
40698.85299568866
 20
-3218.982906859463
 30
0.0
 10
40698.89497185491
 20
-3218.176840703613
 30
0.0
 10
40698.82908199647
 20
-3216.456828994167
 30
0.0
 10
40698.16442711497
 20
-3213.801030033933
 30
0.0
 10
40696.83750631666
 20
-3211.147015598667
 30
0.0
 10
40694.89282245188
 20
-3208.863078225665
 30
0.0
 10
40692.62625159058
 20
-3207.187718699514
 30
0.0
 10
40690.32012361739
 20
-3206.135053770059
 30
0.0
 10
40688.10855176574
 20
-3205.576746035518
 30
0.0
 10
40686.6709762136
 20
-3205.465585307169
 30
0.0
 10
40685.98828115016
 20
-3205.465541893364
 30
0.0
 11
40698.85299568866
 21
-3218.982906859463
 31
0.0
 11
40698.75422113836
 21
-3216.563447125664
 31
0.0
 11
40698.10245044356
 21
-3213.936950597964
 31
0.0
 11
40696.74513454656
 21
-3211.232213347964
 31
0.0
 11
40694.74511571855
 21
-3208.880152099363
 31
0.0
 11
40692.49608393056
 21
-3207.218725330764
 31
0.0
 11
40690.21827937876
 21
-3206.175900975164
 31
0.0
 11
40688.03006291066
 21
-3205.626104050363
 31
0.0
 11
40685.98828115016
 21
-3205.465541893364
 31
0.0
  0
SPLINE
  5
7E
330
2
100
AcDbEntity
  8
0
  6
Continuous
 62
     7
100
AcDbSpline
210
0.0
220
0.0
230
1.0
 70
     8
 71
     3
 72
    14
 73
    10
 74
     8
 42
0.0000000001
 43
0.0000000001
 44
0.0000000001
 12
0.0398920952587474
 22
0.9992039935548032
 32
0.0
 13
0.9999999792441165
 23
-0.0002037443659506
 33
0.0
 40
0.0
 40
0.0
 40
0.0
 40
0.0
 40
4.231092153331678
 40
8.430422024635094
 40
12.47056105963494
 40
16.17001714839398
 40
20.15497892088753
 40
24.17088561379991
 40
28.17173507217307
 40
28.17173507217307
 40
28.17173507217307
 40
28.17173507217307
 10
39936.57104012186
 20
-3220.794947913063
 30
0.0
 10
39936.62730249893
 20
-3219.385706520828
 30
0.0
 10
39937.0624756192
 20
-3216.579562504737
 30
0.0
 10
39938.63490990899
 20
-3212.694539888477
 30
0.0
 10
39940.92162086509
 20
-3209.397135082346
 30
0.0
 10
39943.79572660021
 20
-3206.711415722842
 30
0.0
 10
39947.15621873361
 20
-3204.671065853776
 30
0.0
 10
39950.97477235688
 20
-3203.379921747571
 30
0.0
 10
39953.65542856741
 20
-3203.082330304518
 30
0.0
 10
39954.98904502586
 20
-3203.082602021364
 30
0.0
 11
39936.57104012186
 21
-3220.794947913063
 31
0.0
 11
39937.22225839076
 21
-3216.614271463463
 31
0.0
 11
39938.79504438116
 21
-3212.720595103463
 31
0.0
 11
39941.09991820177
 21
-3209.402420892664
 31
0.0
 11
39943.80068012656
 21
-3206.874208010364
 31
0.0
 11
39947.20876699017
 21
-3204.809053232064
 31
0.0
 11
39951.01218199446
 21
-3203.520045524064
 31
0.0
 11
39954.98904502586
 21
-3203.082602021364
 31
0.0
  0
SPLINE
  5
7F
330
2
100
AcDbEntity
  8
0
  6
Continuous
 62
     7
100
AcDbSpline
210
0.0
220
0.0
230
1.0
 70
     8
 71
     3
 72
    15
 73
    11
 74
     9
 42
0.0000000001
 43
0.0000000001
 44
0.0000000001
 12
-0.9999999977839397
 22
-0.0000665741723145
 32
0.0
 13
0.0520139644746843
 23
-0.9986463575759071
 33
0.0
 40
0.0
 40
0.0
 40
0.0
 40
0.0
 40
2.053873337541701
 40
4.315702751551156
 40
6.825969807032477
 40
9.62783219165586
 40
12.7159451106105
 40
15.731842876597
 40
18.43096814110424
 40
20.84694637204145
 40
20.84694637204145
 40
20.84694637204145
 40
20.84694637204145
 10
39954.98828116106
 20
-3205.465541893364
 30
0.0
 10
39954.30365671673
 20
-3205.46558747167
 30
0.0
 10
39952.86226066538
 20
-3205.577363853283
 30
0.0
 10
39950.64566215484
 20
-3206.138535012691
 30
0.0
 10
39948.33558463439
 20
-3207.1959579766
 30
0.0
 10
39946.06841887802
 20
-3208.877164273097
 30
0.0
 10
39944.12859095682
 20
-3211.163517166703
 30
0.0
 10
39942.80794026677
 20
-3213.814168644837
 30
0.0
 10
39942.14704552235
 20
-3216.46290171922
 30
0.0
 10
39942.0816784221
 20
-3218.178670906028
 30
0.0
 10
39942.12356662406
 20
-3218.982906859463
 30
0.0
 11
39954.98828116106
 21
-3205.465541893364
 31
0.0
 11
39952.94076542337
 21
-3205.627019416764
 31
0.0
 11
39950.74748605206
 21
-3206.179647589664
 31
0.0
 11
39948.46617044376
 21
-3207.227044260064
 31
0.0
 11
39946.21508842906
 21
-3208.895295615664
 31
0.0
 11
39944.21877759956
 21
-3211.251390790363
 31
0.0
 11
39942.86981918386
 21
-3213.948787781464
 31
0.0
 11
39942.22159574487
 21
-3216.568918229864
 31
0.0
 11
39942.12356662406
 21
-3218.982906859463
 31
0.0
  0
SPLINE
  5
80
330
2
100
AcDbEntity
  8
0
  6
Continuous
 62
     7
100
AcDbSpline
210
0.0
220
0.0
230
1.0
 70
     8
 71
     3
 72
    10
 73
     6
 74
     4
 42
0.0000000001
 43
0.0000000001
 44
0.0000000001
 12
-0.0008508553510738
 22
0.9999996380225203
 32
0.0
 13
-0.0021873913704739
 23
0.9999976076566344
 33
0.0
 40
0.0
 40
0.0
 40
0.0
 40
0.0
 40
38.86533176819236
 40
76.76879158279501
 40
113.7397493919883
 40
113.7397493919883
 40
113.7397493919883
 40
113.7397493919883
 10
39936.75116806277
 20
-3334.534544664363
 30
0.0
 10
39936.7401451376
 20
-3321.579438764425
 30
0.0
 10
39936.71390243968
 20
-3295.989853876863
 30
0.0
 10
39936.65258341813
 20
-3258.076651104587
 30
0.0
 10
39936.59799677322
 20
-3233.11857103372
 30
0.0
 10
39936.57104012186
 20
-3220.794947913063
 30
0.0
 11
39936.75116806277
 21
-3334.534544664363
 31
0.0
 11
39936.70969199726
 21
-3295.669235027264
 31
0.0
 11
39936.64843644086
 21
-3257.765824710064
 31
0.0
 11
39936.57104012186
 21
-3220.794947913063
 31
0.0
  0
SPLINE
  5
81
330
2
100
AcDbEntity
  8
0
  6
Continuous
 62
     7
100
AcDbSpline
210
0.0
220
0.0
230
1.0
 70
     8
 71
     3
 72
    16
 73
    12
 74
    10
 42
0.0000000001
 43
0.0000000001
 44
0.0000000001
 12
-0.0024423806628393
 22
-0.999997017383901
 32
0.0
 13
-0.0008759773068994
 23
-0.9999996163318055
 33
0.0
 40
0.0
 40
0.0
 40
0.0
 40
0.0
 40
11.80459160123247
 40
24.25474742599036
 40
36.87316360220253
 40
49.07644340507289
 40
60.62549868916203
 40
72.68047695508361
 40
85.47556228736601
 40
99.18761399759915
 40
114.0045965956965
 40
114.0045965956965
 40
114.0045965956965
 40
114.0045965956965
 10
39942.12356662406
 20
-3218.982906859463
 30
0.0
 10
39942.11395618864
 20
-3222.917758990353
 30
0.0
 10
39942.09509339659
 20
-3231.00265287701
 30
0.0
 10
39942.06935526444
 20
-3243.29368057541
 30
0.0
 10
39942.04614710824
 20
-3255.717609595951
 30
0.0
 10
39942.02589547028
 20
-3267.841176502179
 30
0.0
 10
39942.00793847848
 20
-3279.776934156942
 30
0.0
 10
39941.9914617926
 20
-3291.909962637253
 30
0.0
 10
39941.97578425433
 20
-3304.76399155208
 30
0.0
 10
39941.96082740301
 20
-3318.538690018633
 30
0.0
 10
39941.9518322242
 20
-3328.048363905832
 30
0.0
 10
39941.94750577736
 20
-3332.987356210264
 30
0.0
 11
39942.12356662406
 21
-3218.982906859463
 31
0.0
 11
39942.09605320796
 21
-3230.787466397364
 31
0.0
 11
39942.06993859686
 21
-3243.237594833964
 31
0.0
 11
39942.04631109706
 21
-3255.855988889364
 31
0.0
 11
39942.02587804066
 21
-3268.059251585763
 31
0.0
 11
39942.00846807676
 21
-3279.608293747263
 31
0.0
 11
39941.99206648996
 21
-3291.663260855464
 31
0.0
 11
39941.97643258906
 21
-3304.458336636463
 31
0.0
 11
39941.96153470806
 21
-3318.170380253564
 31
0.0
 11
39941.94750577736
 21
-3332.987356210264
 31
0.0
  0
SPLINE
  5
82
330
2
100
AcDbEntity
  8
0
  6
Continuous
 62
     7
100
AcDbSpline
210
0.0
220
0.0
230
1.0
 70
     8
 71
     3
 72
     9
 73
     5
 74
     3
 42
0.0000000001
 43
0.0000000001
 44
0.0000000001
 12
-0.0008479234865211
 22
-0.9999996405128158
 32
0.0
 13
0.0311146428151696
 23
-0.9995158222872134
 33
0.0
 40
0.0
 40
0.0
 40
0.0
 40
0.0
 40
0.5686203387646415
 40
1.142735300321328
 40
1.142735300321328
 40
1.142735300321328
 40
1.142735300321328
 10
39941.94750577736
 20
-3332.987356210264
 30
0.0
 10
39941.94734506185
 20
-3333.176896255048
 30
0.0
 10
39941.95056240798
 20
-3333.55781119973
 30
0.0
 10
39941.95893305861
 20
-3333.938647456901
 30
0.0
 10
39941.96488751926
 20
-3334.129926452864
 30
0.0
 11
39941.94750577736
 21
-3332.987356210264
 31
0.0
 11
39941.95182290456
 21
-3333.555960160364
 31
0.0
 11
39941.96488751926
 21
-3334.129926452864
 31
0.0
  0
CIRCLE
  5
83
330
2
100
AcDbEntity
  8
0
  6
Continuous
 62
     7
100
AcDbCircle
 10
40320.48828115636
 20
-3405.531763997963
 30
0.0
 40
34.0
  0
CIRCLE
  5
84
330
2
100
AcDbEntity
  8
0
  6
Continuous
 62
     7
100
AcDbCircle
 10
40320.48828115759
 20
-3251.305054116064
 30
0.0
 40
17.49999999876672
  0
LINE
  5
14F
330
2
100
AcDbEntity
  8
0
  6
Continuous
 62
     7
100
AcDbLine
 10
40923.81662436899
 20
-2869.174481663258
 30
0.0
 11
40923.84412360299
 21
-2869.459404694459
 31
0.0
  0
LINE
  5
150
330
2
100
AcDbEntity
  8
0
  6
Continuous
 62
     7
100
AcDbLine
 10
40920.39288906559
 20
-2830.170689453858
 30
0.0
 11
40920.46315487289
 21
-2830.942220996858
 31
0.0
  0
LINE
  5
151
330
2
100
AcDbEntity
  8
0
  6
Continuous
 62
     7
100
AcDbLine
 10
40922.2444717009
 20
-2839.250570868259
 30
0.0
 11
40922.2913200513
 21
-2839.867438389259
 31
0.0
  0
LINE
  5
152
330
2
100
AcDbEntity
  8
0
  6
Continuous
 62
     7
100
AcDbLine
 10
40922.05419012279
 20
-2836.583112207458
 30
0.0
 11
40922.2444717009
 21
-2839.250570868259
 31
0.0
  0
LINE
  5
153
330
2
100
AcDbEntity
  8
0
  6
Continuous
 62
     7
100
AcDbLine
 10
40921.99025207309
 20
-2835.624286659158
 30
0.0
 11
40922.05419012279
 21
-2836.583112207458
 31
0.0
  0
LINE
  5
154
330
2
100
AcDbEntity
  8
0
  6
Continuous
 62
     7
100
AcDbLine
 10
40924.2679705953
 20
-2893.742916140858
 30
0.0
 11
40923.84395984589
 21
-2869.451356576959
 31
0.0
  0
LINE
  5
155
330
2
100
AcDbEntity
  8
0
  6
Continuous
 62
     7
100
AcDbLine
 10
40920.3928787372
 20
-2894.627039494259
 30
0.0
 11
40920.3928787372
 21
-2768.637483757359
 31
0.0
  0
LINE
  5
156
330
2
100
AcDbEntity
  8
0
  6
Continuous
 62
     7
100
AcDbLine
 10
40923.3928787372
 20
-2897.637483757359
 30
0.0
 11
40923.3928787372
 21
-2897.626375230858
 31
0.0
  0
LINE
  5
157
330
2
100
AcDbEntity
  8
0
  6
Continuous
 62
     7
100
AcDbLine
 10
40923.3928787372
 20
-2865.700354769758
 30
0.0
 11
40923.3928787372
 21
-2841.927596493859
 31
0.0
  0
LWPOLYLINE
  5
158
330
2
100
AcDbEntity
  8
0
  6
Continuous
 62
     7
100
AcDbPolyline
 90
        3
 70
     0
 43
0.0
 10
40920.3928789216
 20
-2863.335023191858
 10
40920.5824237841
 20
-2864.641090968758
 10
40921.33324576649
 20
-2866.143263624059
  0
LINE
  5
159
330
2
100
AcDbEntity
  8
0
  6
Continuous
 62
     7
100
AcDbLine
 10
40923.465261195
 20
-2868.320757412059
 30
0.0
 11
40923.81662436899
 21
-2869.174481663258
 31
0.0
  0
LWPOLYLINE
  5
15A
330
2
100
AcDbEntity
  8
0
  6
Continuous
 62
     7
100
AcDbPolyline
 90
        4
 70
     0
 43
0.0
 10
40920.46315487289
 20
-2830.942220996858
 10
40920.6603839741
 20
-2831.728560999558
 10
40920.91385644409
 20
-2832.436878080058
 10
40921.48439146259
 20
-2833.825435179658
  0
LWPOLYLINE
  5
15B
330
2
100
AcDbEntity
  8
0
  6
Continuous
 62
     7
100
AcDbPolyline
 90
        4
 70
     0
 43
0.0
 10
40921.48439146259
 20
-2833.825435179658
 10
40921.75122030019
 20
-2834.542782124758
 10
40921.95165347949
 20
-2835.305947847758
 10
40921.9903690958
 20
-2835.625012872858
  0
LINE
  5
15C
330
2
100
AcDbEntity
  8
0
  6
Continuous
 62
     7
100
AcDbLine
 10
40921.33324576649
 20
-2866.143263624059
 30
0.0
 11
40922.43940142769
 21
-2867.251598818859
 31
0.0
  0
LINE
  5
15D
330
2
100
AcDbEntity
  8
0
  6
Continuous
 62
     7
100
AcDbLine
 10
40922.43940142769
 20
-2867.251598818859
 30
0.0
 11
40922.43995528259
 21
-2867.252013357358
 31
0.0
  0
LWPOLYLINE
  5
15E
330
2
100
AcDbEntity
  8
0
  6
Continuous
 62
     7
100
AcDbPolyline
 90
        3
 70
     0
 43
0.0
 10
40922.4398970327
 20
-2867.252091298258
 10
40922.6393961556
 20
-2867.409246652458
 10
40923.465261195
 20
-2868.320757412059
  0
LINE
  5
15F
330
2
100
AcDbEntity
  8
0
  6
Continuous
 62
     7
100
AcDbLine
 10
41178.98964013409
 20
-2934.055598627859
 30
0.0
 11
41110.23669753929
 21
-2934.055598627359
 31
0.0
  0
LINE
  5
160
330
2
100
AcDbEntity
  8
0
  6
Continuous
 62
     7
100
AcDbLine
 10
41114.26760622639
 20
-2922.264654536958
 30
0.0
 11
41125.52469778049
 21
-2922.264654527859
 31
0.0
  0
LINE
  5
161
330
2
100
AcDbEntity
  8
0
  6
Continuous
 62
     7
100
AcDbLine
 10
41110.23669753929
 20
-2934.055598627459
 30
0.0
 11
41110.0582854979
 21
-2932.358121442259
 31
0.0
  0
LINE
  5
162
330
2
100
AcDbEntity
  8
0
  6
Continuous
 62
     7
100
AcDbLine
 10
41249.90883915809
 20
-2891.076838975559
 30
0.0
 11
41249.76806884439
 21
-2891.115838775559
 31
0.0
  0
LINE
  5
163
330
2
100
AcDbEntity
  8
0
  6
Continuous
 62
     7
100
AcDbLine
 10
40923.3928787372
 20
-2897.637483757359
 30
0.0
 11
40933.9331988178
 21
-2897.637483757359
 31
0.0
  0
LINE
  5
164
330
2
100
AcDbEntity
  8
0
  6
Continuous
 62
     7
100
AcDbLine
 10
41122.7582441421
 20
-2879.703382389358
 30
0.0
 11
40935.9152685911
 21
-2897.365243639259
 31
0.0
  0
LINE
  5
165
330
2
100
AcDbEntity
  8
0
  6
Continuous
 62
     7
100
AcDbLine
 10
41088.11569224509
 20
-2874.669957531759
 30
0.0
 11
40942.23115523019
 21
-2888.460104984358
 31
0.0
  0
LINE
  5
166
330
2
100
AcDbEntity
  8
0
  6
Continuous
 62
     7
100
AcDbLine
 10
41399.3755343989
 20
-2842.637483757359
 30
0.0
 11
40925.28249665949
 21
-2842.637483757359
 31
0.0
  0
LINE
  5
167
330
2
100
AcDbEntity
  8
0
  6
Continuous
 62
     7
100
AcDbLine
 10
41178.98964013399
 20
-2934.055598627958
 30
0.0
 11
41181.80927372339
 21
-2907.228577031258
 31
0.0
  0
LWPOLYLINE
  5
168
330
2
100
AcDbEntity
  8
0
  6
Continuous
 62
     7
100
AcDbPolyline
 90
       11
 70
     0
 43
0.0
 10
41249.76806884439
 20
-2891.115838775559
 10
41260.74162151399
 20
-2887.893961102758
 10
41271.60362287289
 20
-2884.343317293359
 10
41282.27523582749
 20
-2880.501116130659
 10
41292.56426733029
 20
-2876.454880582459
 10
41302.40974888419
 20
-2872.253256162659
 10
41311.85047844529
 20
-2867.882523734959
 10
41320.8136935944
 20
-2863.352259225459
 10
41329.13700072999
 20
-2858.735218783658
 10
41336.76799150499
 20
-2854.077361584759
 10
41343.4710700191
 20
-2849.575794249759
  0
LINE
  5
169
330
2
100
AcDbEntity
  8
0
  6
Continuous
 62
     7
100
AcDbLine
 10
40926.39287873719
 20
-2762.637483757359
 30
0.0
 11
41398.2337064529
 21
-2762.637483757359
 31
0.0
  0
LINE
  5
16A
330
2
100
AcDbEntity
  8
0
  6
Continuous
 62
     7
100
AcDbLine
 10
41349.01290086509
 20
-2845.502992831858
 30
0.0
 11
41348.10066812169
 21
-2846.197799724359
 31
0.0
  0
LINE
  5
16B
330
2
100
AcDbEntity
  8
0
  6
Continuous
 62
     7
100
AcDbLine
 10
41343.4710700191
 20
-2849.575794249759
 30
0.0
 11
41349.01290086509
 21
-2845.502992831958
 31
0.0
  0
LINE
  5
16C
330
2
100
AcDbEntity
  8
0
  6
Continuous
 62
     7
100
AcDbLine
 10
41346.6602069587
 20
-2847.232034252358
 30
0.0
 11
41348.08024711339
 21
-2846.213238166559
 31
0.0
  0
LINE
  5
16D
330
2
100
AcDbEntity
  8
0
  6
Continuous
 62
     7
100
AcDbLine
 10
41402.37450637389
 20
-2839.716014602259
 30
0.0
 11
41404.23165040269
 21
-2768.794545447259
 31
0.0
  0
ARC
  5
16E
330
2
100
AcDbEntity
  8
0
  6
Continuous
 62
     7
100
AcDbCircle
 10
40936.479918471
 20
-2903.338615426859
 30
0.0
 40
6.0
100
AcDbArc
 50
95.40000000020448
 51
103.3865764591157
  0
ARC
  5
16F
330
2
100
AcDbEntity
  8
0
  6
Continuous
 62
     7
100
AcDbCircle
 10
40933.9331988178
 20
-2892.637483757359
 30
0.0
 40
5.0
100
AcDbArc
 50
270.0
 51
283.3865736231628
  0
ARC
  5
170
330
2
100
AcDbEntity
  8
0
  6
Continuous
 62
     7
100
AcDbCircle
 10
40930.8908631103
 20
-2892.637175916759
 30
0.0
 40
4.9999337595
100
AcDbArc
 50
269.9999473578511
 51
311.8504399442211
  0
ARC
  5
171
330
2
100
AcDbEntity
  8
0
  6
Continuous
 62
     7
100
AcDbCircle
 10
40923.3928787372
 20
-2894.637346834458
 30
0.0
 40
2.999988903699999
100
AcDbArc
 50
180.0026150358032
 51
270.0
  0
ARC
  5
172
330
2
100
AcDbEntity
  8
0
  6
Continuous
 62
     7
100
AcDbCircle
 10
41104.08871158959
 20
-2932.960110509858
 30
0.0
 40
5.9999751711
100
AcDbArc
 50
6.000000001324723
 51
82.37919786209747
  0
ARC
  5
173
330
2
100
AcDbEntity
  8
0
  6
Continuous
 62
     7
100
AcDbCircle
 10
41114.2147850139
 20
-2933.637483757359
 30
0.0
 40
4.0
100
AcDbArc
 50
186.0000146478599
 51
270.0
  0
ARC
  5
174
330
2
100
AcDbEntity
  8
0
  6
Continuous
 62
     7
100
AcDbCircle
 10
41114.26760622639
 20
-2856.877483757358
 30
0.0
 40
70.76
100
AcDbArc
 50
208.988583754022
 51
269.2999663707158
  0
ARC
  5
175
330
2
100
AcDbEntity
  8
0
  6
Continuous
 62
     7
100
AcDbCircle
 10
40926.3929420271
 20
-2768.637483757359
 30
0.0
 40
6.0
100
AcDbArc
 50
90.00060437419126
 51
180.0
  0
ARC
  5
176
330
2
100
AcDbEntity
  8
0
  6
Continuous
 62
     7
100
AcDbCircle
 10
41187.7763993713
 20
-2907.855748435258
 30
0.0
 40
5.999999223699999
100
AcDbArc
 50
92.9699648884535
 51
173.9999883566536
  0
ARC
  5
177
330
2
100
AcDbEntity
  8
0
  6
Continuous
 62
     7
100
AcDbCircle
 10
41175.0115526595
 20
-2933.637483757359
 30
0.0
 40
4.0
100
AcDbArc
 50
270.0
 51
353.9999853446112
  0
ARC
  5
178
330
2
100
AcDbEntity
  8
0
  6
Continuous
 62
     7
100
AcDbCircle
 10
41398.233643301
 20
-2768.637483757359
 30
0.0
 40
6.0
100
AcDbArc
 50
358.5000000000156
 51
89.99939694398857
  0
ARC
  5
179
330
2
100
AcDbEntity
  8
0
  6
Continuous
 62
     7
100
AcDbCircle
 10
41399.37555626369
 20
-2839.637483757359
 30
0.0
 40
3.0
100
AcDbArc
 50
269.9995824138067
 51
358.4999890685898
  0
SPLINE
  5
17A
330
2
100
AcDbEntity
  8
0
  6
Continuous
 62
     7
100
AcDbSpline
210
0.0
220
0.0
230
1.0
 70
     8
 71
     3
 72
     8
 73
     4
 74
     2
 42
0.0000000001
 43
0.0000000001
 44
0.0000000001
 12
-0.7759021611039802
 22
-0.6308532605877324
 32
0.0
 13
-0.7933885640210632
 23
-0.6087155218002869
 33
0.0
 40
0.0
 40
0.0
 40
0.0
 40
0.0
 40
4.450728103161071
 40
4.450728103161071
 40
4.450728103161071
 40
4.450728103161071
 10
41352.5058414276
 20
-2842.744669631958
 30
0.0
 10
41351.35473157635
 20
-2843.680588410581
 30
0.0
 10
41350.18995312464
 20
-2844.599917071956
 30
0.0
 10
41349.01290086509
 20
-2845.502992831858
 30
0.0
 11
41352.5058414276
 21
-2842.744669631958
 31
0.0
 11
41349.01290086509
 21
-2845.502992831858
 31
0.0
  0
SPLINE
  5
17B
330
2
100
AcDbEntity
  8
0
  6
Continuous
 62
     7
100
AcDbSpline
210
0.0
220
0.0
230
1.0
 70
     8
 71
     3
 72
    20
 73
    16
 74
    14
 42
0.0000000001
 43
0.0000000001
 44
0.0000000001
 12
-0.9993687266318749
 22
-0.0355267255764583
 32
0.0
 13
-0.999999773110987
 23
-0.0006736304438123
 33
0.0
 40
0.0
 40
0.0
 40
0.0
 40
0.0
 40
0.3871617846978713
 40
1.383944379021249
 40
2.791548122961756
 40
4.463941364248834
 40
6.293104530100823
 40
8.200857854716204
 40
10.13059065420398
 40
12.04176741810782
 40
13.90490520306688
 40
15.70007639049286
 40
17.39270415199445
 40
19.07460643430049
 40
20.92513160855048
 40
20.92513160855048
 40
20.92513160855048
 40
20.92513160855048
 10
41187.465524619
 20
-2901.863807112759
 30
0.0
 10
41187.33655215907
 20
-2901.868391976251
 30
0.0
 10
41186.87551554271
 20
-2901.88441520205
 30
0.0
 10
41185.94547500834
 20
-2901.914227448106
 30
0.0
 10
41184.58707590727
 20
-2901.952245971304
 30
0.0
 10
41182.9511346561
 20
-2901.990668839386
 30
0.0
 10
41181.1483512527
 20
-2902.024944412391
 30
0.0
 10
41179.25966795906
 20
-2902.052763241305
 30
0.0
 10
41177.34355900057
 20
-2902.073860004121
 30
0.0
 10
41175.44226506055
 20
-2902.088588412438
 30
0.0
 10
41173.58580439356
 20
-2902.100007262334
 30
0.0
 10
41171.80217530029
 20
-2902.107923177951
 30
0.0
 10
41170.07894734225
 20
-2902.112573865908
 30
0.0
 10
41168.33726510147
 20
-2902.115766882431
 30
0.0
 10
41167.15978981939
 20
-2902.117049385394
 30
0.0
 10
41166.54294823459
 20
-2902.117464908759
 30
0.0
 11
41187.465524619
 21
-2901.863807112759
 31
0.0
 11
41187.07859662249
 21
-2901.877259735358
 31
0.0
 11
41186.08232848499
 21
-2901.909280643458
 31
0.0
 11
41184.6752799651
 21
-2901.948812435859
 31
0.0
 11
41183.00335182009
 21
-2901.988251394259
 31
0.0
 11
41181.17452195499
 21
-2902.023168608059
 31
0.0
 11
41179.26697871359
 21
-2902.051479909458
 31
0.0
 11
41177.33736450549
 21
-2902.072873490658
 31
0.0
 11
41175.42624917939
 21
-2902.088197759558
 31
0.0
 11
41173.56314631509
 21
-2902.099604896859
 31
0.0
 11
41171.7679926618
 21
-2902.107539204259
 31
0.0
 11
41170.0753717045
 21
-2902.112338570558
 31
0.0
 11
41168.39347232839
 21
-2902.115465211858
 31
0.0
 11
41166.54294823459
 21
-2902.117464908759
 31
0.0
  0
SPLINE
  5
17C
330
2
100
AcDbEntity
  8
0
  6
Continuous
 62
     7
100
AcDbSpline
210
0.0
220
0.0
230
1.0
 70
     8
 71
     3
 72
    14
 73
    10
 74
     8
 42
0.0000000001
 43
0.0000000001
 44
0.0000000001
 12
-0.9999997731109882
 22
-0.0006736304419542
 32
0.0
 13
-0.999988964763367
 23
0.0046979092679243
 33
0.0
 40
0.0
 40
0.0
 40
0.0
 40
0.0
 40
2.132881089265612
 40
4.542058470073051
 40
7.260308139010179
 40
10.32578552723258
 40
13.77724767691992
 40
17.64988845314164
 40
21.986121721348
 40
21.986121721348
 40
21.986121721348
 40
21.986121721348
 10
41166.54294823459
 20
-2902.117464908759
 30
0.0
 10
41165.83198803281
 20
-2902.117943833302
 30
0.0
 10
41164.3179684837
 20
-2902.11823854683
 30
0.0
 10
41161.89786580568
 20
-2902.118496586271
 30
0.0
 10
41159.1668976489
 20
-2902.117793106408
 30
0.0
 10
41156.0885019584
 20
-2902.115514303418
 30
0.0
 10
41152.62531157195
 20
-2902.110550576778
 30
0.0
 10
41148.73854482909
 20
-2902.100508245201
 30
0.0
 10
41146.00227361515
 20
-2902.089706146711
 30
0.0
 10
41144.5568784762
 20
-2902.082915736558
 30
0.0
 11
41166.54294823459
 21
-2902.117464908759
 31
0.0
 11
41164.41006726899
 21
-2902.118191228859
 31
0.0
 11
41162.0008898933
 21
-2902.118348172959
 31
0.0
 11
41159.2826403226
 21
-2902.117617382258
 31
0.0
 11
41156.2171638282
 21
-2902.115276442359
 31
0.0
 11
41152.76570551829
 21
-2902.110128074559
 31
0.0
 11
41148.8930777858
 21
-2902.100076848158
 31
0.0
 11
41144.5568784762
 21
-2902.082915736558
 31
0.0
  0
SPLINE
  5
17D
330
2
100
AcDbEntity
  8
0
  6
Continuous
 62
     7
100
AcDbSpline
210
0.0
220
0.0
230
1.0
 70
     8
 71
     3
 72
     8
 73
     4
 74
     2
 42
0.0000000001
 43
0.0000000001
 44
0.0000000001
 12
0.077055619541236
 22
-0.9970267957768822
 32
0.0
 13
0.4236083553322507
 23
-0.9058454400683958
 33
0.0
 40
0.0
 40
0.0
 40
0.0
 40
0.0
 40
1.077612882903791
 40
1.077612882903791
 40
1.077612882903791
 40
1.077612882903791
 10
40922.29143477539
 20
-2839.867530253958
 30
0.0
 10
40922.31911348483
 20
-2840.225666560535
 30
0.0
 10
40922.41352505175
 20
-2840.584276830713
 30
0.0
 10
40922.56568699209
 20
-2840.909660402758
 30
0.0
 11
40922.29143477539
 21
-2839.867530253958
 31
0.0
 11
40922.56568699209
 21
-2840.909660402758
 31
0.0
  0
SPLINE
  5
17E
330
2
100
AcDbEntity
  8
0
  6
Continuous
 62
     7
100
AcDbSpline
210
0.0
220
0.0
230
1.0
 70
     8
 71
     3
 72
     8
 73
     4
 74
     2
 42
0.0000000001
 43
0.0000000001
 44
0.0000000001
 12
0.4236083553471845
 22
-0.9058454400614122
 32
0.0
 13
0.7276733752923948
 23
-0.6859237996239626
 33
0.0
 40
0.0
 40
0.0
 40
0.0
 40
0.0
 40
1.124311224940956
 40
1.124311224940956
 40
1.124311224940956
 40
1.124311224940956
 10
40922.56568699209
 20
-2840.909660402758
 30
0.0
 10
40922.72444286839
 20
-2841.249144468199
 30
0.0
 10
40922.95210382731
 20
-2841.563435060201
 30
0.0
 10
40923.22481427529
 20
-2841.820499002658
 30
0.0
 11
40922.56568699209
 21
-2840.909660402758
 31
0.0
 11
40923.22481427529
 21
-2841.820499002658
 31
0.0
  0
SPLINE
  5
17F
330
2
100
AcDbEntity
  8
0
  6
Continuous
 62
     7
100
AcDbSpline
210
0.0
220
0.0
230
1.0
 70
     8
 71
     3
 72
     9
 73
     5
 74
     3
 42
0.0000000001
 43
0.0000000001
 44
0.0000000001
 12
0.727673375294383
 22
-0.6859237996218532
 32
0.0
 13
1.0
 23
0.0
 33
0.0
 40
0.0
 40
0.0
 40
0.0
 40
0.0
 40
1.12444199605236
 40
2.254152529990041
 40
2.254152529990041
 40
2.254152529990041
 40
2.254152529990041
 10
40923.22481427529
 20
-2841.820499002658
 30
0.0
 10
40923.49755644282
 20
-2842.077592844788
 30
0.0
 10
40924.14767479351
 20
-2842.493323268582
 30
0.0
 10
40924.90602067382
 20
-2842.637483757359
 30
0.0
 10
40925.28259085179
 20
-2842.637483757359
 30
0.0
 11
40923.22481427529
 21
-2841.820499002658
 31
0.0
 11
40924.17308585099
 21
-2842.424776108958
 31
0.0
 11
40925.28259085179
 21
-2842.637483757359
 31
0.0
  0
SPLINE
  5
180
330
2
100
AcDbEntity
  8
0
  6
Continuous
 62
     7
100
AcDbSpline
210
0.0
220
0.0
230
1.0
 70
     8
 71
     3
 72
     8
 73
     4
 74
     2
 42
0.0000000001
 43
0.0000000001
 44
0.0000000001
 12
0.4418795433462667
 22
-0.8970743944468008
 32
0.0
 13
0.4846353416917853
 23
-0.8747162886235095
 33
0.0
 40
0.0
 40
0.0
 40
0.0
 40
0.0
 40
5.083107458907123
 40
5.083107458907123
 40
5.083107458907123
 40
5.083107458907123
 10
41050.01899591699
 20
-2886.664934274359
 30
0.0
 10
41050.76770298456
 20
-2888.184909456228
 30
0.0
 10
41051.55153047029
 20
-2889.688188239115
 30
0.0
 10
41052.37268164369
 20
-2891.170280536158
 30
0.0
 11
41050.01899591699
 21
-2886.664934274359
 31
0.0
 11
41052.37268164369
 21
-2891.170280536158
 31
0.0
  0
SPLINE
  5
181
330
2
100
AcDbEntity
  8
0
  6
Continuous
 62
     7
100
AcDbSpline
210
0.0
220
0.0
230
1.0
 70
     8
 71
     3
 72
    10
 73
     6
 74
     4
 42
0.0000000001
 43
0.0000000001
 44
0.0000000001
 12
-0.1020626466117232
 22
-0.9947779733018874
 32
0.0
 13
-0.099382807649463
 23
-0.9950492739275325
 33
0.0
 40
0.0
 40
0.0
 40
0.0
 40
0.0
 40
1.327068696782004
 40
2.634133197304133
 40
3.92368946330638
 40
3.92368946330638
 40
3.92368946330638
 40
3.92368946330638
 10
40936.2613976805
 20
-2888.875122485359
 30
0.0
 10
40936.21624963269
 20
-2889.315168721564
 30
0.0
 10
40936.12702887405
 20
-2890.188668540084
 30
0.0
 10
40935.9955036633
 20
-2891.489935189718
 30
0.0
 10
40935.90922884175
 20
-2892.351164976233
 30
0.0
 10
40935.86650893429
 20
-2892.778888984958
 30
0.0
 11
40936.2613976805
 21
-2888.875122485359
 31
0.0
 11
40936.12658545429
 21
-2890.195325874858
 31
0.0
 11
40935.9951108605
 21
-2891.495761201858
 31
0.0
 11
40935.86650893429
 21
-2892.778888984958
 31
0.0
  0
SPLINE
  5
182
330
2
100
AcDbEntity
  8
0
  6
Continuous
 62
     7
100
AcDbSpline
210
0.0
220
0.0
230
1.0
 70
     8
 71
     3
 72
    14
 73
    10
 74
     8
 42
0.0000000001
 43
0.0000000001
 44
0.0000000001
 12
-0.9637531482498747
 22
-0.2667955570065871
 32
0.0
 13
-0.9986567830126519
 23
-0.0518134127694879
 33
0.0
 40
0.0
 40
0.0
 40
0.0
 40
0.0
 40
5.067645596915704
 40
12.80526452484871
 40
21.12126113898121
 40
29.18398203366955
 40
44.65313301144107
 40
59.43029803861918
 40
63.34010470726662
 40
63.34010470726662
 40
63.34010470726662
 40
63.34010470726662
 10
41249.76806884439
 20
-2891.115838775559
 30
0.0
 10
41248.14008237831
 20
-2891.566513885472
 30
0.0
 10
41244.01842423227
 20
-2892.676748473472
 30
0.0
 10
41237.18798070624
 20
-2894.385734350186
 30
0.0
 10
41229.34527030516
 20
-2896.154309559136
 30
0.0
 10
41218.93318778787
 20
-2898.229627956799
 30
0.0
 10
41206.31756738958
 20
-2900.245638852898
 30
0.0
 10
41194.98472165016
 20
-2901.41628192666
 30
0.0
 10
41188.76704293563
 20
-2901.796280303834
 30
0.0
 10
41187.465524619
 20
-2901.863807112759
 30
0.0
 11
41249.76806884439
 21
-2891.115838775559
 31
0.0
 11
41244.87476658409
 21
-2892.433649416458
 31
0.0
 11
41237.36826790899
 21
-2894.310674806459
 31
0.0
 11
41229.25560546609
 21
-2896.138380410159
 31
0.0
 11
41221.3480108021
 21
-2897.712360986759
 31
0.0
 11
41206.07003933259
 21
-2900.136865008258
 31
0.0
 11
41191.3680843741
 21
-2901.625866901758
 31
0.0
 11
41187.465524619
 21
-2901.863807112759
 31
0.0
  0
SPLINE
  5
183
330
2
100
AcDbEntity
  8
0
  6
Continuous
 62
     7
100
AcDbSpline
210
0.0
220
0.0
230
1.0
 70
     8
 71
     3
 72
     9
 73
     5
 74
     3
 42
0.0000000001
 43
0.0000000001
 44
0.0000000001
 12
0.0000001171789574
 22
-0.999999999999993
 32
0.0
 13
0.5329620107111445
 23
-0.8461391700770825
 33
0.0
 40
0.0
 40
0.0
 40
0.0
 40
0.0
 40
1.552622441423293
 40
1.671598706631015
 40
1.671598706631015
 40
1.671598706631015
 40
1.671598706631015
 10
40920.3928828468
 20
-2894.626977617959
 30
0.0
 10
40920.39288290744
 20
-2895.144518431767
 30
0.0
 10
40920.54774823687
 20
-2895.718159983406
 30
0.0
 10
40920.83502994006
 20
-2896.195051376458
 30
0.0
 10
40920.8561665499
 20
-2896.228608202559
 30
0.0
 11
40920.3928828468
 21
-2894.626977617959
 31
0.0
 11
40920.79480611959
 21
-2896.126675630359
 31
0.0
 11
40920.8561665499
 21
-2896.228608202559
 31
0.0
  0
SPLINE
  5
184
330
2
100
AcDbEntity
  8
0
  6
Continuous
 62
     7
100
AcDbSpline
210
0.0
220
0.0
230
1.0
 70
     8
 71
     3
 72
     9
 73
     5
 74
     3
 42
0.0000000001
 43
0.0000000001
 44
0.0000000001
 12
0.5329620106836626
 22
-0.8461391700943929
 32
0.0
 13
0.9999999999997491
 23
-0.0000007084589231
 33
0.0
 40
0.0
 40
0.0
 40
0.0
 40
0.0
 40
1.437580853980727
 40
2.99047250019411
 40
2.99047250019411
 40
2.99047250019411
 40
2.99047250019411
 10
40920.8561665499
 20
-2896.228608202559
 30
0.0
 10
40921.11155854404
 20
-2896.634072692802
 30
0.0
 10
40921.86016675416
 20
-2897.357439027453
 30
0.0
 10
40922.87524818845
 20
-2897.626374492438
 30
0.0
 10
40923.3928787372
 20
-2897.626374859158
 30
0.0
 11
40920.8561665499
 21
-2896.228608202559
 31
0.0
 11
40921.89288071259
 21
-2897.224531119558
 31
0.0
 11
40923.3928787372
 21
-2897.626374859158
 31
0.0
  0
SPLINE
  5
185
330
2
100
AcDbEntity
  8
0
  6
Continuous
 62
     7
100
AcDbSpline
210
0.0
220
0.0
230
1.0
 70
     8
 71
     3
 72
    11
 73
     7
 74
     5
 42
0.0000000001
 43
0.0000000001
 44
0.0000000001
 12
-0.9999888327679482
 22
0.0047259220684182
 32
0.0
 13
-0.9999116523363845
 23
0.0132923858626365
 33
0.0
 40
0.0
 40
0.0
 40
0.0
 40
0.0
 40
4.339614579111679
 40
8.40120820320326
 40
12.50512562429294
 40
16.86461442781016
 40
16.86461442781016
 40
16.86461442781016
 40
16.86461442781016
 10
41144.55687847629
 20
-2902.082915736759
 30
0.0
 10
41143.11035643709
 20
-2902.076079509989
 30
0.0
 10
41140.30998667798
 20
-2902.062210725717
 30
0.0
 10
41136.1417210978
 20
-2902.031195482852
 30
0.0
 10
41131.9669290408
 20
-2901.989449595662
 30
0.0
 10
41129.14596171655
 20
-2901.958271397106
 30
0.0
 10
41127.69292716559
 20
-2901.938955394659
 30
0.0
 11
41144.55687847629
 21
-2902.082915736759
 31
0.0
 11
41140.21732497049
 21
-2902.059892586059
 31
0.0
 11
41136.15584448099
 21
-2902.029577562358
 31
0.0
 11
41132.0521217507
 21
-2901.989603170759
 31
0.0
 11
41127.69292716559
 21
-2901.938955394659
 31
0.0
  0
SPLINE
  5
186
330
2
100
AcDbEntity
  8
0
  6
Continuous
 62
     7
100
AcDbSpline
210
0.0
220
0.0
230
1.0
 70
     8
 71
     3
 72
    10
 73
     6
 74
     4
 42
0.0000000001
 43
0.0000000001
 44
0.0000000001
 12
-0.9998969283660068
 22
0.0143573202313176
 32
0.0
 13
-0.1406279644088528
 23
-0.9900625109689904
 33
0.0
 40
0.0
 40
0.0
 40
0.0
 40
0.0
 40
3.769395861175354
 40
6.412894165102825
 40
7.754665786750867
 40
7.754665786750867
 40
7.754665786750867
 40
7.754665786750867
 10
41117.9441550069
 20
-2933.004458472658
 30
0.0
 10
41116.68781922577
 20
-2932.986418998173
 30
0.0
 10
41114.36477833845
 20
-2932.633797325993
 30
0.0
 10
41112.33326138804
 20
-2933.089276684453
 30
0.0
 10
41110.28457661191
 20
-2931.915369714633
 30
0.0
 10
41110.22167974129
 20
-2932.358182308258
 30
0.0
 11
41117.9441550069
 21
-2933.004458472658
 31
0.0
 11
41114.17908846879
 21
-2932.823850826459
 31
0.0
 11
41111.55020790899
 21
-2932.546235471758
 31
0.0
 11
41110.22167974129
 21
-2932.358182308258
 31
0.0
  0
SPLINE
  5
187
330
2
100
AcDbEntity
  8
0
  6
Continuous
 62
     7
100
AcDbSpline
210
0.0
220
0.0
230
1.0
 70
     8
 71
     3
 72
     9
 73
     5
 74
     3
 42
0.0000000001
 43
0.0000000001
 44
0.0000000001
 12
-0.9922076155999622
 22
-0.1245955358166477
 32
0.0
 13
-0.9998958843745324
 23
0.0144298444507102
 33
0.0
 40
0.0
 40
0.0
 40
0.0
 40
0.0
 40
0.4072618390265511
 40
0.8005298283600225
 40
0.8005298283600225
 40
0.8005298283600225
 40
0.8005298283600225
 10
41118.74289932909
 20
-2932.958744195659
 30
0.0
 10
41118.60820322969
 20
-2932.975658531342
 30
0.0
 10
41118.34225584421
 20
-2933.000086894548
 30
0.0
 10
41118.07523068823
 20
-2933.006350071297
 30
0.0
 10
41117.9441550069
 20
-2933.004458472658
 30
0.0
 11
41118.74289932909
 21
-2932.958744195659
 31
0.0
 11
41118.3373279434
 21
-2932.995812465558
 31
0.0
 11
41117.9441550069
 21
-2933.004458472658
 31
0.0
  0
SPLINE
  5
188
330
2
100
AcDbEntity
  8
0
  6
Continuous
 62
     7
100
AcDbSpline
210
0.0
220
0.0
230
1.0
 70
     8
 71
     3
 72
    17
 73
    13
 74
    11
 42
0.0000000001
 43
0.0000000001
 44
0.0000000001
 12
-0.5008106257924193
 22
-0.8655568826445813
 32
0.0
 13
-0.9922158106094606
 23
-0.1245302580765454
 33
0.0
 40
0.0
 40
0.0
 40
0.0
 40
0.0
 40
0.9699335034492484
 40
1.985746209065263
 40
3.052925358932159
 40
4.174654256352246
 40
5.350815899481136
 40
6.581529678385009
 40
7.868535991870857
 40
9.209933436552553
 40
10.60258640856946
 40
12.04432556043196
 40
12.04432556043196
 40
12.04432556043196
 40
12.04432556043196
 10
41128.29088932349
 20
-2926.177960255958
 30
0.0
 10
41128.12897165522
 20
-2926.457804462498
 30
0.0
 10
41127.76960242279
 20
-2927.014927470688
 30
0.0
 10
41127.14746410571
 20
-2927.821498419395
 30
0.0
 10
41126.43237053385
 20
-2928.61636582122
 30
0.0
 10
41125.62501867284
 20
-2929.396308357622
 30
0.0
 10
41124.72534939857
 20
-2930.155334071445
 30
0.0
 10
41123.73163179328
 20
-2930.884089321056
 30
0.0
 10
41122.64042306613
 20
-2931.56764897504
 30
0.0
 10
41121.44664055667
 20
-2932.181592715942
 30
0.0
 10
41120.14609224898
 20
-2932.685431228163
 30
0.0
 10
41119.21973812284
 20
-2932.898897479438
 30
0.0
 10
41118.74289932909
 20
-2932.958744195659
 30
0.0
 11
41128.29088932349
 21
-2926.177960255958
 31
0.0
 11
41127.76709891279
 21
-2926.994302467758
 31
0.0
 11
41127.1483445456
 21
-2927.799919303458
 31
0.0
 11
41126.4358101915
 21
-2928.594378951359
 31
0.0
 11
41125.6298408393
 21
-2929.374564264358
 31
0.0
 11
41124.73118153689
 21
-2930.133357825858
 31
0.0
 11
41123.73850706069
 21
-2930.860856135059
 31
0.0
 11
41122.6469035373
 21
-2931.542609021859
 31
0.0
 11
41121.45227060239
 21
-2932.152690373359
 31
0.0
 11
41120.1508583434
 21
-2932.648481087858
 31
0.0
 11
41118.74289932909
 21
-2932.958744195659
 31
0.0
  0
SPLINE
  5
189
330
2
100
AcDbEntity
  8
0
  6
Continuous
 62
     7
100
AcDbSpline
210
0.0
220
0.0
230
1.0
 70
     8
 71
     3
 72
    12
 73
     8
 74
     6
 42
0.0000000001
 43
0.0000000001
 44
0.0000000001
 12
-0.4304237843679566
 22
-0.9026269250639307
 32
0.0
 13
-0.5008477551237213
 23
-0.8655353985756612
 33
0.0
 40
0.0
 40
0.0
 40
0.0
 40
0.0
 40
0.7110844491023843
 40
1.509820864992362
 40
2.393186858672139
 40
3.35942205349083
 40
4.406905588830575
 40
4.406905588830575
 40
4.406905588830575
 40
4.406905588830575
 10
41130.3150946495
 20
-2922.264654526758
 30
0.0
 10
41130.2130720963
 20
-2922.478602516676
 30
0.0
 10
41129.99470819253
 20
-2922.932042627058
 30
0.0
 10
41129.6422300443
 20
-2923.647687979829
 30
0.0
 10
41129.24355094067
 20
-2924.435344078283
 30
0.0
 10
41128.79308660373
 20
-2925.289603098347
 30
0.0
 10
41128.46576591589
 20
-2925.875748896205
 30
0.0
 10
41128.29088932349
 20
-2926.177960255958
 30
0.0
 11
41130.3150946495
 21
-2922.264654526758
 31
0.0
 11
41130.0064960497
 21
-2922.905285464159
 31
0.0
 11
41129.6534599444
 21
-2923.621766706359
 31
0.0
 11
41129.25393787319
 21
-2924.409623034259
 31
0.0
 11
41128.80244822139
 21
-2925.263887364558
 31
0.0
 11
41128.29088932349
 21
-2926.177960255958
 31
0.0
  0
SPLINE
  5
18A
330
2
100
AcDbEntity
  8
0
  6
Continuous
 62
     7
100
AcDbSpline
210
0.0
220
0.0
230
1.0
 70
     8
 71
     3
 72
    10
 73
     6
 74
     4
 42
0.0000000001
 43
0.0000000001
 44
0.0000000001
 12
0.0264757010418074
 22
-0.9996494571870407
 32
0.0
 13
0.0270765680065275
 23
-0.9996333625209736
 33
0.0
 40
0.0
 40
0.0
 40
0.0
 40
0.0
 40
4.97705686794407
 40
9.964159897651404
 40
14.96130895180287
 40
14.96130895180287
 40
14.96130895180287
 40
14.96130895180287
 10
41129.9132790068
 20
-2907.308742398959
 30
0.0
 10
41129.9572026967
 20
-2908.967179797768
 30
0.0
 10
41130.04716268095
 20
-2912.287348180543
 30
0.0
 10
41130.17991847163
 20
-2917.272683927
 30
0.0
 10
41130.26999276743
 20
-2920.599548889418
 30
0.0
 10
41130.3150946495
 20
-2922.264654526758
 30
0.0
 11
41129.9132790068
 21
-2907.308742398959
 31
0.0
 11
41130.0466864429
 21
-2912.284010986958
 31
0.0
 11
41130.180198909
 21
-2917.269326528658
 31
0.0
 11
41130.3150946495
 21
-2922.264654526758
 31
0.0
  0
SPLINE
  5
18B
330
2
100
AcDbEntity
  8
0
  6
Continuous
 62
     7
100
AcDbSpline
210
0.0
220
0.0
230
1.0
 70
     8
 71
     3
 72
    11
 73
     7
 74
     5
 42
0.0000000001
 43
0.0000000001
 44
0.0000000001
 12
-0.999984588301055
 22
0.0055518609825288
 32
0.0
 13
-0.9998747308771477
 23
0.0158279042627691
 33
0.0
 40
0.0
 40
0.0
 40
0.0
 40
0.0
 40
3.767656768706773
 40
7.301966322428073
 40
10.87455661580619
 40
14.67835867230827
 40
14.67835867230827
 40
14.67835867230827
 40
14.67835867230827
 10
41144.59084207749
 20
-2907.455633434159
 30
0.0
 10
41143.33497584325
 20
-2907.448660931955
 30
0.0
 10
41140.90101960116
 20
-2907.435546228459
 30
0.0
 10
41137.27630857527
 20
-2907.402707929782
 30
0.0
 10
41133.63964923713
 20
-2907.360860383434
 30
0.0
 10
41131.18105419264
 20
-2907.32881113722
 30
0.0
 10
41129.9132790068
 20
-2907.308742398959
 30
0.0
 11
41144.59084207749
 21
-2907.455633434159
 31
0.0
 11
41140.8232548131
 21
-2907.432748243659
 31
0.0
 11
41137.28908437739
 21
-2907.401389785258
 31
0.0
 11
41133.7167239237
 21
-2907.360865801658
 31
0.0
 11
41129.9132790068
 21
-2907.308742398959
 31
0.0
  0
SPLINE
  5
18C
330
2
100
AcDbEntity
  8
0
  6
Continuous
 62
     7
100
AcDbSpline
210
0.0
220
0.0
230
1.0
 70
     8
 71
     3
 72
     9
 73
     5
 74
     3
 42
0.0000000001
 43
0.0000000001
 44
0.0000000001
 12
-0.9999133180412608
 22
0.0131664879036321
 32
0.0
 13
-0.9995781287395873
 23
0.0290441826441265
 33
0.0
 40
0.0
 40
0.0
 40
0.0
 40
0.0
 40
1.138459709191233
 40
2.322401564079119
 40
2.322401564079119
 40
2.322401564079119
 40
2.322401564079119
 10
41127.69292716559
 20
-2901.938955394659
 30
0.0
 10
41127.3134734905
 20
-2901.933958889328
 30
0.0
 10
41126.53944192316
 20
-2901.920915501541
 30
0.0
 10
41125.76553161441
 20
-2901.901882030383
 30
0.0
 10
41125.3710508198
 20
-2901.890419822559
 30
0.0
 11
41127.69292716559
 21
-2901.938955394659
 31
0.0
 11
41126.55462977409
 21
-2901.919731504559
 31
0.0
 11
41125.3710508198
 21
-2901.890419822559
 31
0.0
  0
SPLINE
  5
18D
330
2
100
AcDbEntity
  8
0
  6
Continuous
 62
     7
100
AcDbSpline
210
0.0
220
0.0
230
1.0
 70
     8
 71
     3
 72
    14
 73
    10
 74
     8
 42
0.0000000001
 43
0.0000000001
 44
0.0000000001
 12
-0.9995785041158608
 22
0.0290312609009344
 32
0.0
 13
-0.569735350189153
 23
0.8218282245973565
 33
0.0
 40
0.0
 40
0.0
 40
0.0
 40
0.0
 40
6.330294848162455
 40
12.65851304757658
 40
18.94047700121149
 40
25.46391007756753
 40
32.31382029783058
 40
39.92834586112305
 40
47.42215991281176
 40
47.42215991281176
 40
47.42215991281176
 40
47.42215991281176
 10
41125.3710508198
 20
-2901.890419822559
 30
0.0
 10
41123.26184193482
 20
-2901.829161008786
 30
0.0
 10
41119.04518159945
 20
-2901.663375222064
 30
0.0
 10
41112.7476715133
 20
-2901.167857611446
 30
0.0
 10
41106.44860708548
 20
-2900.06159188969
 30
0.0
 10
41100.22929382027
 20
-2897.886147717231
 30
0.0
 10
41094.15604946889
 20
-2894.321123398619
 30
0.0
 10
41088.67101617677
 20
-2889.406320072443
 30
0.0
 10
41085.52921582758
 20
-2885.444333021212
 30
0.0
 10
41084.10605223659
 20
-2883.391457055358
 30
0.0
 11
41125.3710508198
 21
-2901.890419822559
 31
0.0
 11
41119.0464498482
 21
-2901.621988425958
 31
0.0
 11
41112.7426928461
 21
-2901.066116823959
 31
0.0
 11
41106.56753484759
 21
-2899.912646057858
 31
0.0
 11
41100.4186721592
 21
-2897.733961422359
 31
0.0
 11
41094.50568497189
 21
-2894.275948618958
 31
0.0
 11
41088.80144077899
 21
-2889.231883022459
 31
0.0
 11
41084.10605223659
 21
-2883.391457055358
 31
0.0
  0
SPLINE
  5
18E
330
2
100
AcDbEntity
  8
0
  6
Continuous
 62
     7
100
AcDbSpline
210
0.0
220
0.0
230
1.0
 70
     8
 71
     3
 72
    10
 73
     6
 74
     4
 42
0.0000000001
 43
0.0000000001
 44
0.0000000001
 12
0.0000349592515256
 22
-0.9999999993889254
 32
0.0
 13
0.9999999999892827
 23
-0.0000046297678027
 33
0.0
 40
0.0
 40
0.0
 40
0.0
 40
0.0
 40
1.24957647608499
 40
2.648137568533114
 40
4.181268008344059
 40
4.181268008344059
 40
4.181268008344059
 40
4.181268008344059
 10
40920.39284334749
 20
-2863.333982003359
 30
0.0
 10
40920.39285790891
 20
-2863.750507495133
 30
0.0
 10
40920.72128763303
 20
-2864.646253861842
 30
0.0
 10
40921.89218005959
 20
-2865.50240255829
 30
0.0
 10
40922.88183525726
 20
-2865.700301108745
 30
0.0
 10
40923.3928787372
 20
-2865.700303474758
 30
0.0
 11
40920.39284334749
 21
-2863.333982003359
 31
0.0
 11
40920.7947994525
 21
-2864.517144147459
 31
0.0
 11
40921.89288492269
 21
-2865.383274293258
 31
0.0
 11
40923.3928787372
 21
-2865.700303474758
 31
0.0
  0
SPLINE
  5
18F
330
2
100
AcDbEntity
  8
0
  6
Continuous
 62
     7
100
AcDbSpline
210
0.0
220
0.0
230
1.0
 70
     8
 71
     3
 72
    13
 73
     9
 74
     7
 42
0.0000000001
 43
0.0000000001
 44
0.0000000001
 12
-0.0876646813198974
 22
-0.9961500407313554
 32
0.0
 13
-0.1021206386593611
 23
-0.9947720217013566
 33
0.0
 40
0.0
 40
0.0
 40
0.0
 40
0.0
 40
7.7276712929945
 40
15.39901053347714
 40
23.02236325397865
 40
30.60753608977555
 40
38.16788093668452
 40
45.7045405147347
 40
45.7045405147347
 40
45.7045405147347
 40
45.7045405147347
 10
40940.66982255089
 20
-2843.384076587259
 30
0.0
 10
40940.44400793714
 20
-2845.950049945017
 30
0.0
 10
40939.9833022605
 20
-2851.062352206796
 30
0.0
 10
40939.26758171471
 20
-2858.703036777369
 30
0.0
 10
40938.53435582462
 20
-2866.294339057299
 30
0.0
 10
40937.78720586981
 20
-2873.847102140403
 30
0.0
 10
40937.02929513174
 20
-2881.369747385795
 30
0.0
 10
40936.51794717699
 20
-2886.376036456915
 30
0.0
 10
40936.2613976805
 20
-2888.875122485359
 30
0.0
 11
40940.66982255089
 21
-2843.384076587259
 31
0.0
 11
40939.97707899459
 21
-2851.080634907559
 31
0.0
 11
40939.262401043
 21
-2858.718611155758
 31
0.0
 11
40938.5301984749
 21
-2866.306719358759
 31
0.0
 11
40937.78411249299
 21
-2873.855110091659
 31
0.0
 11
40937.0267755402
 21
-2881.377427217659
 31
0.0
 11
40936.2613976805
 21
-2888.875122485359
 31
0.0
  0
SPLINE
  5
190
330
2
100
AcDbEntity
  8
0
  6
Continuous
 62
     7
100
AcDbSpline
210
0.0
220
0.0
230
1.0
 70
     8
 71
     3
 72
    15
 73
    11
 74
     9
 42
0.0000000001
 43
0.0000000001
 44
0.0000000001
 12
0.0033152896587104
 22
-0.9999945044121387
 32
0.0
 13
-0.0079569810862064
 23
-0.9999683427249053
 33
0.0
 40
0.0
 40
0.0
 40
0.0
 40
0.0
 40
6.219048710919038
 40
13.30924797527112
 40
21.11004988471622
 40
29.23266787296307
 40
36.85971455484392
 40
43.05437590117179
 40
47.25683000461634
 40
49.3929307412467
 40
49.3929307412467
 40
49.3929307412467
 40
49.3929307412467
 10
40935.94345692159
 20
-2843.386222501959
 30
0.0
 10
40935.95032957089
 20
-2845.459227346489
 30
0.0
 10
40935.96205930265
 20
-2849.89562922274
 30
0.0
 10
40935.97160737225
 20
-2856.932308012112
 30
0.0
 10
40935.97161357861
 20
-2864.60351687484
 30
0.0
 10
40935.9603609533
 20
-2872.453667505594
 30
0.0
 10
40935.93843465883
 20
-2879.768412719135
 30
0.0
 10
40935.91139635506
 20
-2885.776409016592
 30
0.0
 10
40935.8861639713
 20
-2889.954071735312
 30
0.0
 10
40935.87217457201
 20
-2892.066877947124
 30
0.0
 10
40935.86650893429
 20
-2892.778888984958
 30
0.0
 11
40935.94345692159
 21
-2843.386222501959
 31
0.0
 11
40935.96004480359
 21
-2849.605249090658
 31
0.0
 11
40935.96975994669
 21
-2856.695441699058
 31
0.0
 11
40935.96978647919
 21
-2864.496243608459
 31
0.0
 11
40935.9579400967
 21
-2872.618852958059
 31
0.0
 11
40935.9348951459
 21
-2880.245864824959
 31
0.0
 11
40935.9065139611
 21
-2886.440461155959
 31
0.0
 11
40935.88146395659
 21
-2890.642840599659
 31
0.0
 11
40935.86650893429
 21
-2892.778888984958
 31
0.0
  0
SPLINE
  5
191
330
2
100
AcDbEntity
  8
0
  6
Continuous
 62
     7
100
AcDbSpline
210
0.0
220
0.0
230
1.0
 70
     8
 71
     3
 72
     8
 73
     4
 74
     2
 42
0.0000000001
 43
0.0000000001
 44
0.0000000001
 12
-0.1682094478799663
 22
-0.9857512777794999
 32
0.0
 13
-0.1043730303314418
 23
-0.9945382197479553
 33
0.0
 40
0.0
 40
0.0
 40
0.0
 40
0.0
 40
0.7685579426582234
 40
0.7685579426582234
 40
0.7685579426582234
 40
0.7685579426582234
 10
40940.77462163959
 20
-2842.622700828958
 30
0.0
 10
40940.73152873719
 20
-2842.875236486966
 30
0.0
 10
40940.69650120484
 20
-2843.129285099303
 30
0.0
 10
40940.66976229769
 20
-2843.384071848658
 30
0.0
 11
40940.77462163959
 21
-2842.622700828958
 31
0.0
 11
40940.66976229769
 21
-2843.384071848658
 31
0.0
  0
SPLINE
  5
192
330
2
100
AcDbEntity
  8
0
  6
Continuous
 62
     7
100
AcDbSpline
210
0.0
220
0.0
230
1.0
 70
     8
 71
     3
 72
    25
 73
    21
 74
    19
 42
0.0000000001
 43
0.0000000001
 44
0.0000000001
 12
-0.8724974052721837
 22
0.4886187448239237
 32
0.0
 13
-0.44298880270431
 23
0.896527144418172
 33
0.0
 40
0.0
 40
0.0
 40
0.0
 40
0.0
 40
1.736705989027453
 40
3.465996249476059
 40
5.198270380564342
 40
6.96789733641677
 40
8.747751003784291
 40
10.46797947871268
 40
12.19970577364286
 40
14.06987982612199
 40
16.09560087205862
 40
18.29370259344536
 40
20.67984086686172
 40
23.27003199345942
 40
26.08570149368074
 40
29.14313569614354
 40
32.4636866919334
 40
36.07077339610261
 40
39.99098825203112
 40
44.25614372124076
 40
44.25614372124076
 40
44.25614372124076
 40
44.25614372124076
 10
41088.11569224509
 20
-2874.669957531759
 30
0.0
 10
41087.61060175538
 20
-2874.38709516493
 30
0.0
 10
41086.60937019027
 20
-2873.810345141718
 30
0.0
 10
41085.12928506388
 20
-2872.909041241829
 30
0.0
 10
41083.66204862376
 20
-2871.966486068311
 30
0.0
 10
41082.20481288567
 20
-2870.97814481827
 30
0.0
 10
41080.77796179018
 20
-2869.953238447255
 30
0.0
 10
41079.39006199688
 20
-2868.896928344411
 30
0.0
 10
41078.00775778857
 20
-2867.78462066642
 30
0.0
 10
41076.5798785691
 20
-2866.56762968189
 30
0.0
 10
41075.07418540875
 20
-2865.203612262131
 30
0.0
 10
41073.4897055231
 20
-2863.671997592474
 30
0.0
 10
41071.82782951046
 20
-2861.951625326571
 30
0.0
 10
41070.09106681703
 20
-2860.019580008715
 30
0.0
 10
41068.2846660334
 20
-2857.851748274468
 30
0.0
 10
41066.41814577105
 20
-2855.420113148485
 30
0.0
 10
41064.50294988063
 20
-2852.696762781775
 30
0.0
 10
41062.55217332445
 20
-2849.650762262393
 30
0.0
 10
41060.58071606182
 20
-2846.248644394279
 30
0.0
 10
41059.31876058194
 20
-2843.828339903028
 30
0.0
 10
41058.68895521039
 20
-2842.553730685258
 30
0.0
 11
41088.11569224509
 21
-2874.669957531759
 31
0.0
 11
41086.6108360592
 21
-2873.803034494759
 31
0.0
 11
41085.1338045064
 21
-2872.903688845458
 31
0.0
 11
41083.67644861749
 21
-2871.967266142659
 31
0.0
 11
41082.2121650772
 21
-2870.973559306359
 31
0.0
 11
41080.76678052899
 21
-2869.934933972059
 31
0.0
 11
41079.39787279379
 21
-2868.893167386659
 31
0.0
 11
41078.04871260639
 21
-2867.807514242559
 31
0.0
 11
41076.6253140582
 21
-2866.594465373159
 31
0.0
 11
41075.1239342862
 21
-2865.234537236758
 31
0.0
 11
41073.5432878066
 21
-2863.707053068559
 31
0.0
 11
41071.88510527869
 21
-2861.991218996158
 31
0.0
 11
41070.15305334799
 21
-2860.065320197758
 31
0.0
 11
41068.3503295479
 21
-2857.902409743058
 31
0.0
 11
41066.48800428219
 21
-2855.477611090158
 31
0.0
 11
41064.57696898999
 21
-2852.762099531058
 31
0.0
 11
41062.63035110669
 21
-2849.725365544058
 31
0.0
 11
41060.66280463099
 21
-2846.334665707359
 31
0.0
 11
41058.68895521039
 21
-2842.553730685258
 31
0.0
  0
SPLINE
  5
193
330
2
100
AcDbEntity
  8
0
  6
Continuous
 62
     7
100
AcDbSpline
210
0.0
220
0.0
230
1.0
 70
     8
 71
     3
 72
     8
 73
     4
 74
     2
 42
0.0000000001
 43
0.0000000001
 44
0.0000000001
 12
-0.1679217356983214
 22
-0.9858003300263511
 32
0.0
 13
-0.1040140566366464
 23
-0.9945758271856343
 33
0.0
 40
0.0
 40
0.0
 40
0.0
 40
0.0
 40
0.7706971542857017
 40
0.7706971542857017
 40
0.7706971542857017
 40
0.7706971542857017
 10
40936.04848251049
 20
-2842.622718070659
 30
0.0
 10
40936.00534357588
 20
-2842.87596924034
 30
0.0
 10
40935.97030227217
 20
-2843.130737081081
 30
0.0
 10
40935.94358115969
 20
-2843.386242667659
 30
0.0
 11
40936.04848251049
 21
-2842.622718070659
 31
0.0
 11
40935.94358115969
 21
-2843.386242667659
 31
0.0
  0
SPLINE
  5
194
330
2
100
AcDbEntity
  8
0
  6
Continuous
 62
     7
100
AcDbSpline
210
0.0
220
0.0
230
1.0
 70
     8
 71
     3
 72
    13
 73
     9
 74
     7
 42
0.0000000001
 43
0.0000000001
 44
0.0000000001
 12
-0.341188979132066
 22
-0.9399947236654144
 32
0.0
 13
-0.1020956301473748
 23
-0.9947745886907298
 33
0.0
 40
0.0
 40
0.0
 40
0.0
 40
0.0
 40
8.273577753106321
 40
16.35361593793476
 40
24.26609842791591
 40
32.0372386989389
 40
39.69629281156739
 40
47.25942800819417
 40
47.25942800819417
 40
47.25942800819417
 40
47.25942800819417
 10
40952.95877993139
 20
-2842.553693894258
 30
0.0
 10
40952.01782874895
 20
-2845.146067038843
 30
0.0
 10
40950.25419548536
 20
-2850.305833185754
 30
0.0
 10
40947.94551806809
 20
-2858.060235438234
 30
0.0
 10
40945.99182760899
 20
-2865.73900660476
 30
0.0
 10
40944.38439169111
 20
-2873.354355172642
 30
0.0
 10
40943.11559339072
 20
-2880.915226518929
 30
0.0
 10
40942.48854291479
 20
-2885.952233416213
 30
0.0
 10
40942.23115523019
 20
-2888.460104984358
 30
0.0
 11
40952.95877993139
 21
-2842.553693894258
 31
0.0
 11
40950.2864974985
 21
-2850.383827701259
 31
0.0
 11
40947.98234797099
 21
-2858.128368489659
 31
0.0
 11
40946.0335024902
 21
-2865.797095922959
 31
0.0
 11
40944.43021930739
 21
-2873.401049115059
 31
0.0
 11
40943.16420529119
 21
-2880.954744794059
 31
0.0
 11
40942.23115523019
 21
-2888.460104984358
 31
0.0
  0
SPLINE
  5
195
330
2
100
AcDbEntity
  8
0
  6
Continuous
 62
     7
100
AcDbSpline
210
0.0
220
0.0
230
1.0
 70
     8
 71
     3
 72
    12
 73
     8
 74
     6
 42
0.0000000001
 43
0.0000000001
 44
0.0000000001
 12
0.183060504629535
 22
0.9831016486837869
 32
0.0
 13
0.9950848045890921
 23
-0.0990264190804083
 33
0.0
 40
0.0
 40
0.0
 40
0.0
 40
0.0
 40
0.4393330741941514
 40
1.328493951751577
 40
2.646906123563493
 40
4.28640576203247
 40
6.100572149395135
 40
6.100572149395135
 40
6.100572149395135
 40
6.100572149395135
 10
40936.2613976805
 20
-2888.875122485359
 30
0.0
 10
40936.28820585859
 20
-2888.731152795505
 30
0.0
 10
40936.77105048725
 20
-2888.496628772536
 30
0.0
 10
40937.58853181732
 20
-2888.37003221353
 30
0.0
 10
40938.89659394941
 20
-2888.283788139503
 30
0.0
 10
40940.47809714122
 20
-2888.316842811142
 30
0.0
 10
40941.62940350781
 20
-2888.400236870973
 30
0.0
 10
40942.23115330949
 20
-2888.460120337958
 30
0.0
 11
40936.2613976805
 21
-2888.875122485359
 31
0.0
 11
40936.59962544879
 21
-2888.594737880159
 31
0.0
 11
40937.4671234242
 21
-2888.399662692458
 31
0.0
 11
40938.78236136769
 21
-2888.308230713559
 31
0.0
 11
40940.42172900359
 21
-2888.329035013659
 31
0.0
 11
40942.23115330949
 21
-2888.460120337958
 31
0.0
  0
SPLINE
  5
196
330
2
100
AcDbEntity
  8
0
  6
Continuous
 62
     7
100
AcDbSpline
210
0.0
220
0.0
230
1.0
 70
     8
 71
     3
 72
     8
 73
     4
 74
     2
 42
0.0000000001
 43
0.0000000001
 44
0.0000000001
 12
-0.6026421526089932
 22
-0.7980115512314337
 32
0.0
 13
-0.1927197896931675
 23
-0.981253831921497
 33
0.0
 40
0.0
 40
0.0
 40
0.0
 40
0.0
 40
0.8754822287086303
 40
0.8754822287086303
 40
0.8754822287086303
 40
0.8754822287086303
 10
40941.03829257099
 20
-2842.589790797959
 30
0.0
 10
40940.86242507271
 20
-2842.822672441761
 30
0.0
 10
40940.72607140939
 20
-2843.097603304059
 30
0.0
 10
40940.66983049239
 20
-2843.383960067959
 30
0.0
 11
40941.03829257099
 21
-2842.589790797959
 31
0.0
 11
40940.66983049239
 21
-2843.383960067959
 31
0.0
  0
SPLINE
  5
197
330
2
100
AcDbEntity
  8
0
  6
Continuous
 62
     7
100
AcDbSpline
210
0.0
220
0.0
230
1.0
 70
     8
 71
     3
 72
    10
 73
     6
 74
     4
 42
0.0000000001
 43
0.0000000001
 44
0.0000000001
 12
0.9933459444657176
 22
0.1151687223750948
 32
0.0
 13
-0.0175064304830119
 23
0.9998467507031984
 33
0.0
 40
0.0
 40
0.0
 40
0.0
 40
0.0
 40
1.049952148768373
 40
1.792954719945663
 40
2.328561018702957
 40
2.328561018702957
 40
2.328561018702957
 40
2.328561018702957
 10
40922.34237178619
 20
-2894.751206076958
 30
0.0
 10
40922.69002702248
 20
-2894.710898861115
 30
0.0
 10
40923.27439476538
 20
-2894.609790939491
 30
0.0
 10
40924.0326793234
 20
-2894.345283790656
 30
0.0
 10
40924.27109820844
 20
-2893.921421835448
 30
0.0
 10
40924.2679726903
 20
-2893.742913762958
 30
0.0
 11
40922.34237178619
 21
-2894.751206076958
 31
0.0
 11
40923.37426540469
 21
-2894.557311582959
 31
0.0
 11
40924.04012546579
 21
-2894.227640231759
 31
0.0
 11
40924.2679726903
 21
-2893.742913762958
 31
0.0
  0
SPLINE
  5
198
330
2
100
AcDbEntity
  8
0
  6
Continuous
 62
     7
100
AcDbSpline
210
0.0
220
0.0
230
1.0
 70
     8
 71
     3
 72
    13
 73
     9
 74
     7
 42
0.0000000001
 43
0.0000000001
 44
0.0000000001
 12
-0.0000623634774966
 22
0.9999999980553983
 32
0.0
 13
0.9981357346853657
 23
0.0610332298351092
 33
0.0
 40
0.0
 40
0.0
 40
0.0
 40
0.0
 40
0.0701657876681335
 40
0.1594109784977055
 40
0.2905026515758354
 40
0.4680416946185328
 40
0.6967028897391242
 40
0.9808128483896789
 40
0.9808128483896789
 40
0.9808128483896789
 40
0.9808128483896789
 10
40923.3928787372
 20
-2897.626375230858
 30
0.0
 10
40923.3928772786
 20
-2897.602986635014
 30
0.0
 10
40923.47977862646
 20
-2897.615035880693
 30
0.0
 10
40923.55729397882
 20
-2897.590984697025
 30
0.0
 10
40923.69732339083
 20
-2897.581827310375
 30
0.0
 10
40923.87225794102
 20
-2897.563368728701
 30
0.0
 10
40924.10302095824
 20
-2897.546205576022
 30
0.0
 10
40924.27318572136
 20
-2897.534624247127
 30
0.0
 10
40924.3677124888
 20
-2897.528844197658
 30
0.0
 11
40923.3928787372
 21
-2897.626375230858
 31
0.0
 11
40923.46078241519
 21
-2897.608702419159
 31
0.0
 11
40923.549204571
 21
-2897.596610006258
 31
0.0
 11
40923.6795090069
 21
-2897.582264946658
 31
0.0
 11
40923.8562886466
 21
-2897.565861569158
 31
0.0
 11
40924.0842366974
 21
-2897.547816395558
 31
0.0
 11
40924.3677124888
 21
-2897.528844197658
 31
0.0
  0
SPLINE
  5
199
330
2
100
AcDbEntity
  8
0
  6
Continuous
 62
     7
100
AcDbSpline
210
0.0
220
0.0
230
1.0
 70
     8
 71
     3
 72
    15
 73
    11
 74
     9
 42
0.0000000001
 43
0.0000000001
 44
0.0000000001
 12
-0.0926957553910547
 22
-0.9956944797137733
 32
0.0
 13
-0.7443873539103967
 23
-0.6677480567836031
 33
0.0
 40
0.0
 40
0.0
 40
0.0
 40
0.0
 40
0.4328352685588547
 40
0.8898330883998717
 40
1.371187860779681
 40
1.871389994613813
 40
2.390923543020458
 40
2.927488485423822
 40
3.474948347810821
 40
4.027435461628221
 40
4.027435461628221
 40
4.027435461628221
 40
4.027435461628221
 10
40935.86520623779
 20
-2892.778681015058
 30
0.0
 10
40935.8518322404
 20
-2892.922338244235
 30
0.0
 10
40935.81472936267
 20
-2893.216865667528
 30
0.0
 10
40935.72731775844
 20
-2893.665848586119
 30
0.0
 10
40935.60189119062
 20
-2894.129145972423
 30
0.0
 10
40935.43342064081
 20
-2894.60089490988
 30
0.0
 10
40935.21683055708
 20
-2895.07308741847
 30
0.0
 10
40934.94683117644
 20
-2895.535564935678
 30
0.0
 10
40934.62003803902
 20
-2895.973877195424
 30
0.0
 10
40934.36423418864
 20
-2896.238424211809
 30
0.0
 10
40934.22714604839
 20
-2896.361398277359
 30
0.0
 11
40935.86520623779
 21
-2892.778681015058
 31
0.0
 11
40935.81109392649
 21
-2893.208120449058
 31
0.0
 11
40935.72365339209
 21
-2893.656674972259
 31
0.0
 11
40935.5976229706
 21
-2894.121237938659
 31
0.0
 11
40935.42898081349
 21
-2894.592154064459
 31
0.0
 11
40935.2117365859
 21
-2895.064086319658
 31
0.0
 11
40934.94034913409
 21
-2895.526958643758
 31
0.0
 11
40934.61208517879
 21
-2895.965085425159
 31
0.0
 11
40934.22714604839
 21
-2896.361398277359
 31
0.0
  0
SPLINE
  5
19A
330
2
100
AcDbEntity
  8
0
  6
Continuous
 62
     7
100
AcDbSpline
210
0.0
220
0.0
230
1.0
 70
     8
 71
     3
 72
     8
 73
     4
 74
     2
 42
0.0000000001
 43
0.0000000001
 44
0.0000000001
 12
-0.0673886741093987
 22
0.9977267995808158
 32
0.0
 13
-0.1029914259006382
 23
0.9946822438301355
 33
0.0
 40
0.0
 40
0.0
 40
0.0
 40
0.0
 40
0.7525797379552243
 40
0.7525797379552243
 40
0.7525797379552243
 40
0.7525797379552243
 10
40935.9435800717
 20
-2843.386242434359
 30
0.0
 10
40935.92667495479
 20
-2843.135952776565
 30
0.0
 10
40935.9052288535
 20
-2842.885930880062
 30
0.0
 10
40935.8793924334
 20
-2842.636404979258
 30
0.0
 11
40935.9435800717
 21
-2843.386242434359
 31
0.0
 11
40935.8793924334
 21
-2842.636404979258
 31
0.0
  0
SPLINE
  5
19B
330
2
100
AcDbEntity
  8
0
  6
Continuous
 62
     7
100
AcDbSpline
210
0.0
220
0.0
230
1.0
 70
     8
 71
     3
 72
    10
 73
     6
 74
     4
 42
0.0000000001
 43
0.0000000001
 44
0.0000000001
 12
-0.2140008516815591
 22
-0.9768334737710249
 32
0.0
 13
-0.2124455199061685
 23
-0.9771729125757621
 33
0.0
 40
0.0
 40
0.0
 40
0.0
 40
0.0
 40
0.8542723034912242
 40
1.695987512600884
 40
2.526506605235296
 40
2.526506605235296
 40
2.526506605235296
 40
2.526506605235296
 10
40942.23115668279
 20
-2888.460104847059
 30
0.0
 10
40942.17021834929
 20
-2888.738265440981
 30
0.0
 10
40942.04866324573
 20
-2889.290372011639
 30
0.0
 10
40941.86811710404
 20
-2890.112959924748
 30
0.0
 10
40941.74816265107
 20
-2890.657312309292
 30
0.0
 10
40941.68934929759
 20
-2890.927832562859
 30
0.0
 11
40942.23115668279
 21
-2888.460104847059
 31
0.0
 11
40942.04785421039
 21
-2889.294479686159
 31
0.0
 11
40941.8672016717
 21
-2890.116580138359
 31
0.0
 11
40941.68934929759
 21
-2890.927832562859
 31
0.0
  0
SPLINE
  5
19C
330
2
100
AcDbEntity
  8
0
  6
Continuous
 62
     7
100
AcDbSpline
210
0.0
220
0.0
230
1.0
 70
     8
 71
     3
 72
    15
 73
    11
 74
     9
 42
0.0000000001
 43
0.0000000001
 44
0.0000000001
 12
-0.2124878553870186
 22
-0.9771637075296164
 32
0.0
 13
-0.8657251327350316
 23
-0.500519724437421
 33
0.0
 40
0.0
 40
0.0
 40
0.0
 40
0.0
 40
0.5733908675122978
 40
1.196624520215519
 40
1.878121324402548
 40
2.619749811738252
 40
3.432973839745537
 40
4.325987830685114
 40
5.299444830791566
 40
6.349565799177789
 40
6.349565799177789
 40
6.349565799177789
 40
6.349565799177789
 10
40941.68934929759
 20
-2890.927832562859
 30
0.0
 10
40941.64873643235
 20
-2891.114598144846
 30
0.0
 10
40941.54195406266
 20
-2891.499801356495
 30
0.0
 10
40941.31379209321
 20
-2892.083917663354
 30
0.0
 10
40940.99901844935
 20
-2892.690542582387
 30
0.0
 10
40940.58754562087
 20
-2893.313753214755
 30
0.0
 10
40940.0683786721
 20
-2893.945158627024
 30
0.0
 10
40939.43119646648
 20
-2894.573475393315
 30
0.0
 10
40938.67070772576
 20
-2895.18178318856
 30
0.0
 10
40938.10258498141
 20
-2895.547928020251
 30
0.0
 10
40937.79954627649
 20
-2895.723130106159
 30
0.0
 11
40941.68934929759
 21
-2890.927832562859
 31
0.0
 11
40941.5375416376
 21
-2891.480762505358
 31
0.0
 11
40941.31124331729
 21
-2892.061459720859
 31
0.0
 11
40940.9984214077
 21
-2892.666918511358
 31
0.0
 11
40940.59077987189
 21
-2893.286467695459
 31
0.0
 11
40940.07534312209
 21
-2893.915481428759
 31
0.0
 11
40939.44051264109
 21
-2894.543545317559
 31
0.0
 11
40938.6813289791
 21
-2895.152855335858
 31
0.0
 11
40937.79954627649
 21
-2895.723130106159
 31
0.0
  0
SPLINE
  5
19D
330
2
100
AcDbEntity
  8
0
  6
Continuous
 62
     7
100
AcDbSpline
210
0.0
220
0.0
230
1.0
 70
     8
 71
     3
 72
    15
 73
    11
 74
     9
 42
0.0000000001
 43
0.0000000001
 44
0.0000000001
 12
-0.999572346519953
 22
0.0292425045540689
 32
0.0
 13
-0.5369872800736043
 23
0.8435903395838247
 33
0.0
 40
0.0
 40
0.0
 40
0.0
 40
0.0
 40
6.520771082748653
 40
13.2555825948821
 40
20.30366291418293
 40
27.89236215622493
 40
35.91527391373231
 40
44.68291393097432
 40
54.17674776165863
 40
55.65038020002031
 40
55.65038020002031
 40
55.65038020002031
 40
55.65038020002031
 10
41125.1958679269
 20
-2907.258891834858
 30
0.0
 10
41123.02320710946
 20
-2907.195330608831
 30
0.0
 10
41118.60756312781
 20
-2907.022822796578
 30
0.0
 10
41111.8575807459
 20
-2906.480177506171
 30
0.0
 10
41104.82403487742
 20
-2905.231329010154
 30
0.0
 10
41097.65806102082
 20
-2902.712732292029
 30
0.0
 10
41090.60257310642
 20
-2898.573493367064
 30
0.0
 10
41084.03418349928
 20
-2892.693831935121
 30
0.0
 10
41079.98022315699
 20
-2887.470454154987
 30
0.0
 10
41077.98487829129
 20
-2884.407581094025
 30
0.0
 10
41077.72110433299
 20
-2883.993200397658
 30
0.0
 11
41125.1958679269
 21
-2907.258891834858
 31
0.0
 11
41118.680994401
 21
-2906.981622191459
 31
0.0
 11
41111.97273272789
 21
-2906.384201544758
 31
0.0
 11
41105.045615465
 21
-2905.084015937458
 31
0.0
 11
41097.89437742269
 21
-2902.544695034459
 31
0.0
 11
41090.96955831089
 21
-2898.493276352358
 31
0.0
 11
41084.4028881566
 21
-2892.683770817758
 31
0.0
 11
41078.5257334855
 21
-2885.227770966859
 31
0.0
 11
41077.72110433299
 21
-2883.993200397658
 31
0.0
  0
SPLINE
  5
19E
330
2
100
AcDbEntity
  8
0
  6
Continuous
 62
     7
100
AcDbSpline
210
0.0
220
0.0
230
1.0
 70
     8
 71
     3
 72
     9
 73
     5
 74
     3
 42
0.0000000001
 43
0.0000000001
 44
0.0000000001
 12
-0.8658383281768861
 22
-0.5003238845586475
 32
0.0
 13
-0.8731282872558768
 23
-0.487490506567686
 33
0.0
 40
0.0
 40
0.0
 40
0.0
 40
0.0
 40
0.0917583997706571
 40
0.1842540976901336
 40
0.1842540976901336
 40
0.1842540976901336
 40
0.1842540976901336
 10
40937.79954627649
 20
-2895.723130106159
 30
0.0
 10
40937.77306363
 20
-2895.738433079163
 30
0.0
 10
40937.71982118802
 20
-2895.769051715107
 30
0.0
 10
40937.66628683402
 20
-2895.799157486847
 30
0.0
 10
40937.6393666306
 20
-2895.814187745058
 30
0.0
 11
40937.79954627649
 21
-2895.723130106159
 31
0.0
 11
40937.71996184409
 21
-2895.768802001759
 31
0.0
 11
40937.6393666306
 21
-2895.814187745058
 31
0.0
  0
SPLINE
  5
19F
330
2
100
AcDbEntity
  8
0
  6
Continuous
 62
     7
100
AcDbSpline
210
0.0
220
0.0
230
1.0
 70
     8
 71
     3
 72
    10
 73
     6
 74
     4
 42
0.0000000001
 43
0.0000000001
 44
0.0000000001
 12
0.9994254823835804
 22
0.0338925531990035
 32
0.0
 13
0.701584510981133
 23
0.7125862572007439
 33
0.0
 40
0.0
 40
0.0
 40
0.0
 40
0.0
 40
0.1162646713144171
 40
0.2812037401360271
 40
0.5329601961481075
 40
0.5329601961481075
 40
0.5329601961481075
 40
0.5329601961481075
 10
40935.91525299149
 20
-2897.365245113859
 30
0.0
 10
40935.95398561657
 20
-2897.363931611673
 30
0.0
 10
40936.00919442522
 20
-2897.262593575972
 30
0.0
 10
40936.14728722762
 20
-2897.16411646933
 30
0.0
 10
40936.24532495064
 20
-2897.060811984264
 30
0.0
 10
40936.30420109399
 20
-2897.001012587358
 30
0.0
 11
40935.91525299149
 21
-2897.365245113859
 31
0.0
 11
40936.00265576389
 21
-2897.288575503359
 31
0.0
 11
40936.12323652119
 21
-2897.176035833059
 31
0.0
 11
40936.30420109399
 21
-2897.001012587358
 31
0.0
  0
SPLINE
  5
1A0
330
2
100
AcDbEntity
  8
0
  6
Continuous
 62
     7
100
AcDbSpline
210
0.0
220
0.0
230
1.0
 70
     8
 71
     3
 72
    13
 73
     9
 74
     7
 42
0.0000000001
 43
0.0000000001
 44
0.0000000001
 12
0.7015845109558788
 22
0.7125862572256081
 32
0.0
 13
0.7832183369836339
 23
0.6217467624464089
 33
0.0
 40
0.0
 40
0.0
 40
0.0
 40
0.0
 40
0.3310322740022727
 40
0.6925916489489352
 40
1.046417794702394
 40
1.370565044273823
 40
1.664566805889907
 40
1.789741494253022
 40
1.789741494253022
 40
1.789741494253022
 40
1.789741494253022
 10
40936.30420109399
 20
-2897.001012587358
 30
0.0
 10
40936.38161679935
 20
-2896.922382904308
 30
0.0
 10
40936.54761485804
 20
-2896.761932346768
 30
0.0
 10
40936.79380637601
 20
-2896.514653308991
 30
0.0
 10
40937.04849254374
 20
-2896.280051753203
 30
0.0
 10
40937.28519669331
 20
-2896.057404867518
 30
0.0
 10
40937.49394642776
 20
-2895.922727991205
 30
0.0
 10
40937.60668692684
 20
-2895.840130064135
 30
0.0
 10
40937.6393666306
 20
-2895.814187745058
 30
0.0
 11
40936.30420109399
 21
-2897.001012587358
 31
0.0
 11
40936.53960111939
 21
-2896.768269822758
 31
0.0
 11
40936.7974037516
 21
-2896.514768374159
 31
0.0
 11
40937.05549214889
 21
-2896.272728458858
 31
0.0
 11
40937.2988788132
 21
-2896.058638825659
 31
0.0
 11
40937.53890976259
 21
-2895.888867864758
 31
0.0
 11
40937.6393666306
 21
-2895.814187745058
 31
0.0
  0
SPLINE
  5
1A1
330
2
100
AcDbEntity
  8
0
  6
Continuous
 62
     7
100
AcDbSpline
210
0.0
220
0.0
230
1.0
 70
     8
 71
     3
 72
    35
 73
    31
 74
    29
 42
0.0000000001
 43
0.0000000001
 44
0.0000000001
 12
0.9955613742061974
 22
0.0941145588560444
 32
0.0
 13
-0.9845914727374148
 23
0.1748703285659645
 33
0.0
 40
0.0
 40
0.0
 40
0.0
 40
0.0
 40
1.266645878300516
 40
2.324405087568477
 40
3.141884007179422
 40
3.677429288167525
 40
3.926820840921119
 40
4.098524330936242
 40
4.527855735520021
 40
5.24600482234175
 40
6.212674600222996
 40
7.380192705421171
 40
8.727896157276553
 40
10.25715108208251
 40
11.97605057408052
 40
13.88872807688704
 40
16.00067562079638
 40
18.33385697799825
 40
20.88525712438906
 40
23.58356718410583
 40
26.30999494451371
 40
28.88422852960183
 40
31.20310507429762
 40
33.29481184665215
 40
35.188874539953
 40
36.86040834652459
 40
38.37398678750928
 40
39.8218338730625
 40
41.27515735529241
 40
42.73273581564916
 40
42.73273581564916
 40
42.73273581564916
 40
42.73273581564916
 10
41122.75825435739
 20
-2879.703381423759
 30
0.0
 10
41123.17859559447
 20
-2879.663644817738
 30
0.0
 10
41123.95363669
 20
-2879.583241389802
 30
0.0
 10
41124.97726207958
 20
-2879.454016055373
 30
0.0
 10
41125.80753406463
 20
-2879.309087396634
 30
0.0
 10
41126.25108496608
 20
-2879.200236278962
 30
0.0
 10
41126.66281746788
 20
-2879.033573114627
 30
0.0
 10
41126.41993363739
 20
-2878.762129527283
 30
0.0
 10
41125.99313344545
 20
-2878.714073965264
 30
0.0
 10
41125.30095409042
 20
-2878.546982391429
 30
0.0
 10
41124.35788974266
 20
-2878.437011243518
 30
0.0
 10
41123.20426614479
 20
-2878.305019860957
 30
0.0
 10
41121.86188495116
 20
-2878.181234729757
 30
0.0
 10
41120.33533585747
 20
-2878.052144411381
 30
0.0
 10
41118.62026275646
 20
-2877.918468621503
 30
0.0
 10
41116.7110549756
 20
-2877.776050944421
 30
0.0
 10
41114.59742957765
 20
-2877.621505802934
 30
0.0
 10
41112.27155346174
 20
-2877.45018502561
 30
0.0
 10
41109.75124011373
 20
-2877.257923907566
 30
0.0
 10
41107.10125768181
 20
-2877.042428220099
 30
0.0
 10
41104.44535104217
 20
-2876.806613525122
 30
0.0
 10
41101.91750691011
 20
-2876.559617977481
 30
0.0
 10
41099.60246666406
 20
-2876.311414785072
 30
0.0
 10
41097.51512347207
 20
-2876.067190471086
 30
0.0
 10
41095.64433647637
 20
-2875.829728947033
 30
0.0
 10
41093.9668057937
 20
-2875.600786248276
 30
0.0
 10
41092.4385449501
 20
-2875.378524540469
 30
0.0
 10
41090.98414144854
 20
-2875.154200570019
 30
0.0
 10
41089.55019541586
 20
-2874.920066637061
 30
0.0
 10
41088.59403463043
 20
-2874.754922843949
 30
0.0
 10
41088.11566152279
 20
-2874.669960435858
 30
0.0
 11
41122.75825435739
 21
-2879.703381423759
 31
0.0
 11
41124.01801612129
 21
-2879.571502391158
 31
0.0
 11
41125.06664262249
 21
-2879.432804857759
 31
0.0
 11
41125.87124455839
 21
-2879.288279743159
 31
0.0
 11
41126.3864141467
 21
-2879.141961448759
 31
0.0
 11
41126.59050056329
 21
-2878.998626592059
 31
0.0
 11
41126.4916521832
 21
-2878.858230416058
 31
0.0
 11
41126.08595404149
 21
-2878.717750977058
 31
0.0
 11
41125.38133316339
 21
-2878.579015512759
 31
0.0
 11
41124.42399283079
 21
-2878.445038100358
 31
0.0
 11
41123.26364891969
 21
-2878.315807554658
 31
0.0
 11
41121.92198316749
 21
-2878.188380699058
 31
0.0
 11
41120.3982072624
 21
-2878.059045413558
 31
0.0
 11
41118.68459041209
 21
-2877.924387498959
 31
0.0
 11
41116.7772624176
 21
-2877.781435929759
 31
0.0
 11
41114.67099069749
 21
-2877.626704325559
 31
0.0
 11
41112.3441684159
 21
-2877.454561026459
 31
0.0
 11
41109.8002290078
 21
-2877.259586682159
 31
0.0
 11
41107.1108783337
 21
-2877.039882039359
 31
0.0
 11
41104.39520045409
 21
-2876.798010199358
 31
0.0
 11
41101.83322249409
 21
-2876.547116829458
 31
0.0
 11
41099.52761115859
 21
-2876.299438006859
 31
0.0
 11
41097.45012088639
 21
-2876.055980843458
 31
0.0
 11
41095.57116103339
 21
-2875.817268973258
 31
0.0
 11
41093.91499577899
 21
-2875.591123187059
 31
0.0
 11
41092.41719123009
 21
-2875.373175417358
 31
0.0
 11
41090.9862785932
 21
-2875.152380923058
 31
0.0
 11
41089.55196188049
 21
-2874.918106059558
 31
0.0
 11
41088.11566152279
 21
-2874.669960435858
 31
0.0
  0
SPLINE
  5
1A2
330
2
100
AcDbEntity
  8
0
  6
Continuous
 62
     7
100
AcDbSpline
210
0.0
220
0.0
230
1.0
 70
     8
 71
     3
 72
    13
 73
     9
 74
     7
 42
0.0000000001
 43
0.0000000001
 44
0.0000000001
 12
0.4847327079145525
 22
-0.8746623359204541
 32
0.0
 13
0.9999999938886524
 23
-0.0001105562979279
 33
0.0
 40
0.0
 40
0.0
 40
0.0
 40
0.0
 40
11.42534458517413
 40
22.94068043675796
 40
34.48121649825971
 40
46.01265051923461
 40
57.49597397174041
 40
68.86922086491094
 40
68.86922086491094
 40
68.86922086491094
 40
68.86922086491094
 10
41057.62097937439
 20
-2888.889639263659
 30
0.0
 10
41059.46705878094
 20
-2892.22074545818
 30
0.0
 10
41063.77376535792
 20
-2898.596315200555
 30
0.0
 10
41071.82985512614
 20
-2906.875648402536
 30
0.0
 10
41081.25688900608
 20
-2913.619655281978
 30
0.0
 10
41091.72168721945
 20
-2918.578274028972
 30
0.0
 10
41102.84080046589
 20
-2921.592490955617
 30
0.0
 10
41110.47652395184
 20
-2922.264235408934
 30
0.0
 10
41114.26760622639
 20
-2922.264654536958
 30
0.0
 11
41057.62097937439
 21
-2888.889639263659
 31
0.0
 11
41064.0180812208
 21
-2898.356190211958
 31
0.0
 11
41072.04781421179
 21
-2906.610058872658
 31
0.0
 11
41081.43418842019
 21
-2913.324219416359
 31
0.0
 11
41091.85470529609
 21
-2918.262518578959
 31
0.0
 11
41102.9382888964
 21
-2921.265998575558
 31
0.0
 11
41114.26760622639
 21
-2922.264654536958
 31
0.0
  0
SPLINE
  5
1A3
330
2
100
AcDbEntity
  8
0
  6
Continuous
 62
     7
100
AcDbSpline
210
0.0
220
0.0
230
1.0
 70
     8
 71
     3
 72
     8
 73
     4
 74
     2
 42
0.0000000001
 43
0.0000000001
 44
0.0000000001
 12
0.4558289365710142
 22
-0.8900674022704901
 32
0.0
 13
0.4846594349112602
 23
-0.8747029393751331
 33
0.0
 40
0.0
 40
0.0
 40
0.0
 40
0.0
 40
3.196241240570679
 40
3.196241240570679
 40
3.196241240570679
 40
3.196241240570679
 10
41056.11825521999
 20
-2886.068685846159
 30
0.0
 10
41056.60390163524
 20
-2887.016975892167
 30
0.0
 10
41057.10461654989
 20
-2887.957718727632
 30
0.0
 10
41057.62097937439
 20
-2888.889639263659
 30
0.0
 11
41056.11825521999
 21
-2886.068685846159
 31
0.0
 11
41057.62097937439
 21
-2888.889639263659
 31
0.0
  0
SPLINE
  5
1A4
330
2
100
AcDbEntity
  8
0
  6
Continuous
 62
     7
100
AcDbSpline
210
0.0
220
0.0
230
1.0
 70
     8
 71
     3
 72
    14
 73
    10
 74
     8
 42
0.0000000001
 43
0.0000000001
 44
0.0000000001
 12
-0.0091634048972898
 22
-0.9999580151239793
 32
0.0
 13
0.9998746058030654
 23
-0.0158358034265508
 33
0.0
 40
0.0
 40
0.0
 40
0.0
 40
0.0
 40
0.0415215727970763
 40
0.1456471018998184
 40
0.3236158887524509
 40
0.5848531644589963
 40
0.9387741382973036
 40
1.39487303991709
 40
1.961761223128599
 40
1.961761223128599
 40
1.961761223128599
 40
1.961761223128599
 10
40920.39288024899
 20
-2894.626818395858
 30
0.0
 10
40920.39275342266
 20
-2894.640658339032
 30
0.0
 10
40920.45560269202
 20
-2894.660006929644
 30
0.0
 10
40920.54705193153
 20
-2894.676759666401
 30
0.0
 10
40920.73592112676
 20
-2894.696408027943
 30
0.0
 10
40920.99571145548
 20
-2894.713083316359
 30
0.0
 10
40921.35418629499
 20
-2894.728665087249
 30
0.0
 10
40921.81230038705
 20
-2894.74173574215
 30
0.0
 10
40922.15343260399
 20
-2894.748181034347
 30
0.0
 10
40922.34237163689
 20
-2894.751173410959
 30
0.0
 11
40920.39288024899
 21
-2894.626818395858
 31
0.0
 11
40920.42682506959
 21
-2894.650730530059
 31
0.0
 11
40920.52868416719
 21
-2894.672337243058
 31
0.0
 11
40920.70552921749
 21
-2894.692305149259
 31
0.0
 11
40920.96613796039
 21
-2894.710415846258
 31
0.0
 11
40921.3196979137
 21
-2894.726397558958
 31
0.0
 11
40921.7755928921
 21
-2894.740034887558
 31
0.0
 11
40922.34237163689
 21
-2894.751173410959
 31
0.0
  0
SPLINE
  5
1A5
330
2
100
AcDbEntity
  8
0
  6
Continuous
 62
     7
100
AcDbSpline
210
0.0
220
0.0
230
1.0
 70
     8
 71
     3
 72
    10
 73
     6
 74
     4
 42
0.0000000001
 43
0.0000000001
 44
0.0000000001
 12
0.9704675490907648
 22
-0.241231706377425
 32
0.0
 13
0.9878856281807387
 23
-0.1551837157499049
 33
0.0
 40
0.0
 40
0.0
 40
0.0
 40
0.0
 40
0.8969448642202577
 40
1.88386057048238
 40
2.78427774239326
 40
2.78427774239326
 40
2.78427774239326
 40
2.78427774239326
 10
41098.8935860965
 20
-2881.961717125658
 30
0.0
 10
41099.18373805784
 20
-2882.033840972366
 30
0.0
 10
41099.79522825702
 20
-2882.177093343038
 30
0.0
 10
41100.70479332898
 20
-2882.362306443863
 30
0.0
 10
41101.32482573793
 20
-2882.469423561405
 30
0.0
 10
41101.62132879909
 20
-2882.516000255558
 30
0.0
 11
41098.8935860965
 21
-2881.961717125658
 31
0.0
 11
41099.76691457039
 21
-2882.166185866859
 31
0.0
 11
41100.73400226379
 21
-2882.363020834659
 31
0.0
 11
41101.62132879909
 21
-2882.516000255558
 31
0.0
  0
SPLINE
  5
1A6
330
2
100
AcDbEntity
  8
0
  6
Continuous
 62
     7
100
AcDbSpline
210
0.0
220
0.0
230
1.0
 70
     8
 71
     3
 72
     8
 73
     4
 74
     2
 42
0.0000000001
 43
0.0000000001
 44
0.0000000001
 12
0.9878856281752435
 22
-0.1551837157848872
 32
0.0
 13
0.9918691354490389
 23
-0.1272620058916882
 33
0.0
 40
0.0
 40
0.0
 40
0.0
 40
0.0
 40
0.7994697268404213
 40
0.7994697268404213
 40
0.7994697268404213
 40
0.7994697268404213
 10
41101.62132879909
 20
-2882.516000255558
 30
0.0
 10
41101.8845903502
 20
-2882.557355149848
 30
0.0
 10
41102.1484404982
 20
-2882.595147164296
 30
0.0
 10
41102.4127636138
 20
-2882.629061204659
 30
0.0
 11
41101.62132879909
 21
-2882.516000255558
 31
0.0
 11
41102.4127636138
 21
-2882.629061204659
 31
0.0
  0
SPLINE
  5
1A7
330
2
100
AcDbEntity
  8
0
  6
Continuous
 62
     7
100
AcDbSpline
210
0.0
220
0.0
230
1.0
 70
     8
 71
     3
 72
    13
 73
     9
 74
     7
 42
0.0000000001
 43
0.0000000001
 44
0.0000000001
 12
0.9918691354426728
 22
-0.1272620059413061
 32
0.0
 13
0.9870849072559384
 23
0.1601979583750535
 33
0.0
 40
0.0
 40
0.0
 40
0.0
 40
0.0
 40
0.7182667905584778
 40
1.407105093126501
 40
2.088005579139762
 40
2.739310038503719
 40
3.341003008302335
 40
3.88372956063582
 40
3.88372956063582
 40
3.88372956063582
 40
3.88372956063582
 10
41102.4127636138
 20
-2882.629061204659
 30
0.0
 10
41102.65023916732
 20
-2882.659530562181
 30
0.0
 10
41103.11627682953
 20
-2882.713097929266
 30
0.0
 10
41103.80984394459
 20
-2882.772482559489
 30
0.0
 10
41104.48271487651
 20
-2882.808132201413
 30
0.0
 10
41105.12756852476
 20
-2882.816024466812
 30
0.0
 10
41105.72588614009
 20
-2882.790124156041
 30
0.0
 10
41106.1055422378
 20
-2882.748013600505
 30
0.0
 10
41106.28411463399
 20
-2882.719032371959
 30
0.0
 11
41102.4127636138
 21
-2882.629061204659
 31
0.0
 11
41103.1263771215
 21
-2882.710688063259
 31
0.0
 11
41103.8127457059
 21
-2882.768966476359
 31
0.0
 11
41104.49274763059
 21
-2882.803935809559
 31
0.0
 11
41105.1440242074
 21
-2882.809962358459
 31
0.0
 11
41105.74507616719
 21
-2882.782195984259
 31
0.0
 11
41106.28411463399
 21
-2882.719032371959
 31
0.0
  0
SPLINE
  5
1A8
330
2
100
AcDbEntity
  8
0
  6
Continuous
 62
     7
100
AcDbSpline
210
0.0
220
0.0
230
1.0
 70
     8
 71
     3
 72
    12
 73
     8
 74
     6
 42
0.0000000001
 43
0.0000000001
 44
0.0000000001
 12
-0.9227212048774516
 22
-0.3854679987618996
 32
0.0
 13
-0.9241373689604282
 23
-0.3820603660298953
 33
0.0
 40
0.0
 40
0.0
 40
0.0
 40
0.0
 40
0.8369003404276254
 40
1.784966363580835
 40
2.835245811155903
 40
3.971738032131379
 40
5.175235303895878
 40
5.175235303895878
 40
5.175235303895878
 40
5.175235303895878
 10
41130.31499077199
 20
-2922.264654563459
 30
0.0
 10
41130.05758220849
 20
-2922.372187329921
 30
0.0
 10
41129.50786873205
 20
-2922.59985121512
 30
0.0
 10
41128.63287006715
 20
-2922.957012795894
 30
0.0
 10
41127.66363770489
 20
-2923.347529668017
 30
0.0
 10
41126.61654766721
 20
-2923.772624475409
 30
0.0
 10
41125.89463454222
 20
-2924.067992428303
 30
0.0
 10
41125.5239022748
 20
-2924.221261964359
 30
0.0
 11
41130.31499077199
 21
-2922.264654563459
 31
0.0
 11
41129.54185069829
 21
-2922.585055259859
 31
0.0
 11
41128.6641599277
 21
-2922.943507621359
 31
0.0
 11
41127.69045923079
 21
-2923.337200230958
 31
0.0
 11
41126.63743014839
 21
-2923.764686277458
 31
0.0
 11
41125.5239022748
 21
-2924.221261964359
 31
0.0
  0
SPLINE
  5
1A9
330
2
100
AcDbEntity
  8
0
  6
Continuous
 62
     7
100
AcDbSpline
210
0.0
220
0.0
230
1.0
 70
     8
 71
     3
 72
    19
 73
    15
 74
    13
 42
0.0000000001
 43
0.0000000001
 44
0.0000000001
 12
0.9870850216391286
 22
0.1601972535834536
 32
0.0
 13
0.9942861862290019
 23
0.1067472710385915
 33
0.0
 40
0.0
 40
0.0
 40
0.0
 40
0.0
 40
0.6026095770209045
 40
1.24924321655135
 40
1.964999225223564
 40
2.774653596380089
 40
3.695228672838903
 40
4.734943587098076
 40
5.908700375383181
 40
7.244249726589107
 40
8.772345343815617
 40
10.52805678320806
 40
12.52744213037421
 40
14.78500715219937
 40
14.78500715219937
 40
14.78500715219937
 40
14.78500715219937
 10
41106.28411463399
 20
-2882.719032371959
 30
0.0
 10
41106.48239026311
 20
-2882.686853572218
 30
0.0
 10
41106.89357962351
 20
-2882.621085181492
 30
0.0
 10
41107.54076838655
 20
-2882.520221956794
 30
0.0
 10
41108.25656949186
 20
-2882.411463854388
 30
0.0
 10
41109.06308365245
 20
-2882.291886023089
 30
0.0
 10
41109.97698597918
 20
-2882.160365081225
 30
0.0
 10
41111.01157379598
 20
-2882.015474421392
 30
0.0
 10
41112.18386654321
 20
-2881.856563230906
 30
0.0
 10
41113.51870160139
 20
-2881.685051782434
 30
0.0
 10
41115.0469477596
 20
-2881.496795500266
 30
0.0
 10
41116.79654830897
 20
-2881.296044350233
 30
0.0
 10
41118.78872972926
 20
-2881.076688776368
 30
0.0
 10
41120.19948231946
 20
-2880.924064824749
 30
0.0
 10
41120.9477042247
 20
-2880.843735189658
 30
0.0
 11
41106.28411463399
 21
-2882.719032371959
 31
0.0
 11
41106.8791493912
 21
-2882.623785639558
 31
0.0
 11
41107.5180617687
 21
-2882.524156137658
 31
0.0
 11
41108.2256848624
 21
-2882.416563288359
 31
0.0
 11
41109.02658766289
 21
-2882.297841323758
 31
0.0
 11
41109.93775413859
 21
-2882.166562517559
 31
0.0
 11
41110.96742353909
 21
-2882.022381975859
 31
0.0
 11
41112.13059046199
 21
-2881.865067934759
 31
0.0
 11
41113.4551782224
 21
-2881.694306889759
 31
0.0
 11
41114.97187779919
 21
-2881.508031262958
 31
0.0
 11
41116.71598991479
 21
-2881.306547798058
 31
0.0
 11
41118.70325139269
 21
-2881.086698793258
 31
0.0
 11
41120.9477042247
 21
-2880.843735189658
 31
0.0
  0
SPLINE
  5
1AA
330
2
100
AcDbEntity
  8
0
  6
Continuous
 62
     7
100
AcDbSpline
210
0.0
220
0.0
230
1.0
 70
     8
 71
     3
 72
     8
 73
     4
 74
     2
 42
0.0000000001
 43
0.0000000001
 44
0.0000000001
 12
0.9942861862299576
 22
0.1067472710296914
 32
0.0
 13
0.9944376479706129
 23
0.1053269400423073
 33
0.0
 40
0.0
 40
0.0
 40
0.0
 40
0.0
 40
2.545907166730243
 40
2.545907166730243
 40
2.545907166730243
 40
2.545907166730243
 10
41120.9477042247
 20
-2880.843735189658
 30
0.0
 10
41121.79149100047
 20
-2880.753145642211
 30
0.0
 10
41122.63536122429
 20
-2880.663332561393
 30
0.0
 10
41123.4792765359
 20
-2880.573948357558
 30
0.0
 11
41120.9477042247
 21
-2880.843735189658
 31
0.0
 11
41123.4792765359
 21
-2880.573948357558
 31
0.0
  0
SPLINE
  5
1AB
330
2
100
AcDbEntity
  8
0
  6
Continuous
 62
     7
100
AcDbSpline
210
0.0
220
0.0
230
1.0
 70
     8
 71
     3
 72
     8
 73
     4
 74
     2
 42
0.0000000001
 43
0.0000000001
 44
0.0000000001
 12
0.9944376479740615
 22
0.1053269400097456
 32
0.0
 13
0.994545058923351
 23
0.1043078413694197
 33
0.0
 40
0.0
 40
0.0
 40
0.0
 40
0.0
 40
2.881094322900823
 40
2.881094322900823
 40
2.881094322900823
 40
2.881094322900823
 10
41123.4792765359
 20
-2880.573948357558
 30
0.0
 10
41124.43429942326
 20
-2880.472796074588
 30
0.0
 10
41125.38938057324
 20
-2880.372192976693
 30
0.0
 10
41126.34450661429
 20
-2880.272019400159
 30
0.0
 11
41123.4792765359
 21
-2880.573948357558
 31
0.0
 11
41126.34450661429
 21
-2880.272019400159
 31
0.0
  0
SPLINE
  5
1AC
330
2
100
AcDbEntity
  8
0
  6
Continuous
 62
     7
100
AcDbSpline
210
0.0
220
0.0
230
1.0
 70
     8
 71
     3
 72
     9
 73
     5
 74
     3
 42
0.0000000001
 43
0.0000000001
 44
0.0000000001
 12
-0.9983309545312179
 22
-0.0577521014750771
 32
0.0
 13
-0.9999238801540236
 23
0.0123383101647441
 33
0.0
 40
0.0
 40
0.0
 40
0.0
 40
0.0
 40
0.4389985127312468
 40
0.8648687669953115
 40
0.8648687669953115
 40
0.8648687669953115
 40
0.8648687669953115
 10
41114.26760624359
 20
-2927.611595252358
 30
0.0
 10
41114.12151764217
 20
-2927.620046281243
 30
0.0
 10
41113.83341030085
 20
-2927.631936099742
 30
0.0
 10
41113.5450560801
 20
-2927.633704847688
 30
0.0
 10
41113.4031101344
 20
-2927.631953341259
 30
0.0
 11
41114.26760624359
 21
-2927.611595252358
 31
0.0
 11
41113.82897337329
 21
-2927.629508914059
 31
0.0
 11
41113.4031101344
 21
-2927.631953341259
 31
0.0
  0
SPLINE
  5
1AD
330
2
100
AcDbEntity
  8
0
  6
Continuous
 62
     7
100
AcDbSpline
210
0.0
220
0.0
230
1.0
 70
     8
 71
     3
 72
    10
 73
     6
 74
     4
 42
0.0000000001
 43
0.0000000001
 44
0.0000000001
 12
0.9999405852065564
 22
-0.0109007365241813
 32
0.0
 13
0.9999297333293934
 23
0.0118544676729043
 33
0.0
 40
0.0
 40
0.0
 40
0.0
 40
0.0
 40
1.648806750297767
 40
3.260320122806893
 40
4.790590625214191
 40
4.790590625214191
 40
4.790590625214191
 40
4.790590625214191
 10
41125.52469778029
 20
-2922.264654517159
 30
0.0
 10
41126.07426737589
 20
-2922.270645586479
 30
0.0
 10
41127.16102306833
 20
-2922.278597924785
 30
0.0
 10
41128.7578996761
 20
-2922.278652927678
 30
0.0
 10
41129.80514408076
 20
-2922.270701340959
 30
0.0
 10
41130.31519840589
 20
-2922.264654493558
 30
0.0
 11
41125.52469778029
 21
-2922.264654517159
 31
0.0
 11
41127.1734607884
 21
-2922.276664635358
 31
0.0
 11
41128.78497415699
 21
-2922.276552334658
 31
0.0
 11
41130.31519840589
 21
-2922.264654493558
 31
0.0
  0
SPLINE
  5
1AE
330
2
100
AcDbEntity
  8
0
  6
Continuous
 62
     7
100
AcDbSpline
210
0.0
220
0.0
230
1.0
 70
     8
 71
     3
 72
     9
 73
     5
 74
     3
 42
0.0000000001
 43
0.0000000001
 44
0.0000000001
 12
-0.9998325951988416
 22
0.0182970374090825
 32
0.0
 13
-0.999991967184118
 23
0.0040081875252516
 33
0.0
 40
0.0
 40
0.0
 40
0.0
 40
0.0
 40
2.308118296692907
 40
4.717703121654848
 40
4.717703121654848
 40
4.717703121654848
 40
4.717703121654848
 10
41129.91327860289
 20
-2907.308728238658
 30
0.0
 10
41129.14403463402
 20
-2907.294650996386
 30
0.0
 10
41127.57159866586
 20
-2907.272865767262
 30
0.0
 10
41125.99905678663
 20
-2907.262128036604
 30
0.0
 10
41125.1958682969
 20
-2907.258908680658
 30
0.0
 11
41129.91327860289
 21
-2907.308728238658
 31
0.0
 11
41127.6053926575
 21
-2907.275978665058
 31
0.0
 11
41125.1958682969
 21
-2907.258908680658
 31
0.0
  0
SPLINE
  5
1AF
330
2
100
AcDbEntity
  8
0
  6
Continuous
 62
     7
100
AcDbSpline
210
0.0
220
0.0
230
1.0
 70
     8
 71
     3
 72
    27
 73
    23
 74
    21
 42
0.0000000001
 43
0.0000000001
 44
0.0000000001
 12
-0.999130826820158
 22
-0.0416844203230346
 32
0.0
 13
-0.9999850833487705
 23
0.0054619666744239
 33
0.0
 40
0.0
 40
0.0
 40
0.0
 40
0.0
 40
0.343163267477788
 40
1.225785840855675
 40
2.469777068525847
 40
3.943905888211586
 40
5.551731381949187
 40
7.223455357785748
 40
8.909520650276073
 40
10.57350735533884
 40
12.1916792752303
 40
13.74973553783553
 40
15.21634652830562
 40
16.66973732129564
 40
18.26776952482328
 40
20.10628997794939
 40
22.18189844801671
 40
24.5240427595728
 40
27.16560211848563
 40
30.14082944411803
 40
33.48040629163478
 40
37.22159484280667
 40
37.22159484280667
 40
37.22159484280667
 40
37.22159484280667
 10
41181.80927372339
 20
-2907.228577031258
 30
0.0
 10
41181.69498539034
 20
-2907.233345218552
 30
0.0
 10
41181.28672945203
 20
-2907.249999641155
 30
0.0
 10
41180.46405038296
 20
-2907.280966056733
 30
0.0
 10
41179.26444518115
 20
-2907.32039574714
 30
0.0
 10
41177.82300418689
 20
-2907.360138421489
 30
0.0
 10
41176.23883193274
 20
-2907.395490711794
 30
0.0
 10
41174.58386797356
 20
-2907.424089096452
 30
0.0
 10
41172.91007734952
 20
-2907.445712255955
 30
0.0
 10
41171.25406881934
 20
-2907.460759927166
 30
0.0
 10
41169.64070506444
 20
-2907.472380748308
 30
0.0
 10
41168.09311169433
 20
-2907.480436689596
 30
0.0
 10
41166.60043258289
 20
-2907.485165264488
 30
0.0
 10
41165.09442462411
 20
-2907.488404215787
 30
0.0
 10
41163.46444450875
 20
-2907.490493266101
 30
0.0
 10
41161.62705737279
 20
-2907.490928720886
 30
0.0
 10
41159.54163300329
 20
-2907.49119266626
 30
0.0
 10
41157.18852893881
 20
-2907.490509199785
 30
0.0
 10
41154.53555275137
 20
-2907.488246237469
 30
0.0
 10
41151.55010175018
 20
-2907.483301532286
 30
0.0
 10
41148.19811803378
 20
-2907.473269877925
 30
0.0
 10
41145.83788632578
 20
-2907.462444828988
 30
0.0
 10
41144.59084207739
 20
-2907.455633413258
 30
0.0
 11
41181.80927372339
 21
-2907.228577031258
 31
0.0
 11
41181.4663958423
 21
-2907.242569414858
 31
0.0
 11
41180.58440107299
 21
-2907.275853554558
 31
0.0
 11
41179.3410862749
 21
-2907.316871689158
 31
0.0
 11
41177.86752230319
 21
-2907.357676080159
 31
0.0
 11
41176.26010027199
 21
-2907.393693186158
 31
0.0
 11
41174.58862965349
 21
-2907.422796843558
 31
0.0
 11
41172.90270694229
 21
-2907.444723594358
 31
0.0
 11
41171.2387937907
 21
-2907.460368995058
 31
0.0
 11
41169.620663501
 21
-2907.471976229759
 31
0.0
 11
41168.06262815879
 21
-2907.480050255058
 31
0.0
 11
41166.5960252846
 21
-2907.484929471959
 31
0.0
 11
41165.1426379498
 21
-2907.488099992259
 31
0.0
 11
41163.5446070379
 21
-2907.490131767458
 31
0.0
 11
41161.7060867363
 21
-2907.490878202859
 31
0.0
 11
41159.630478273
 21
-2907.491045863459
 31
0.0
 11
41157.2883340703
 21
-2907.490331790859
 31
0.0
 11
41154.64677573309
 21
-2907.488008467958
 31
0.0
 11
41151.67155283059
 21
-2907.482878203959
 31
0.0
 11
41148.33199108829
 21
-2907.472833808658
 31
0.0
 11
41144.59084207739
 21
-2907.455633413258
 31
0.0
  0
SPLINE
  5
1B0
330
2
100
AcDbEntity
  8
0
  6
Continuous
 62
     7
100
AcDbSpline
210
0.0
220
0.0
230
1.0
 70
     8
 71
     3
 72
    35
 73
    31
 74
    29
 42
0.0000000001
 43
0.0000000001
 44
0.0000000001
 12
0.9945344687722423
 22
0.1044087660300321
 32
0.0
 13
-0.8650440083157999
 23
0.5016959873039989
 33
0.0
 40
0.0
 40
0.0
 40
0.0
 40
0.0
 40
1.172800482590541
 40
2.154338127779938
 40
2.923554600441407
 40
3.460333199627817
 40
3.817031024461432
 40
4.189278850025757
 40
4.759195322375643
 40
5.578284153072655
 40
6.616818252620099
 40
7.835815192479804
 40
9.220795988416732
 40
10.77624037953675
 40
12.51090287447042
 40
14.4277453946243
 40
16.52903475743437
 40
18.83053423763034
 40
21.32052949241989
 40
23.92089188190461
 40
26.5189172852828
 40
28.95579313230522
 40
31.13657440672009
 40
33.09106755235788
 40
34.85371600173048
 40
36.41069048364757
 40
37.82185382885602
 40
39.1733151193052
 40
40.53409435735392
 40
41.90479887900751
 40
41.90479887900751
 40
41.90479887900751
 40
41.90479887900751
 10
41126.34450661429
 20
-2880.272019400159
 30
0.0
 10
41126.73330344927
 20
-2880.23120251643
 30
0.0
 10
41127.44572885304
 20
-2880.140462234792
 30
0.0
 10
41128.4048970081
 20
-2879.956969522643
 30
0.0
 10
41129.13207062037
 20
-2879.725746338183
 30
0.0
 10
41129.6345904305
 20
-2879.475477732786
 30
0.0
 10
41129.87810135244
 20
-2879.07400336157
 30
0.0
 10
41129.67425823878
 20
-2878.640893519075
 30
0.0
 10
41129.21915793045
 20
-2878.271832808078
 30
0.0
 10
41128.52006780128
 20
-2877.856900497605
 30
0.0
 10
41127.59051066674
 20
-2877.423275860215
 30
0.0
 10
41126.46583840254
 20
-2876.964539379216
 30
0.0
 10
41125.16544753876
 20
-2876.483312757205
 30
0.0
 10
41123.69324151219
 20
-2875.972095643328
 30
0.0
 10
41122.04637559269
 20
-2875.424013154079
 30
0.0
 10
41120.22252851214
 20
-2874.831735779665
 30
0.0
 10
41118.21728514574
 20
-2874.186352085983
 30
0.0
 10
41116.0315233971
 20
-2873.478248419952
 30
0.0
 10
41113.69255535185
 20
-2872.703358238979
 30
0.0
 10
41111.2696934892
 20
-2871.867805454862
 30
0.0
 10
41108.8781388195
 20
-2870.996774613188
 30
0.0
 10
41106.63436388345
 20
-2870.129942395359
 30
0.0
 10
41104.60762434414
 20
-2869.297910375859
 30
0.0
 10
41102.80502356371
 20
-2868.512879811927
 30
0.0
 10
41101.20820728478
 20
-2867.777156986068
 30
0.0
 10
41099.78837444693
 20
-2867.090837089539
 30
0.0
 10
41098.50301491532
 20
-2866.441790061511
 30
0.0
 10
41097.28654925718
 20
-2865.80183451484
 30
0.0
 10
41096.09255032718
 20
-2865.148537972467
 30
0.0
 10
41095.30110659511
 20
-2864.698306791323
 30
0.0
 10
41094.90586668389
 20
-2864.469081138558
 30
0.0
 11
41126.34450661429
 21
-2880.272019400159
 31
0.0
 11
41127.5073114823
 21
-2880.119226039959
 31
0.0
 11
41128.4689445087
 21
-2879.922558626658
 31
0.0
 11
41129.1988674853
 21
-2879.679852157759
 31
0.0
 11
41129.65359386819
 21
-2879.394623861058
 31
0.0
 11
41129.81413641979
 21
-2879.076096896159
 31
0.0
 11
41129.69035871119
 21
-2878.725030631059
 31
0.0
 11
41129.27662432209
 21
-2878.333075734758
 31
0.0
 11
41128.5781528231
 21
-2877.905239226659
 31
0.0
 11
41127.6418688634
 21
-2877.455878099358
 31
0.0
 11
41126.51487704169
 21
-2876.991289062458
 31
0.0
 11
41125.21726190859
 21
-2876.507174642659
 31
0.0
 11
41123.74866490109
 21
-2875.994700171658
 31
0.0
 11
41122.10337421809
 21
-2875.445088909258
 31
0.0
 11
41120.28076066669
 21
-2874.851485431058
 31
0.0
 11
41118.28100830549
 21
-2874.206189002958
 31
0.0
 11
41116.0920529047
 21
-2873.495292308158
 31
0.0
 11
41113.7290520859
 21
-2872.710242310258
 31
0.0
 11
41111.27143879389
 21
-2871.860523848858
 31
0.0
 11
41108.83070160959
 21
-2870.970277818959
 31
0.0
 11
41106.55804078899
 21
-2870.090859438258
 31
0.0
 11
41104.54100343059
 21
-2869.261783288758
 31
0.0
 11
41102.74933730649
 21
-2868.480773713858
 31
0.0
 11
41101.1484059437
 21
-2867.743245187158
 31
0.0
 11
41099.7467048798
 21
-2867.065451955559
 31
0.0
 11
41098.4870875449
 21
-2866.429255322059
 31
0.0
 11
41097.29103505419
 21
-2865.800044658559
 31
0.0
 11
41096.0972744382
 21
-2865.146855768259
 31
0.0
 11
41094.90586668389
 21
-2864.469081138558
 31
0.0
  0
SPLINE
  5
1B1
330
2
100
AcDbEntity
  8
0
  6
Continuous
 62
     7
100
AcDbSpline
210
0.0
220
0.0
230
1.0
 70
     8
 71
     3
 72
    11
 73
     7
 74
     5
 42
0.0000000001
 43
0.0000000001
 44
0.0000000001
 12
0.9972426039182884
 22
-0.0742104368015169
 32
0.0
 13
0.0300983229243312
 23
-0.9995469428481799
 33
0.0
 40
0.0
 40
0.0
 40
0.0
 40
0.0
 40
0.9338913803371911
 40
2.282404203044268
 40
4.065070240279534
 40
6.133518231680303
 40
6.133518231680303
 40
6.133518231680303
 40
6.133518231680303
 10
41127.6929271012
 20
-2901.938958207959
 30
0.0
 10
41128.0033658585
 20
-2901.962059703712
 30
0.0
 10
41128.69906172141
 20
-2902.433237310118
 30
0.0
 10
41129.31655935032
 20
-2903.653383435255
 30
0.0
 10
41129.77190443871
 20
-2905.335763389551
 30
0.0
 10
41129.89361924003
 20
-2906.619603324811
 30
0.0
 10
41129.91437151189
 20
-2907.308773613559
 30
0.0
 11
41127.6929271012
 21
-2901.938958207959
 31
0.0
 11
41128.51425351419
 21
-2902.383453465058
 31
0.0
 11
41129.21324888259
 21
-2903.536663033158
 31
0.0
 11
41129.70069392449
 21
-2905.251392029658
 31
0.0
 11
41129.91437151189
 21
-2907.308773613559
 31
0.0
  0
SPLINE
  5
1B2
330
2
100
AcDbEntity
  8
0
  6
Continuous
 62
     7
100
AcDbSpline
210
0.0
220
0.0
230
1.0
 70
     8
 71
     3
 72
    25
 73
    21
 74
    19
 42
0.0000000001
 43
0.0000000001
 44
0.0000000001
 12
-0.8650419735412814
 22
0.5016994957260819
 32
0.0
 13
-0.4864771055411236
 23
0.8736933247909879
 33
0.0
 40
0.0
 40
0.0
 40
0.0
 40
0.0
 40
1.344629564646238
 40
2.682519325051535
 40
4.019388494821082
 40
5.36786383336698
 40
6.706572797947888
 40
7.998054698633358
 40
9.279968805006182
 40
10.64150521628391
 40
12.11711938735385
 40
13.71783458865295
 40
15.45928347629464
 40
17.36144555486419
 40
19.43446493651333
 40
21.69106260671025
 40
24.15152578650039
 40
26.84079500598977
 40
29.78608767095418
 40
30.4870320177681
 40
30.4870320177681
 40
30.4870320177681
 40
30.4870320177681
 10
41094.90586668389
 20
-2864.469081138558
 30
0.0
 10
41094.51814634646
 20
-2864.244214480385
 30
0.0
 10
41093.74997679229
 20
-2863.786342786334
 30
0.0
 10
41092.61583687722
 20
-2863.072841111161
 30
0.0
 10
41091.49726803439
 20
-2862.332814017574
 30
0.0
 10
41090.39836502317
 20
-2861.563308446449
 30
0.0
 10
41089.33502515884
 20
-2860.770424099716
 30
0.0
 10
41088.31092028673
 20
-2859.962894042883
 30
0.0
 10
41087.30273741294
 20
-2859.123625655298
 30
0.0
 10
41086.27123605097
 20
-2858.217167411753
 30
0.0
 10
41085.18813261397
 20
-2857.209297346474
 30
0.0
 10
41084.04554621373
 20
-2856.080439784549
 30
0.0
 10
41082.84147553499
 20
-2854.812710605229
 30
0.0
 10
41081.57409095042
 20
-2853.389279911723
 30
0.0
 10
41080.24697333645
 20
-2851.790642077782
 30
0.0
 10
41078.86671198356
 20
-2849.996173534454
 30
0.0
 10
41077.43725125516
 20
-2847.982566571995
 30
0.0
 10
41075.96338772475
 20
-2845.721471096419
 30
0.0
 10
41074.88264109383
 20
-2843.906344846203
 30
0.0
 10
41074.28650204169
 20
-2842.847167893112
 30
0.0
 10
41074.17283758269
 20
-2842.643031094159
 30
0.0
 11
41094.90586668389
 21
-2864.469081138558
 31
0.0
 11
41093.75087351839
 21
-2863.780590431458
 31
0.0
 11
41092.61831939409
 21
-2863.068361418758
 31
0.0
 11
41091.50378510359
 21
-2862.330098259458
 31
0.0
 11
41090.39963848699
 21
-2861.555988456059
 31
0.0
 11
41089.3261384631
 21
-2860.756151353559
 31
0.0
 11
41088.31202252579
 21
-2859.956467437559
 31
0.0
 11
41087.3267384874
 21
-2859.136394794559
 31
0.0
 11
41086.30396027169
 21
-2858.237670075459
 31
0.0
 11
41085.22354791539
 21
-2857.232609717959
 31
0.0
 11
41084.08472281889
 21
-2856.107724588158
 31
0.0
 11
41082.8849444481
 21
-2854.845513793858
 31
0.0
 11
41081.6199269318
 21
-2853.424967681758
 31
0.0
 11
41080.2956795929
 21
-2851.830045005858
 31
0.0
 11
41078.91924075369
 21
-2850.041847822359
 31
0.0
 11
41077.49426688159
 21
-2848.036024170358
 31
0.0
 11
41076.02474290589
 21
-2845.783765699458
 31
0.0
 11
41074.51665843039
 21
-2843.253858567358
 31
0.0
 11
41074.17283758269
 21
-2842.643031094159
 31
0.0
  0
SPLINE
  5
1B3
330
2
100
AcDbEntity
  8
0
  6
Continuous
 62
     7
100
AcDbSpline
210
0.0
220
0.0
230
1.0
 70
     8
 71
     3
 72
    17
 73
    13
 74
    11
 42
0.0000000001
 43
0.0000000001
 44
0.0000000001
 12
-0.8076764292470564
 22
-0.5896259709669552
 32
0.0
 13
-0.9985735503708378
 23
-0.0533934874285253
 33
0.0
 40
0.0
 40
0.0
 40
0.0
 40
0.0
 40
0.7416671251524402
 40
1.576321088216712
 40
2.506670031762541
 40
3.534733269708486
 40
4.660801676049507
 40
5.886823268479624
 40
7.218238465468353
 40
8.658678185251673
 40
10.21094141331276
 40
11.87348991103772
 40
11.87348991103772
 40
11.87348991103772
 40
11.87348991103772
 10
41125.5239022733
 20
-2924.221427383658
 30
0.0
 10
41125.32422658819
 20
-2924.367196116592
 30
0.0
 10
41124.88308279673
 20
-2924.654211386423
 30
0.0
 10
41124.14917077882
 20
-2925.054779350583
 30
0.0
 10
41123.30577684957
 20
-2925.45027664789
 30
0.0
 10
41122.35345602202
 20
-2925.838830922373
 30
0.0
 10
41121.29185319776
 20
-2926.217348011514
 30
0.0
 10
41120.11875020105
 20
-2926.581036526573
 30
0.0
 10
41118.83012924223
 20
-2926.922227883509
 30
0.0
 10
41117.42106845039
 20
-2927.228413709242
 30
0.0
 10
41115.88888047397
 20
-2927.478632841815
 30
0.0
 10
41114.82099855427
 20
-2927.582139097355
 30
0.0
 10
41114.26760623559
 20
-2927.611728851458
 30
0.0
 11
41125.5239022733
 21
-2924.221427383658
 31
0.0
 11
41124.90459475569
 21
-2924.629506203459
 31
0.0
 11
41124.1735668451
 21
-2925.032303214358
 31
0.0
 11
41123.33228345349
 21
-2925.429532885658
 31
0.0
 11
41122.38110276649
 21
-2925.819621749758
 31
0.0
 11
41121.3208705586
 21
-2926.199013000458
 31
0.0
 11
41120.1500515543
 21
-2926.562759896358
 31
0.0
 11
41118.86301032909
 21
-2926.903628362758
 31
0.0
 11
41117.45524006519
 21
-2927.208668475558
 31
0.0
 11
41115.92289692689
 21
-2927.456550777658
 31
0.0
 11
41114.26760623559
 21
-2927.611728851458
 31
0.0
  0
LINE
  5
1B4
330
2
100
AcDbEntity
  8
0
  6
Continuous
 62
     7
100
AcDbLine
 10
41175.0115526595
 20
-2937.637483757359
 30
0.0
 11
41114.2147850139
 21
-2937.637483757359
 31
0.0
  0
MTEXT
  5
1B5
330
2
100
AcDbEntity
  8
尺寸标注
100
AcDbMText
 10
40334.83212776284
 20
-2344.377870893171
 30
0.0
 40
75.0
 41
801.6353349369019
 71
     2
 72
     5
  1
SCALE\P1:1
 73
     1
 44
1.0
  0
INSERT
  5
453
330
2
100
AcDbEntity
  8
尺寸标注
100
AcDbBlockReference
  2
FDGHSDFH
 10
2240.442315114961
 20
632.2615342493163
 30
0.0
  0
ENDSEC
  0
SECTION
  2
OBJECTS
  0
DICTIONARY
  5
9
330
0
100
AcDbDictionary
281
     1
  3
ACAD_COLOR
350
34
  3
ACAD_GROUP
350
2F
  3
ACAD_LAYOUT
350
F
  3
ACAD_MATERIAL
350
B
  3
ACAD_MLEADERSTYLE
350
486
  3
ACAD_MLINESTYLE
350
30
  3
ACAD_PLOTSETTINGS
350
31
  3
ACAD_PLOTSTYLENAME
350
8
  3
ACAD_SCALELIST
350
464
  3
ACAD_TABLESTYLE
350
35
  3
ACAD_VISUALSTYLE
350
26
  3
ACDB_RECOMPOSE_DATA
350
495
  3
ACDBHEADERROUNDTRIPXREC
350
48F
  3
AcDbVariableDictionary
350
1B8
  0
DICTIONARY
  5
16
330
15
100
AcDbDictionary
280
     1
281
     1
  3
ACAD_LAYERFILTERS
360
17
  3
ACAD_LAYERSTATES
360
18
  3
ACLYDICTIONARY
360
19
  0
DICTIONARY
  5
3
330
2
100
AcDbDictionary
280
     1
281
     1
  3
ACAD_SORTENTS
360
1B6
  0
DICTIONARY
  5
34
102
{ACAD_REACTORS
330
9
102
}
330
9
100
AcDbDictionary
281
     1
  0
DICTIONARY
  5
2F
102
{ACAD_REACTORS
330
9
102
}
330
9
100
AcDbDictionary
281
     1
  0
DICTIONARY
  5
F
102
{ACAD_REACTORS
330
9
102
}
330
9
100
AcDbDictionary
281
     1
  3
Model
350
E
  3
布局1
350
14
  0
DICTIONARY
  5
B
102
{ACAD_REACTORS
330
9
102
}
330
9
100
AcDbDictionary
281
     1
  3
ByBlock
350
33
  3
ByLayer
350
32
  3
Global
350
A
  0
DICTIONARY
  5
486
102
{ACAD_REACTORS
330
9
102
}
330
9
100
AcDbDictionary
281
     1
  3
Standard
350
487
  0
DICTIONARY
  5
30
102
{ACAD_REACTORS
330
9
102
}
330
9
100
AcDbDictionary
281
     1
  3
Standard
350
38
  0
DICTIONARY
  5
31
102
{ACAD_REACTORS
330
9
102
}
330
9
100
AcDbDictionary
281
     1
  0
ACDBDICTIONARYWDFLT
  5
8
102
{ACAD_REACTORS
330
9
102
}
330
9
100
AcDbDictionary
281
     1
  3
Normal
350
7
100
AcDbDictionaryWithDefault
340
7
  0
DICTIONARY
  5
464
102
{ACAD_REACTORS
330
9
102
}
330
9
100
AcDbDictionary
281
     1
  3
A0
350
465
  3
A1
350
466
  3
A2
350
467
  3
A3
350
468
  3
A4
350
469
  3
A5
350
46A
  3
A6
350
46B
  3
A7
350
46C
  3
A8
350
46D
  3
A9
350
46E
  3
B0
350
46F
  3
B1
350
470
  3
B2
350
471
  3
B3
350
472
  3
B4
350
473
  3
B5
350
474
  3
B6
350
475
  3
B7
350
476
  3
B8
350
477
  3
B9
350
478
  3
C0
350
479
  3
C1
350
47A
  3
C2
350
47B
  3
C3
350
47C
  3
C4
350
47D
  3
C5
350
47E
  3
C6
350
47F
  3
C7
350
480
  3
C8
350
481
  3
C9
350
482
  3
D0
350
483
  3
D1
350
484
  3
D2
350
485
  0
DICTIONARY
  5
35
102
{ACAD_REACTORS
330
9
102
}
330
9
100
AcDbDictionary
281
     1
  3
Standard
350
39
  0
DICTIONARY
  5
26
102
{ACAD_REACTORS
330
9
102
}
330
9
100
AcDbDictionary
281
     1
  3
2dWireframe
350
25
  3
3D Hidden
350
1C0
  3
3dWireframe
350
3B
  3
Basic
350
1BF
  3
Brighten
350
1C3
  3
ColorChange
350
1C7
  3
Conceptual
350
1C1
  3
Dim
350
1C2
  3
Facepattern
350
1C6
  3
Flat
350
1BB
  3
FlatWithEdges
350
1BC
  3
Gouraud
350
1BD
  3
GouraudWithEdges
350
1BE
  3
Linepattern
350
1C5
  3
Realistic
350
3A
  3
Thicken
350
1C4
  0
XRECORD
  5
495
102
{ACAD_REACTORS
330
9
102
}
330
9
100
AcDbXrecord
280
     1
 90
        1
330
39
  0
DICTIONARY
  5
48F
102
{ACAD_REACTORS
330
9
102
}
330
9
100
AcDbDictionary
281
     1
  0
DICTIONARY
  5
1B8
102
{ACAD_REACTORS
330
9
102
}
330
9
100
AcDbDictionary
281
     1
  3
CMLEADERSTYLE
350
48D
  3
CTABLESTYLE
350
1B9
  0
DICTIONARY
  5
17
102
{ACAD_REACTORS
330
16
102
}
330
16
100
AcDbDictionary
281
     1
  0
DICTIONARY
  5
18
102
{ACAD_REACTORS
330
16
102
}
330
16
100
AcDbDictionary
281
     1
  0
DICTIONARY
  5
19
102
{ACAD_REACTORS
330
16
102
}
330
16
100
AcDbDictionary
281
     1
1001
ACAD
1000
<All
  0
SORTENTSTABLE
  5
1B6
102
{ACAD_REACTORS
330
3
102
}
330
3
100
AcDbSortentsTable
330
2
  0
LAYOUT
  5
E
102
{ACAD_REACTORS
330
F
102
}
330
F
100
AcDbPlotSettings
  1

  2
\\10.1.200.81\HP LaserJet M1005
  4
A4
  6

 40
4.519083023071289
 41
4.349743366241455
 42
4.561416625976562
 43
4.349761962890625
 44
210.0156707763672
 45
297.0106506347656
 46
0.0
 47
2.065701641355246
 48
25842.7892783925
 49
-2086.30672948392
140
29406.7892783925
141
433.6932705160798
142
1.0
143
12.54135841854805
 70
 11956
 72
     1
 73
     1
 74
     4
  7
acad.ctb
 75
     0
147
0.0797361790187775
 76
     0
 77
     2
 78
   300
148
-25842.7892783925
149
2086.30672948392
100
AcDbLayout
  1
Model
 70
     1
 71
     0
 10
0.0
 20
0.0
 11
12.0
 21
9.0
 12
0.0
 22
0.0
 32
0.0
 14
0.0
 24
0.0
 34
0.0
 15
0.0
 25
0.0
 35
0.0
146
0.0
 13
0.0
 23
0.0
 33
0.0
 16
1.0
 26
0.0
 36
0.0
 17
0.0
 27
1.0
 37
0.0
 76
     0
330
2
331
24
1001
ACAD_PSEXT
1000
\\10.1.200.81\HP LaserJet M1005
1000
HP LaserJet M1005
1000
\\10.1.200.81
1000

1070
     0
  0
LAYOUT
  5
14
102
{ACAD_REACTORS
330
F
102
}
330
F
100
AcDbPlotSettings
  1

  2
C:\Documents and Settings\basas\Application Data\Autodesk\AutoCAD 2005\R16.1\enu\plotters\Default Windows System Printer.pc3
  4

  6

 40
0.0
 41
0.0
 42
0.0
 43
0.0
 44
0.0
 45
0.0
 46
0.0
 47
0.0
 48
0.0
 49
0.0
140
0.0
141
0.0
142
1.0
143
1.0
 70
   688
 72
     0
 73
     0
 74
     5
  7
acad.ctb
 75
    16
147
1.0
 76
     0
 77
     2
 78
   300
148
0.0
149
0.0
100
AcDbLayout
  1
布局1
 70
     1
 71
     1
 10
0.0
 20
0.0
 11
12.0
 21
9.0
 12
0.0
 22
0.0
 32
0.0
 14
0.0
 24
0.0
 34
0.0
 15
0.0
 25
0.0
 35
0.0
146
0.0
 13
0.0
 23
0.0
 33
0.0
 16
1.0
 26
0.0
 36
0.0
 17
0.0
 27
1.0
 37
0.0
 76
     0
330
11
  0
MATERIAL
  5
33
102
{ACAD_REACTORS
330
B
102
}
330
B
100
AcDbMaterial
  1
ByBlock
  2

  0
MATERIAL
  5
32
102
{ACAD_REACTORS
330
B
102
}
330
B
100
AcDbMaterial
  1
ByLayer
  2

  0
MATERIAL
  5
A
102
{ACAD_REACTORS
330
B
102
}
330
B
100
AcDbMaterial
  1
Global
  2

  0
MLEADERSTYLE
  5
487
102
{ACAD_REACTORS
330
486
102
}
330
486
100
AcDbMLeaderStyle
170
     2
171
     1
172
     0
 90
        2
 40
0.0
 41
0.0
173
     1
 91
-1056964608
340
1F
 92
       -2
290
     1
 42
0.09
291
     1
 43
8.0
  3
Standard
341
0
 44
0.18
300

342
1C
174
     1
178
     1
175
     1
176
     0
 93
-1056964608
 45
0.18
292
     0
297
     0
 46
0.18
343
0
 94
-1056964608
 47
1.0
 49
1.0
140
1.0
293
     1
141
0.0
294
     1
177
     0
142
1.0
295
     0
296
     0
143
3.75
1001
ACAD_MLEADERVER
1070
     2
  0
MLINESTYLE
  5
38
102
{ACAD_REACTORS
330
30
102
}
330
30
100
AcDbMlineStyle
  2
STANDARD
 70
     0
  3

 62
   256
 51
90.0
 52
90.0
 71
     2
 49
0.5
 62
   256
  6
BYLAYER
 49
-0.5
 62
   256
  6
BYLAYER
  0
ACDBPLACEHOLDER
  5
7
102
{ACAD_REACTORS
330
8
102
}
330
8
  0
SCALE
  5
465
102
{ACAD_REACTORS
330
464
102
}
330
464
100
AcDbScale
 70
     0
300
1:1
140
1.0
141
1.0
290
     1
  0
SCALE
  5
466
102
{ACAD_REACTORS
330
464
102
}
330
464
100
AcDbScale
 70
     0
300
1:2
140
1.0
141
2.0
290
     0
  0
SCALE
  5
467
102
{ACAD_REACTORS
330
464
102
}
330
464
100
AcDbScale
 70
     0
300
1:4
140
1.0
141
4.0
290
     0
  0
SCALE
  5
468
102
{ACAD_REACTORS
330
464
102
}
330
464
100
AcDbScale
 70
     0
300
1:5
140
1.0
141
5.0
290
     0
  0
SCALE
  5
469
102
{ACAD_REACTORS
330
464
102
}
330
464
100
AcDbScale
 70
     0
300
1:8
140
1.0
141
8.0
290
     0
  0
SCALE
  5
46A
102
{ACAD_REACTORS
330
464
102
}
330
464
100
AcDbScale
 70
     0
300
1:10
140
1.0
141
10.0
290
     0
  0
SCALE
  5
46B
102
{ACAD_REACTORS
330
464
102
}
330
464
100
AcDbScale
 70
     0
300
1:16
140
1.0
141
16.0
290
     0
  0
SCALE
  5
46C
102
{ACAD_REACTORS
330
464
102
}
330
464
100
AcDbScale
 70
     0
300
1:20
140
1.0
141
20.0
290
     0
  0
SCALE
  5
46D
102
{ACAD_REACTORS
330
464
102
}
330
464
100
AcDbScale
 70
     0
300
1:30
140
1.0
141
30.0
290
     0
  0
SCALE
  5
46E
102
{ACAD_REACTORS
330
464
102
}
330
464
100
AcDbScale
 70
     0
300
1:40
140
1.0
141
40.0
290
     0
  0
SCALE
  5
46F
102
{ACAD_REACTORS
330
464
102
}
330
464
100
AcDbScale
 70
     0
300
1:50
140
1.0
141
50.0
290
     0
  0
SCALE
  5
470
102
{ACAD_REACTORS
330
464
102
}
330
464
100
AcDbScale
 70
     0
300
1:100
140
1.0
141
100.0
290
     0
  0
SCALE
  5
471
102
{ACAD_REACTORS
330
464
102
}
330
464
100
AcDbScale
 70
     0
300
2:1
140
2.0
141
1.0
290
     0
  0
SCALE
  5
472
102
{ACAD_REACTORS
330
464
102
}
330
464
100
AcDbScale
 70
     0
300
4:1
140
4.0
141
1.0
290
     0
  0
SCALE
  5
473
102
{ACAD_REACTORS
330
464
102
}
330
464
100
AcDbScale
 70
     0
300
8:1
140
8.0
141
1.0
290
     0
  0
SCALE
  5
474
102
{ACAD_REACTORS
330
464
102
}
330
464
100
AcDbScale
 70
     0
300
10:1
140
10.0
141
1.0
290
     0
  0
SCALE
  5
475
102
{ACAD_REACTORS
330
464
102
}
330
464
100
AcDbScale
 70
     0
300
100:1
140
100.0
141
1.0
290
     0
  0
SCALE
  5
476
102
{ACAD_REACTORS
330
464
102
}
330
464
100
AcDbScale
 70
     0
300
1/128" = 1'-0"
140
0.0078125
141
12.0
290
     0
  0
SCALE
  5
477
102
{ACAD_REACTORS
330
464
102
}
330
464
100
AcDbScale
 70
     0
300
1/64" = 1'-0"
140
0.015625
141
12.0
290
     0
  0
SCALE
  5
478
102
{ACAD_REACTORS
330
464
102
}
330
464
100
AcDbScale
 70
     0
300
1/32" = 1'-0"
140
0.03125
141
12.0
290
     0
  0
SCALE
  5
479
102
{ACAD_REACTORS
330
464
102
}
330
464
100
AcDbScale
 70
     0
300
1/16" = 1'-0"
140
0.0625
141
12.0
290
     0
  0
SCALE
  5
47A
102
{ACAD_REACTORS
330
464
102
}
330
464
100
AcDbScale
 70
     0
300
3/32" = 1'-0"
140
0.09375
141
12.0
290
     0
  0
SCALE
  5
47B
102
{ACAD_REACTORS
330
464
102
}
330
464
100
AcDbScale
 70
     0
300
1/8" = 1'-0"
140
0.125
141
12.0
290
     0
  0
SCALE
  5
47C
102
{ACAD_REACTORS
330
464
102
}
330
464
100
AcDbScale
 70
     0
300
3/16" = 1'-0"
140
0.1875
141
12.0
290
     0
  0
SCALE
  5
47D
102
{ACAD_REACTORS
330
464
102
}
330
464
100
AcDbScale
 70
     0
300
1/4" = 1'-0"
140
0.25
141
12.0
290
     0
  0
SCALE
  5
47E
102
{ACAD_REACTORS
330
464
102
}
330
464
100
AcDbScale
 70
     0
300
3/8" = 1'-0"
140
0.375
141
12.0
290
     0
  0
SCALE
  5
47F
102
{ACAD_REACTORS
330
464
102
}
330
464
100
AcDbScale
 70
     0
300
1/2" = 1'-0"
140
0.5
141
12.0
290
     0
  0
SCALE
  5
480
102
{ACAD_REACTORS
330
464
102
}
330
464
100
AcDbScale
 70
     0
300
3/4" = 1'-0"
140
0.75
141
12.0
290
     0
  0
SCALE
  5
481
102
{ACAD_REACTORS
330
464
102
}
330
464
100
AcDbScale
 70
     0
300
1" = 1'-0"
140
1.0
141
12.0
290
     0
  0
SCALE
  5
482
102
{ACAD_REACTORS
330
464
102
}
330
464
100
AcDbScale
 70
     0
300
1-1/2" = 1'-0"
140
1.5
141
12.0
290
     0
  0
SCALE
  5
483
102
{ACAD_REACTORS
330
464
102
}
330
464
100
AcDbScale
 70
     0
300
3" = 1'-0"
140
3.0
141
12.0
290
     0
  0
SCALE
  5
484
102
{ACAD_REACTORS
330
464
102
}
330
464
100
AcDbScale
 70
     0
300
6" = 1'-0"
140
6.0
141
12.0
290
     0
  0
SCALE
  5
485
102
{ACAD_REACTORS
330
464
102
}
330
464
100
AcDbScale
 70
     0
300
1'-0" = 1'-0"
140
12.0
141
12.0
290
     0
  0
TABLESTYLE
  5
39
102
{ACAD_XDICTIONARY
360
492
102
}
102
{ACAD_REACTORS
330
35
102
}
330
35
100
AcDbTableStyle
  3
Standard
 70
     0
 71
     0
 40
1.5
 41
1.5
280
     0
281
     0
  7
Standard
140
4.5
170
     2
 62
     0
 63
   257
283
     0
274
    -2
284
     1
 64
     0
275
    -2
285
     1
 65
     0
276
    -2
286
     1
 66
     0
277
    -2
287
     1
 67
     0
278
    -2
288
     1
 68
     0
279
    -2
289
     1
 69
     0
  7
Standard
140
6.0
170
     5
 62
     0
 63
   257
283
     0
274
    -2
284
     1
 64
     0
275
    -2
285
     1
 65
     0
276
    -2
286
     1
 66
     0
277
    -2
287
     1
 67
     0
278
    -2
288
     1
 68
     0
279
    -2
289
     1
 69
     0
  7
Standard
140
4.5
170
     5
 62
     0
 63
   257
283
     0
274
    -2
284
     1
 64
     0
275
    -2
285
     1
 65
     0
276
    -2
286
     1
 66
     0
277
    -2
287
     1
 67
     0
278
    -2
288
     1
 68
     0
279
    -2
289
     1
 69
     0
  0
VISUALSTYLE
  5
25
102
{ACAD_XDICTIONARY
360
490
102
}
102
{ACAD_REACTORS
330
26
102
}
330
26
100
AcDbVisualStyle
  2
2dWireframe
 70
     4
 71
     0
 72
     2
 73
     1
 90
        0
 40
-0.6
 41
-30.0
 62
     5
 63
     7
421
 16777215
 74
     1
 91
        4
 64
     7
 65
   257
 75
     1
175
     1
 42
1.0
 92
        0
 66
   257
 43
1.0
 76
     1
 77
     6
 78
     2
 67
     7
 79
     5
170
     0
171
     0
290
     0
174
     0
 93
        1
 44
0.0
173
     0
291
     0
 45
0.0
1001
ACAD
1000
AcDbSavedByObjectVersion
1070
     0
  0
VISUALSTYLE
  5
1C0
102
{ACAD_XDICTIONARY
360
4A4
102
}
102
{ACAD_REACTORS
330
26
102
}
330
26
100
AcDbVisualStyle
  2
3D Hidden
 70
     6
 71
     1
 72
     2
 73
     2
 90
        0
 40
-0.6
 41
-30.0
 62
     5
 63
     7
421
 16777215
 74
     2
 91
        2
 64
     7
 65
   257
 75
     2
175
     1
 42
40.0
 92
        0
 66
   257
 43
1.0
 76
     1
 77
     6
 78
     2
 67
     7
 79
     3
170
     0
171
     0
290
     0
174
     0
 93
        1
 44
0.0
173
     0
291
     0
 45
0.0
1001
ACAD
1000
AcDbSavedByObjectVersion
1070
     0
  0
VISUALSTYLE
  5
3B
102
{ACAD_XDICTIONARY
360
498
102
}
102
{ACAD_REACTORS
330
26
102
}
330
26
100
AcDbVisualStyle
  2
3dWireframe
 70
     5
 71
     0
 72
     2
 73
     1
 90
        0
 40
-0.6
 41
-30.0
 62
     5
 63
     7
421
 16777215
 74
     1
 91
        4
 64
     7
 65
   257
 75
     1
175
     1
 42
1.0
 92
        0
 66
   257
 43
1.0
 76
     1
 77
     6
 78
     2
 67
     7
 79
     5
170
     0
171
     0
290
     0
174
     0
 93
        1
 44
0.0
173
     0
291
     0
 45
0.0
1001
ACAD
1000
AcDbSavedByObjectVersion
1070
     0
  0
VISUALSTYLE
  5
1BF
102
{ACAD_XDICTIONARY
360
4A2
102
}
102
{ACAD_REACTORS
330
26
102
}
330
26
100
AcDbVisualStyle
  2
Basic
 70
     7
 71
     1
 72
     0
 73
     1
 90
        0
 40
-0.6
 41
-30.0
 62
     5
 63
     7
421
 16777215
 74
     0
 91
        4
 64
     7
 65
   257
 75
     1
175
     1
 42
1.0
 92
        8
 66
     7
 43
1.0
 76
     1
 77
     6
 78
     2
 67
     7
 79
     5
170
     0
171
     0
290
     0
174
     0
 93
        1
 44
0.0
173
     0
291
     1
 45
0.0
1001
ACAD
1000
AcDbSavedByObjectVersion
1070
     0
  0
VISUALSTYLE
  5
1C3
102
{ACAD_XDICTIONARY
360
4AA
102
}
102
{ACAD_REACTORS
330
26
102
}
330
26
100
AcDbVisualStyle
  2
Brighten
 70
    12
 71
     2
 72
     2
 73
     0
 90
        0
 40
-0.6
 41
-30.0
 62
     5
 63
     7
421
 16777215
 74
     1
 91
        4
 64
     7
 65
   257
 75
     1
175
     1
 42
1.0
 92
        8
 66
     7
 43
1.0
 76
     1
 77
     6
 78
     2
 67
     7
 79
     5
170
     0
171
     0
290
     0
174
     0
 93
        1
 44
50.0
173
     0
291
     1
 45
0.0
1001
ACAD
1000
AcDbSavedByObjectVersion
1070
     0
  0
VISUALSTYLE
  5
1C7
102
{ACAD_XDICTIONARY
360
4B2
102
}
102
{ACAD_REACTORS
330
26
102
}
330
26
100
AcDbVisualStyle
  2
ColorChange
 70
    16
 71
     2
 72
     2
 73
     3
 90
        0
 40
-0.6
 41
-30.0
 62
     5
 63
     8
421
  8421504
 74
     1
 91
        4
 64
     7
 65
   257
 75
     1
175
     1
 42
1.0
 92
        8
 66
     8
424
  8421504
 43
1.0
 76
     1
 77
     6
 78
     2
 67
     7
 79
     5
170
     0
171
     0
290
     0
174
     0
 93
        1
 44
0.0
173
     0
291
     1
 45
0.0
1001
ACAD
1000
AcDbSavedByObjectVersion
1070
     0
  0
VISUALSTYLE
  5
1C1
102
{ACAD_XDICTIONARY
360
4A6
102
}
102
{ACAD_REACTORS
330
26
102
}
330
26
100
AcDbVisualStyle
  2
Conceptual
 70
     9
 71
     3
 72
     2
 73
     0
 90
        0
 40
-0.6
 41
-30.0
 62
     5
 63
     7
421
 16777215
 74
     2
 91
        2
 64
     7
 65
   257
 75
     1
175
     1
 42
40.0
 92
        8
 66
     7
 43
1.0
 76
     1
 77
     6
 78
     2
 67
     7
 79
     3
170
     0
171
     0
290
     0
174
     0
 93
        1
 44
0.0
173
     0
291
     0
 45
0.0
1001
ACAD
1000
AcDbSavedByObjectVersion
1070
     0
  0
VISUALSTYLE
  5
1C2
102
{ACAD_XDICTIONARY
360
4A8
102
}
102
{ACAD_REACTORS
330
26
102
}
330
26
100
AcDbVisualStyle
  2
Dim
 70
    11
 71
     2
 72
     2
 73
     0
 90
        0
 40
-0.6
 41
-30.0
 62
     5
 63
     7
421
 16777215
 74
     1
 91
        4
 64
     7
 65
   257
 75
     1
175
     1
 42
1.0
 92
        8
 66
     7
 43
1.0
 76
     1
 77
     6
 78
     2
 67
     7
 79
     5
170
     0
171
     0
290
     0
174
     0
 93
        1
 44
-50.0
173
     0
291
     1
 45
0.0
1001
ACAD
1000
AcDbSavedByObjectVersion
1070
     0
  0
VISUALSTYLE
  5
1C6
102
{ACAD_XDICTIONARY
360
4B0
102
}
102
{ACAD_REACTORS
330
26
102
}
330
26
100
AcDbVisualStyle
  2
Facepattern
 70
    15
 71
     2
 72
     2
 73
     0
 90
        0
 40
-0.6
 41
-30.0
 62
     5
 63
     7
421
 16777215
 74
     1
 91
        4
 64
     7
 65
   257
 75
     1
175
     1
 42
1.0
 92
        8
 66
     7
 43
1.0
 76
     1
 77
     6
 78
     2
 67
     7
 79
     5
170
     0
171
     0
290
     0
174
     0
 93
        1
 44
0.0
173
     0
291
     1
 45
0.0
1001
ACAD
1000
AcDbSavedByObjectVersion
1070
     0
  0
VISUALSTYLE
  5
1BB
102
{ACAD_XDICTIONARY
360
49A
102
}
102
{ACAD_REACTORS
330
26
102
}
330
26
100
AcDbVisualStyle
  2
Flat
 70
     0
 71
     2
 72
     1
 73
     1
 90
        2
 40
-0.6
 41
30.0
 62
     5
 63
     7
421
 16777215
 74
     0
 91
        4
 64
     7
 65
   257
 75
     1
175
     1
 42
1.0
 92
        8
 66
     7
 43
1.0
 76
     1
 77
     6
 78
     2
 67
     7
 79
     5
170
     0
171
     0
290
     0
174
     0
 93
       13
 44
0.0
173
     0
291
     1
 45
0.0
1001
ACAD
1000
AcDbSavedByObjectVersion
1070
     0
  0
VISUALSTYLE
  5
1BC
102
{ACAD_XDICTIONARY
360
49C
102
}
102
{ACAD_REACTORS
330
26
102
}
330
26
100
AcDbVisualStyle
  2
FlatWithEdges
 70
     1
 71
     2
 72
     1
 73
     1
 90
        2
 40
-0.6
 41
30.0
 62
     5
 63
     7
421
 16777215
 74
     1
 91
        4
 64
     7
 65
   257
 75
     1
175
     1
 42
1.0
 92
        0
 66
   257
 43
1.0
 76
     1
 77
     6
 78
     2
 67
     7
 79
     5
170
     0
171
     0
290
     0
174
     0
 93
       13
 44
0.0
173
     0
291
     1
 45
0.0
1001
ACAD
1000
AcDbSavedByObjectVersion
1070
     0
  0
VISUALSTYLE
  5
1BD
102
{ACAD_XDICTIONARY
360
49E
102
}
102
{ACAD_REACTORS
330
26
102
}
330
26
100
AcDbVisualStyle
  2
Gouraud
 70
     2
 71
     2
 72
     2
 73
     1
 90
        2
 40
-0.6
 41
30.0
 62
     5
 63
     7
421
 16777215
 74
     0
 91
        4
 64
     7
 65
   257
 75
     1
175
     1
 42
1.0
 92
        0
 66
     7
 43
1.0
 76
     1
 77
     6
 78
     2
 67
     7
 79
     5
170
     0
171
     0
290
     0
174
     0
 93
       13
 44
0.0
173
     0
291
     1
 45
0.0
1001
ACAD
1000
AcDbSavedByObjectVersion
1070
     0
  0
VISUALSTYLE
  5
1BE
102
{ACAD_XDICTIONARY
360
4A0
102
}
102
{ACAD_REACTORS
330
26
102
}
330
26
100
AcDbVisualStyle
  2
GouraudWithEdges
 70
     3
 71
     2
 72
     2
 73
     1
 90
        2
 40
-0.6
 41
30.0
 62
     5
 63
     7
421
 16777215
 74
     1
 91
        4
 64
     7
 65
   257
 75
     1
175
     1
 42
1.0
 92
        0
 66
   257
 43
1.0
 76
     1
 77
     6
 78
     2
 67
     7
 79
     5
170
     0
171
     0
290
     0
174
     0
 93
       13
 44
0.0
173
     0
291
     1
 45
0.0
1001
ACAD
1000
AcDbSavedByObjectVersion
1070
     0
  0
VISUALSTYLE
  5
1C5
102
{ACAD_XDICTIONARY
360
4AE
102
}
102
{ACAD_REACTORS
330
26
102
}
330
26
100
AcDbVisualStyle
  2
Linepattern
 70
    14
 71
     2
 72
     2
 73
     0
 90
        0
 40
-0.6
 41
-30.0
 62
     5
 63
     7
421
 16777215
 74
     1
 91
        4
 64
     7
 65
   257
 75
     7
175
     7
 42
1.0
 92
        8
 66
     7
 43
1.0
 76
     1
 77
     6
 78
     2
 67
     7
 79
     5
170
     0
171
     0
290
     0
174
     0
 93
        1
 44
0.0
173
     0
291
     1
 45
0.0
1001
ACAD
1000
AcDbSavedByObjectVersion
1070
     0
  0
VISUALSTYLE
  5
3A
102
{ACAD_XDICTIONARY
360
496
102
}
102
{ACAD_REACTORS
330
26
102
}
330
26
100
AcDbVisualStyle
  2
Realistic
 70
     8
 71
     2
 72
     2
 73
     1
 90
        0
 40
-0.6
 41
-30.0
 62
     5
 63
     7
421
 16777215
 74
     1
 91
        0
 64
     7
 65
   257
 75
     1
175
     1
 42
1.0
 92
        8
 66
     8
424
  7895160
 43
1.0
 76
     1
 77
     6
 78
     2
 67
     7
 79
     5
170
     0
171
     0
290
     0
174
     0
 93
       13
 44
0.0
173
     0
291
     0
 45
0.0
1001
ACAD
1000
AcDbSavedByObjectVersion
1070
     0
  0
VISUALSTYLE
  5
1C4
102
{ACAD_XDICTIONARY
360
4AC
102
}
102
{ACAD_REACTORS
330
26
102
}
330
26
100
AcDbVisualStyle
  2
Thicken
 70
    13
 71
     2
 72
     2
 73
     0
 90
        0
 40
-0.6
 41
-30.0
 62
     5
 63
     7
421
 16777215
 74
     1
 91
        4
 64
     7
 65
   257
 75
     1
175
     1
 42
1.0
 92
       12
 66
     7
 43
1.0
 76
     1
 77
     6
 78
     2
 67
     7
 79
     5
170
     0
171
     0
290
     0
174
     0
 93
        1
 44
0.0
173
     0
291
     1
 45
0.0
1001
ACAD
1000
AcDbSavedByObjectVersion
1070
     0
  0
DICTIONARYVAR
  5
48D
102
{ACAD_REACTORS
330
1B8
102
}
330
1B8
100
DictionaryVariables
280
     0
  1
STANDARD
  0
DICTIONARYVAR
  5
1B9
102
{ACAD_REACTORS
330
1B8
102
}
330
1B8
100
DictionaryVariables
280
     0
  1
STANDARD
  0
DICTIONARY
  5
492
330
39
100
AcDbDictionary
280
     1
281
     1
  3
ACAD_ROUNDTRIP_2008_TABLESTYLE_CELLSTYLEMAP
360
494
  3
ACAD_XREC_ROUNDTRIP
360
493
  0
DICTIONARY
  5
490
330
25
100
AcDbDictionary
280
     1
281
     1
  3
ACAD_XREC_ROUNDTRIP
360
491
  0
DICTIONARY
  5
4A4
330
1C0
100
AcDbDictionary
280
     1
281
     1
  3
ACAD_XREC_ROUNDTRIP
360
4A5
  0
DICTIONARY
  5
498
330
3B
100
AcDbDictionary
280
     1
281
     1
  3
ACAD_XREC_ROUNDTRIP
360
499
  0
DICTIONARY
  5
4A2
330
1BF
100
AcDbDictionary
280
     1
281
     1
  3
ACAD_XREC_ROUNDTRIP
360
4A3
  0
DICTIONARY
  5
4AA
330
1C3
100
AcDbDictionary
280
     1
281
     1
  3
ACAD_XREC_ROUNDTRIP
360
4AB
  0
DICTIONARY
  5
4B2
330
1C7
100
AcDbDictionary
280
     1
281
     1
  3
ACAD_XREC_ROUNDTRIP
360
4B3
  0
DICTIONARY
  5
4A6
330
1C1
100
AcDbDictionary
280
     1
281
     1
  3
ACAD_XREC_ROUNDTRIP
360
4A7
  0
DICTIONARY
  5
4A8
330
1C2
100
AcDbDictionary
280
     1
281
     1
  3
ACAD_XREC_ROUNDTRIP
360
4A9
  0
DICTIONARY
  5
4B0
330
1C6
100
AcDbDictionary
280
     1
281
     1
  3
ACAD_XREC_ROUNDTRIP
360
4B1
  0
DICTIONARY
  5
49A
330
1BB
100
AcDbDictionary
280
     1
281
     1
  3
ACAD_XREC_ROUNDTRIP
360
49B
  0
DICTIONARY
  5
49C
330
1BC
100
AcDbDictionary
280
     1
281
     1
  3
ACAD_XREC_ROUNDTRIP
360
49D
  0
DICTIONARY
  5
49E
330
1BD
100
AcDbDictionary
280
     1
281
     1
  3
ACAD_XREC_ROUNDTRIP
360
49F
  0
DICTIONARY
  5
4A0
330
1BE
100
AcDbDictionary
280
     1
281
     1
  3
ACAD_XREC_ROUNDTRIP
360
4A1
  0
DICTIONARY
  5
4AE
330
1C5
100
AcDbDictionary
280
     1
281
     1
  3
ACAD_XREC_ROUNDTRIP
360
4AF
  0
DICTIONARY
  5
496
330
3A
100
AcDbDictionary
280
     1
281
     1
  3
ACAD_XREC_ROUNDTRIP
360
497
  0
DICTIONARY
  5
4AC
330
1C4
100
AcDbDictionary
280
     1
281
     1
  3
ACAD_XREC_ROUNDTRIP
360
4AD
  0
CELLSTYLEMAP
  5
494
102
{ACAD_REACTORS
330
492
102
}
330
492
100
AcDbCellStyleMap
 90
        3
300
CELLSTYLE
  1
TABLEFORMAT_BEGIN
 90
        5
170
     1
 91
        0
 92
        0
 62
   257
 93
        1
300
CONTENTFORMAT
  1
CONTENTFORMAT_BEGIN
 90
        0
 91
        0
 92
      512
 93
        0
300

 40
0.0
140
1.0
 94
        5
 62
     0
340
1C
144
6.0
309
CONTENTFORMAT_END
171
     1
301
MARGIN
  1
CELLMARGIN_BEGIN
 40
1.5
 40
1.5
 40
1.5
 40
1.5
 40
4.5
 40
4.5
309
CELLMARGIN_END
 94
        6
 95
        1
302
GRIDFORMAT
  1
GRIDFORMAT_BEGIN
 90
        0
 91
        1
 62
     0
 92
       -2
340
0
 93
        0
 40
0.045
309
GRIDFORMAT_END
 95
        2
302
GRIDFORMAT
  1
GRIDFORMAT_BEGIN
 90
        0
 91
        1
 62
     0
 92
       -2
340
0
 93
        0
 40
0.045
309
GRIDFORMAT_END
 95
        4
302
GRIDFORMAT
  1
GRIDFORMAT_BEGIN
 90
        0
 91
        1
 62
     0
 92
       -2
340
0
 93
        0
 40
0.045
309
GRIDFORMAT_END
 95
        8
302
GRIDFORMAT
  1
GRIDFORMAT_BEGIN
 90
        0
 91
        1
 62
     0
 92
       -2
340
0
 93
        0
 40
0.045
309
GRIDFORMAT_END
 95
       16
302
GRIDFORMAT
  1
GRIDFORMAT_BEGIN
 90
        0
 91
        1
 62
     0
 92
       -2
340
0
 93
        0
 40
0.045
309
GRIDFORMAT_END
 95
       32
302
GRIDFORMAT
  1
GRIDFORMAT_BEGIN
 90
        0
 91
        1
 62
     0
 92
       -2
340
0
 93
        0
 40
0.045
309
GRIDFORMAT_END
309
TABLEFORMAT_END
  1
CELLSTYLE_BEGIN
 90
        1
 91
        1
300
_TITLE
309
CELLSTYLE_END
300
CELLSTYLE
  1
TABLEFORMAT_BEGIN
 90
        5
170
     1
 91
        0
 92
        0
 62
   257
 93
        1
300
CONTENTFORMAT
  1
CONTENTFORMAT_BEGIN
 90
        0
 91
        0
 92
      512
 93
        0
300

 40
0.0
140
1.0
 94
        5
 62
     0
340
1C
144
4.5
309
CONTENTFORMAT_END
171
     1
301
MARGIN
  1
CELLMARGIN_BEGIN
 40
1.5
 40
1.5
 40
1.5
 40
1.5
 40
4.5
 40
4.5
309
CELLMARGIN_END
 94
        6
 95
        1
302
GRIDFORMAT
  1
GRIDFORMAT_BEGIN
 90
        0
 91
        1
 62
     0
 92
       -2
340
0
 93
        0
 40
0.045
309
GRIDFORMAT_END
 95
        2
302
GRIDFORMAT
  1
GRIDFORMAT_BEGIN
 90
        0
 91
        1
 62
     0
 92
       -2
340
0
 93
        0
 40
0.045
309
GRIDFORMAT_END
 95
        4
302
GRIDFORMAT
  1
GRIDFORMAT_BEGIN
 90
        0
 91
        1
 62
     0
 92
       -2
340
0
 93
        0
 40
0.045
309
GRIDFORMAT_END
 95
        8
302
GRIDFORMAT
  1
GRIDFORMAT_BEGIN
 90
        0
 91
        1
 62
     0
 92
       -2
340
0
 93
        0
 40
0.045
309
GRIDFORMAT_END
 95
       16
302
GRIDFORMAT
  1
GRIDFORMAT_BEGIN
 90
        0
 91
        1
 62
     0
 92
       -2
340
0
 93
        0
 40
0.045
309
GRIDFORMAT_END
 95
       32
302
GRIDFORMAT
  1
GRIDFORMAT_BEGIN
 90
        0
 91
        1
 62
     0
 92
       -2
340
0
 93
        0
 40
0.045
309
GRIDFORMAT_END
309
TABLEFORMAT_END
  1
CELLSTYLE_BEGIN
 90
        2
 91
        1
300
_HEADER
309
CELLSTYLE_END
300
CELLSTYLE
  1
TABLEFORMAT_BEGIN
 90
        5
170
     1
 91
        0
 92
        0
 62
   257
 93
        1
300
CONTENTFORMAT
  1
CONTENTFORMAT_BEGIN
 90
        0
 91
        0
 92
      512
 93
        0
300

 40
0.0
140
1.0
 94
        2
 62
     0
340
1C
144
4.5
309
CONTENTFORMAT_END
171
     1
301
MARGIN
  1
CELLMARGIN_BEGIN
 40
1.5
 40
1.5
 40
1.5
 40
1.5
 40
4.5
 40
4.5
309
CELLMARGIN_END
 94
        6
 95
        1
302
GRIDFORMAT
  1
GRIDFORMAT_BEGIN
 90
        0
 91
        1
 62
     0
 92
       -2
340
0
 93
        0
 40
0.045
309
GRIDFORMAT_END
 95
        2
302
GRIDFORMAT
  1
GRIDFORMAT_BEGIN
 90
        0
 91
        1
 62
     0
 92
       -2
340
0
 93
        0
 40
0.045
309
GRIDFORMAT_END
 95
        4
302
GRIDFORMAT
  1
GRIDFORMAT_BEGIN
 90
        0
 91
        1
 62
     0
 92
       -2
340
0
 93
        0
 40
0.045
309
GRIDFORMAT_END
 95
        8
302
GRIDFORMAT
  1
GRIDFORMAT_BEGIN
 90
        0
 91
        1
 62
     0
 92
       -2
340
0
 93
        0
 40
0.045
309
GRIDFORMAT_END
 95
       16
302
GRIDFORMAT
  1
GRIDFORMAT_BEGIN
 90
        0
 91
        1
 62
     0
 92
       -2
340
0
 93
        0
 40
0.045
309
GRIDFORMAT_END
 95
       32
302
GRIDFORMAT
  1
GRIDFORMAT_BEGIN
 90
        0
 91
        1
 62
     0
 92
       -2
340
0
 93
        0
 40
0.045
309
GRIDFORMAT_END
309
TABLEFORMAT_END
  1
CELLSTYLE_BEGIN
 90
        3
 91
        2
300
_DATA
309
CELLSTYLE_END
  0
XRECORD
  5
493
102
{ACAD_REACTORS
330
492
102
}
330
492
100
AcDbXrecord
280
     1
102
ACAD_ROUNDTRIP_PRE2007_TABLESTYLE
 90
      512
 91
        0
  1

 92
      512
 93
        0
  2

 94
      512
 95
        0
  3

  0
XRECORD
  5
491
102
{ACAD_REACTORS
330
490
102
}
330
490
100
AcDbXrecord
280
     1
102
RTVSPropertyOp0
 70
     1
102
RTVSPropertyOp1
 70
     1
102
RTVSPropertyOp2
 70
     1
102
RTVSPropertyOp3
 70
     1
102
RTVSPropertyOp4
 70
     1
102
RTVSPropertyOp5
 70
     1
102
RTVSPropertyOp6
 70
     1
102
RTVSPropertyOp7
 70
     1
102
RTVSPropertyOp8
 70
     1
102
RTVSPropertyOp9
 70
     1
102
RTVSPropertyOp10
 70
     1
102
RTVSPropertyOp11
 70
     1
102
RTVSPropertyOp12
 70
     1
102
RTVSPropertyOp13
 70
     1
102
RTVSPropertyOp14
 70
     1
102
RTVSPropertyOp15
 70
     1
102
RTVSPropertyOp16
 70
     1
102
RTVSPropertyOp17
 70
     1
102
RTVSPropertyOp18
 70
     1
102
RTVSPropertyOp19
 70
     1
102
RTVSPropertyOp20
 70
     1
102
RTVSPropertyOp21
 70
     1
102
RTVSPropertyOp22
 70
     1
102
RTVSPropertyOp23
 70
     1
102
RTVSPropertyOp24
 70
     1
102
RTVSPropertyOp25
 70
     1
102
RTVSPropertyOp26
 70
     1
102
RTVSPropertyOp27
 70
     1
  0
XRECORD
  5
4A5
102
{ACAD_REACTORS
330
4A4
102
}
330
4A4
100
AcDbXrecord
280
     1
102
RTVSPropertyOp0
 70
     1
102
RTVSPropertyOp1
 70
     1
102
RTVSPropertyOp2
 70
     1
102
RTVSPropertyOp3
 70
     1
102
RTVSPropertyOp4
 70
     1
102
RTVSPropertyOp5
 70
     1
102
RTVSPropertyOp6
 70
     1
102
RTVSPropertyOp7
 70
     1
102
RTVSPropertyOp8
 70
     1
102
RTVSPropertyOp9
 70
     1
102
RTVSPropertyOp10
 70
     1
102
RTVSPropertyOp11
 70
     1
102
RTVSPropertyOp12
 70
     1
102
RTVSPropertyOp13
 70
     1
102
RTVSPropertyOp14
 70
     1
102
RTVSPropertyOp15
 70
     1
102
RTVSPropertyOp16
 70
     1
102
RTVSPropertyOp17
 70
     1
102
RTVSPropertyOp18
 70
     1
102
RTVSPropertyOp19
 70
     1
102
RTVSPropertyOp20
 70
     1
102
RTVSPropertyOp21
 70
     1
102
RTVSPropertyOp22
 70
     1
102
RTVSPropertyOp23
 70
     1
102
RTVSPropertyOp24
 70
     1
102
RTVSPropertyOp25
 70
     1
102
RTVSPropertyOp26
 70
     1
102
RTVSPropertyOp27
 70
     1
  0
XRECORD
  5
499
102
{ACAD_REACTORS
330
498
102
}
330
498
100
AcDbXrecord
280
     1
102
RTVSPropertyOp0
 70
     1
102
RTVSPropertyOp1
 70
     1
102
RTVSPropertyOp2
 70
     1
102
RTVSPropertyOp3
 70
     1
102
RTVSPropertyOp4
 70
     1
102
RTVSPropertyOp5
 70
     1
102
RTVSPropertyOp6
 70
     1
102
RTVSPropertyOp7
 70
     1
102
RTVSPropertyOp8
 70
     1
102
RTVSPropertyOp9
 70
     1
102
RTVSPropertyOp10
 70
     1
102
RTVSPropertyOp11
 70
     1
102
RTVSPropertyOp12
 70
     1
102
RTVSPropertyOp13
 70
     1
102
RTVSPropertyOp14
 70
     1
102
RTVSPropertyOp15
 70
     1
102
RTVSPropertyOp16
 70
     1
102
RTVSPropertyOp17
 70
     1
102
RTVSPropertyOp18
 70
     1
102
RTVSPropertyOp19
 70
     1
102
RTVSPropertyOp20
 70
     1
102
RTVSPropertyOp21
 70
     1
102
RTVSPropertyOp22
 70
     1
102
RTVSPropertyOp23
 70
     1
102
RTVSPropertyOp24
 70
     1
102
RTVSPropertyOp25
 70
     1
102
RTVSPropertyOp26
 70
     1
102
RTVSPropertyOp27
 70
     1
  0
XRECORD
  5
4A3
102
{ACAD_REACTORS
330
4A2
102
}
330
4A2
100
AcDbXrecord
280
     1
102
RTVSPropertyOp0
 70
     1
102
RTVSPropertyOp1
 70
     1
102
RTVSPropertyOp2
 70
     1
102
RTVSPropertyOp3
 70
     1
102
RTVSPropertyOp4
 70
     1
102
RTVSPropertyOp5
 70
     1
102
RTVSPropertyOp6
 70
     1
102
RTVSPropertyOp7
 70
     1
102
RTVSPropertyOp8
 70
     1
102
RTVSPropertyOp9
 70
     1
102
RTVSPropertyOp10
 70
     1
102
RTVSPropertyOp11
 70
     1
102
RTVSPropertyOp12
 70
     1
102
RTVSPropertyOp13
 70
     1
102
RTVSPropertyOp14
 70
     1
102
RTVSPropertyOp15
 70
     1
102
RTVSPropertyOp16
 70
     1
102
RTVSPropertyOp17
 70
     1
102
RTVSPropertyOp18
 70
     1
102
RTVSPropertyOp19
 70
     1
102
RTVSPropertyOp20
 70
     1
102
RTVSPropertyOp21
 70
     1
102
RTVSPropertyOp22
 70
     1
102
RTVSPropertyOp23
 70
     1
102
RTVSPropertyOp24
 70
     1
102
RTVSPropertyOp25
 70
     1
102
RTVSPropertyOp26
 70
     1
102
RTVSPropertyOp27
 70
     1
  0
XRECORD
  5
4AB
102
{ACAD_REACTORS
330
4AA
102
}
330
4AA
100
AcDbXrecord
280
     1
102
RTVSPropertyOp0
 70
     1
102
RTVSPropertyOp1
 70
     1
102
RTVSPropertyOp2
 70
     1
102
RTVSPropertyOp3
 70
     1
102
RTVSPropertyOp4
 70
     1
102
RTVSPropertyOp5
 70
     1
102
RTVSPropertyOp6
 70
     1
102
RTVSPropertyOp7
 70
     1
102
RTVSPropertyOp8
 70
     1
102
RTVSPropertyOp9
 70
     1
102
RTVSPropertyOp10
 70
     1
102
RTVSPropertyOp11
 70
     1
102
RTVSPropertyOp12
 70
     1
102
RTVSPropertyOp13
 70
     1
102
RTVSPropertyOp14
 70
     1
102
RTVSPropertyOp15
 70
     1
102
RTVSPropertyOp16
 70
     1
102
RTVSPropertyOp17
 70
     1
102
RTVSPropertyOp18
 70
     1
102
RTVSPropertyOp19
 70
     1
102
RTVSPropertyOp20
 70
     1
102
RTVSPropertyOp21
 70
     1
102
RTVSPropertyOp22
 70
     1
102
RTVSPropertyOp23
 70
     1
102
RTVSPropertyOp24
 70
     1
102
RTVSPropertyOp25
 70
     1
102
RTVSPropertyOp26
 70
     1
102
RTVSPropertyOp27
 70
     1
  0
XRECORD
  5
4B3
102
{ACAD_REACTORS
330
4B2
102
}
330
4B2
100
AcDbXrecord
280
     1
102
RTVSPropertyOp0
 70
     1
102
RTVSPropertyOp1
 70
     1
102
RTVSPropertyOp2
 70
     1
102
RTVSPropertyOp3
 70
     1
102
RTVSPropertyOp4
 70
     1
102
RTVSPropertyOp5
 70
     1
102
RTVSPropertyOp6
 70
     1
102
RTVSPropertyOp7
 70
     1
102
RTVSPropertyOp8
 70
     1
102
RTVSPropertyOp9
 70
     1
102
RTVSPropertyOp10
 70
     1
102
RTVSPropertyOp11
 70
     1
102
RTVSPropertyOp12
 70
     1
102
RTVSPropertyOp13
 70
     1
102
RTVSPropertyOp14
 70
     1
102
RTVSPropertyOp15
 70
     1
102
RTVSPropertyOp16
 70
     1
102
RTVSPropertyOp17
 70
     1
102
RTVSPropertyOp18
 70
     1
102
RTVSPropertyOp19
 70
     1
102
RTVSPropertyOp20
 70
     1
102
RTVSPropertyOp21
 70
     1
102
RTVSPropertyOp22
 70
     1
102
RTVSPropertyOp23
 70
     1
102
RTVSPropertyOp24
 70
     1
102
RTVSPropertyOp25
 70
     1
102
RTVSPropertyOp26
 70
     1
102
RTVSPropertyOp27
 70
     1
  0
XRECORD
  5
4A7
102
{ACAD_REACTORS
330
4A6
102
}
330
4A6
100
AcDbXrecord
280
     1
102
RTVSPropertyOp0
 70
     1
102
RTVSPropertyOp1
 70
     1
102
RTVSPropertyOp2
 70
     1
102
RTVSPropertyOp3
 70
     1
102
RTVSPropertyOp4
 70
     1
102
RTVSPropertyOp5
 70
     1
102
RTVSPropertyOp6
 70
     1
102
RTVSPropertyOp7
 70
     1
102
RTVSPropertyOp8
 70
     1
102
RTVSPropertyOp9
 70
     1
102
RTVSPropertyOp10
 70
     1
102
RTVSPropertyOp11
 70
     1
102
RTVSPropertyOp12
 70
     1
102
RTVSPropertyOp13
 70
     1
102
RTVSPropertyOp14
 70
     1
102
RTVSPropertyOp15
 70
     1
102
RTVSPropertyOp16
 70
     1
102
RTVSPropertyOp17
 70
     1
102
RTVSPropertyOp18
 70
     1
102
RTVSPropertyOp19
 70
     1
102
RTVSPropertyOp20
 70
     1
102
RTVSPropertyOp21
 70
     1
102
RTVSPropertyOp22
 70
     1
102
RTVSPropertyOp23
 70
     1
102
RTVSPropertyOp24
 70
     1
102
RTVSPropertyOp25
 70
     1
102
RTVSPropertyOp26
 70
     1
102
RTVSPropertyOp27
 70
     1
  0
XRECORD
  5
4A9
102
{ACAD_REACTORS
330
4A8
102
}
330
4A8
100
AcDbXrecord
280
     1
102
RTVSPropertyOp0
 70
     1
102
RTVSPropertyOp1
 70
     1
102
RTVSPropertyOp2
 70
     1
102
RTVSPropertyOp3
 70
     1
102
RTVSPropertyOp4
 70
     1
102
RTVSPropertyOp5
 70
     1
102
RTVSPropertyOp6
 70
     1
102
RTVSPropertyOp7
 70
     1
102
RTVSPropertyOp8
 70
     1
102
RTVSPropertyOp9
 70
     1
102
RTVSPropertyOp10
 70
     1
102
RTVSPropertyOp11
 70
     1
102
RTVSPropertyOp12
 70
     1
102
RTVSPropertyOp13
 70
     1
102
RTVSPropertyOp14
 70
     1
102
RTVSPropertyOp15
 70
     1
102
RTVSPropertyOp16
 70
     1
102
RTVSPropertyOp17
 70
     1
102
RTVSPropertyOp18
 70
     1
102
RTVSPropertyOp19
 70
     1
102
RTVSPropertyOp20
 70
     1
102
RTVSPropertyOp21
 70
     1
102
RTVSPropertyOp22
 70
     1
102
RTVSPropertyOp23
 70
     1
102
RTVSPropertyOp24
 70
     1
102
RTVSPropertyOp25
 70
     1
102
RTVSPropertyOp26
 70
     1
102
RTVSPropertyOp27
 70
     1
  0
XRECORD
  5
4B1
102
{ACAD_REACTORS
330
4B0
102
}
330
4B0
100
AcDbXrecord
280
     1
102
RTVSPropertyOp0
 70
     1
102
RTVSPropertyOp1
 70
     1
102
RTVSPropertyOp2
 70
     1
102
RTVSPropertyOp3
 70
     1
102
RTVSPropertyOp4
 70
     1
102
RTVSPropertyOp5
 70
     1
102
RTVSPropertyOp6
 70
     1
102
RTVSPropertyOp7
 70
     1
102
RTVSPropertyOp8
 70
     1
102
RTVSPropertyOp9
 70
     1
102
RTVSPropertyOp10
 70
     1
102
RTVSPropertyOp11
 70
     1
102
RTVSPropertyOp12
 70
     1
102
RTVSPropertyOp13
 70
     1
102
RTVSPropertyOp14
 70
     1
102
RTVSPropertyOp15
 70
     1
102
RTVSPropertyOp16
 70
     1
102
RTVSPropertyOp17
 70
     1
102
RTVSPropertyOp18
 70
     1
102
RTVSPropertyOp19
 70
     1
102
RTVSPropertyOp20
 70
     1
102
RTVSPropertyOp21
 70
     1
102
RTVSPropertyOp22
 70
     1
102
RTVSPropertyOp23
 70
     1
102
RTVSPropertyOp24
 70
     1
102
RTVSPropertyOp25
 70
     1
102
RTVSPropertyOp26
 70
     1
102
RTVSPropertyOp27
 70
     1
  0
XRECORD
  5
49B
102
{ACAD_REACTORS
330
49A
102
}
330
49A
100
AcDbXrecord
280
     1
102
RTVSPropertyOp0
 70
     1
102
RTVSPropertyOp1
 70
     1
102
RTVSPropertyOp2
 70
     1
102
RTVSPropertyOp3
 70
     1
102
RTVSPropertyOp4
 70
     1
102
RTVSPropertyOp5
 70
     1
102
RTVSPropertyOp6
 70
     1
102
RTVSPropertyOp7
 70
     1
102
RTVSPropertyOp8
 70
     1
102
RTVSPropertyOp9
 70
     1
102
RTVSPropertyOp10
 70
     1
102
RTVSPropertyOp11
 70
     1
102
RTVSPropertyOp12
 70
     1
102
RTVSPropertyOp13
 70
     1
102
RTVSPropertyOp14
 70
     1
102
RTVSPropertyOp15
 70
     1
102
RTVSPropertyOp16
 70
     1
102
RTVSPropertyOp17
 70
     1
102
RTVSPropertyOp18
 70
     1
102
RTVSPropertyOp19
 70
     1
102
RTVSPropertyOp20
 70
     1
102
RTVSPropertyOp21
 70
     1
102
RTVSPropertyOp22
 70
     1
102
RTVSPropertyOp23
 70
     1
102
RTVSPropertyOp24
 70
     1
102
RTVSPropertyOp25
 70
     1
102
RTVSPropertyOp26
 70
     1
102
RTVSPropertyOp27
 70
     1
  0
XRECORD
  5
49D
102
{ACAD_REACTORS
330
49C
102
}
330
49C
100
AcDbXrecord
280
     1
102
RTVSPropertyOp0
 70
     1
102
RTVSPropertyOp1
 70
     1
102
RTVSPropertyOp2
 70
     1
102
RTVSPropertyOp3
 70
     1
102
RTVSPropertyOp4
 70
     1
102
RTVSPropertyOp5
 70
     1
102
RTVSPropertyOp6
 70
     1
102
RTVSPropertyOp7
 70
     1
102
RTVSPropertyOp8
 70
     1
102
RTVSPropertyOp9
 70
     1
102
RTVSPropertyOp10
 70
     1
102
RTVSPropertyOp11
 70
     1
102
RTVSPropertyOp12
 70
     1
102
RTVSPropertyOp13
 70
     1
102
RTVSPropertyOp14
 70
     1
102
RTVSPropertyOp15
 70
     1
102
RTVSPropertyOp16
 70
     1
102
RTVSPropertyOp17
 70
     1
102
RTVSPropertyOp18
 70
     1
102
RTVSPropertyOp19
 70
     1
102
RTVSPropertyOp20
 70
     1
102
RTVSPropertyOp21
 70
     1
102
RTVSPropertyOp22
 70
     1
102
RTVSPropertyOp23
 70
     1
102
RTVSPropertyOp24
 70
     1
102
RTVSPropertyOp25
 70
     1
102
RTVSPropertyOp26
 70
     1
102
RTVSPropertyOp27
 70
     1
  0
XRECORD
  5
49F
102
{ACAD_REACTORS
330
49E
102
}
330
49E
100
AcDbXrecord
280
     1
102
RTVSPropertyOp0
 70
     1
102
RTVSPropertyOp1
 70
     1
102
RTVSPropertyOp2
 70
     1
102
RTVSPropertyOp3
 70
     1
102
RTVSPropertyOp4
 70
     1
102
RTVSPropertyOp5
 70
     1
102
RTVSPropertyOp6
 70
     1
102
RTVSPropertyOp7
 70
     1
102
RTVSPropertyOp8
 70
     1
102
RTVSPropertyOp9
 70
     1
102
RTVSPropertyOp10
 70
     1
102
RTVSPropertyOp11
 70
     1
102
RTVSPropertyOp12
 70
     1
102
RTVSPropertyOp13
 70
     1
102
RTVSPropertyOp14
 70
     1
102
RTVSPropertyOp15
 70
     1
102
RTVSPropertyOp16
 70
     1
102
RTVSPropertyOp17
 70
     1
102
RTVSPropertyOp18
 70
     1
102
RTVSPropertyOp19
 70
     1
102
RTVSPropertyOp20
 70
     1
102
RTVSPropertyOp21
 70
     1
102
RTVSPropertyOp22
 70
     1
102
RTVSPropertyOp23
 70
     1
102
RTVSPropertyOp24
 70
     1
102
RTVSPropertyOp25
 70
     1
102
RTVSPropertyOp26
 70
     1
102
RTVSPropertyOp27
 70
     1
  0
XRECORD
  5
4A1
102
{ACAD_REACTORS
330
4A0
102
}
330
4A0
100
AcDbXrecord
280
     1
102
RTVSPropertyOp0
 70
     1
102
RTVSPropertyOp1
 70
     1
102
RTVSPropertyOp2
 70
     1
102
RTVSPropertyOp3
 70
     1
102
RTVSPropertyOp4
 70
     1
102
RTVSPropertyOp5
 70
     1
102
RTVSPropertyOp6
 70
     1
102
RTVSPropertyOp7
 70
     1
102
RTVSPropertyOp8
 70
     1
102
RTVSPropertyOp9
 70
     1
102
RTVSPropertyOp10
 70
     1
102
RTVSPropertyOp11
 70
     1
102
RTVSPropertyOp12
 70
     1
102
RTVSPropertyOp13
 70
     1
102
RTVSPropertyOp14
 70
     1
102
RTVSPropertyOp15
 70
     1
102
RTVSPropertyOp16
 70
     1
102
RTVSPropertyOp17
 70
     1
102
RTVSPropertyOp18
 70
     1
102
RTVSPropertyOp19
 70
     1
102
RTVSPropertyOp20
 70
     1
102
RTVSPropertyOp21
 70
     1
102
RTVSPropertyOp22
 70
     1
102
RTVSPropertyOp23
 70
     1
102
RTVSPropertyOp24
 70
     1
102
RTVSPropertyOp25
 70
     1
102
RTVSPropertyOp26
 70
     1
102
RTVSPropertyOp27
 70
     1
  0
XRECORD
  5
4AF
102
{ACAD_REACTORS
330
4AE
102
}
330
4AE
100
AcDbXrecord
280
     1
102
RTVSPropertyOp0
 70
     1
102
RTVSPropertyOp1
 70
     1
102
RTVSPropertyOp2
 70
     1
102
RTVSPropertyOp3
 70
     1
102
RTVSPropertyOp4
 70
     1
102
RTVSPropertyOp5
 70
     1
102
RTVSPropertyOp6
 70
     1
102
RTVSPropertyOp7
 70
     1
102
RTVSPropertyOp8
 70
     1
102
RTVSPropertyOp9
 70
     1
102
RTVSPropertyOp10
 70
     1
102
RTVSPropertyOp11
 70
     1
102
RTVSPropertyOp12
 70
     1
102
RTVSPropertyOp13
 70
     1
102
RTVSPropertyOp14
 70
     1
102
RTVSPropertyOp15
 70
     1
102
RTVSPropertyOp16
 70
     1
102
RTVSPropertyOp17
 70
     1
102
RTVSPropertyOp18
 70
     1
102
RTVSPropertyOp19
 70
     1
102
RTVSPropertyOp20
 70
     1
102
RTVSPropertyOp21
 70
     1
102
RTVSPropertyOp22
 70
     1
102
RTVSPropertyOp23
 70
     1
102
RTVSPropertyOp24
 70
     1
102
RTVSPropertyOp25
 70
     1
102
RTVSPropertyOp26
 70
     1
102
RTVSPropertyOp27
 70
     1
  0
XRECORD
  5
497
102
{ACAD_REACTORS
330
496
102
}
330
496
100
AcDbXrecord
280
     1
102
RTVSPropertyOp0
 70
     1
102
RTVSPropertyOp1
 70
     1
102
RTVSPropertyOp2
 70
     1
102
RTVSPropertyOp3
 70
     1
102
RTVSPropertyOp4
 70
     1
102
RTVSPropertyOp5
 70
     1
102
RTVSPropertyOp6
 70
     1
102
RTVSPropertyOp7
 70
     1
102
RTVSPropertyOp8
 70
     1
102
RTVSPropertyOp9
 70
     1
102
RTVSPropertyOp10
 70
     1
102
RTVSPropertyOp11
 70
     1
102
RTVSPropertyOp12
 70
     1
102
RTVSPropertyOp13
 70
     1
102
RTVSPropertyOp14
 70
     1
102
RTVSPropertyOp15
 70
     1
102
RTVSPropertyOp16
 70
     1
102
RTVSPropertyOp17
 70
     1
102
RTVSPropertyOp18
 70
     1
102
RTVSPropertyOp19
 70
     1
102
RTVSPropertyOp20
 70
     1
102
RTVSPropertyOp21
 70
     1
102
RTVSPropertyOp22
 70
     1
102
RTVSPropertyOp23
 70
     1
102
RTVSPropertyOp24
 70
     1
102
RTVSPropertyOp25
 70
     1
102
RTVSPropertyOp26
 70
     1
102
RTVSPropertyOp27
 70
     1
  0
XRECORD
  5
4AD
102
{ACAD_REACTORS
330
4AC
102
}
330
4AC
100
AcDbXrecord
280
     1
102
RTVSPropertyOp0
 70
     1
102
RTVSPropertyOp1
 70
     1
102
RTVSPropertyOp2
 70
     1
102
RTVSPropertyOp3
 70
     1
102
RTVSPropertyOp4
 70
     1
102
RTVSPropertyOp5
 70
     1
102
RTVSPropertyOp6
 70
     1
102
RTVSPropertyOp7
 70
     1
102
RTVSPropertyOp8
 70
     1
102
RTVSPropertyOp9
 70
     1
102
RTVSPropertyOp10
 70
     1
102
RTVSPropertyOp11
 70
     1
102
RTVSPropertyOp12
 70
     1
102
RTVSPropertyOp13
 70
     1
102
RTVSPropertyOp14
 70
     1
102
RTVSPropertyOp15
 70
     1
102
RTVSPropertyOp16
 70
     1
102
RTVSPropertyOp17
 70
     1
102
RTVSPropertyOp18
 70
     1
102
RTVSPropertyOp19
 70
     1
102
RTVSPropertyOp20
 70
     1
102
RTVSPropertyOp21
 70
     1
102
RTVSPropertyOp22
 70
     1
102
RTVSPropertyOp23
 70
     1
102
RTVSPropertyOp24
 70
     1
102
RTVSPropertyOp25
 70
     1
102
RTVSPropertyOp26
 70
     1
102
RTVSPropertyOp27
 70
     1
  0
ENDSEC
  0
EOF
