  0
SECTION
  2
HEADER
  9
$ACADVER
  1
AC1018
  9
$ACADMAINTVER
 70
   104
  9
$DWGCODEPAGE
  3
ANSI_936
  9
$LASTSAVEDBY
  1
yuqin.cai
  9
$INSBASE
 10
0.0
 20
0.0
 30
0.0
  9
$EXTMIN
 10
30656.07556651417
 20
1325.848336664455
 30
-0.00000001
  9
$EXTMAX
 10
31938.31101380389
 20
3066.666666666666
 30
0.00000001
  9
$LIMMIN
 10
0.0
 20
0.0
  9
$LIMMAX
 10
297.0
 20
210.0
  9
$ORTHOMODE
 70
     1
  9
$REGENMODE
 70
     1
  9
$FILLMODE
 70
     1
  9
$QTEXTMODE
 70
     0
  9
$MIRRTEXT
 70
     0
  9
$LTSCALE
 40
16.335
  9
$ATTMODE
 70
     1
  9
$TEXTSIZE
 40
0.2
  9
$TRACEWID
 40
0.05
  9
$TEXTSTYLE
  7
STANDARD
  9
$CLAYER
  8
0
  9
$CELTYPE
  6
BYLAYER
  9
$CECOLOR
 62
   256
  9
$CELTSCALE
 40
1.0
  9
$DISPSILH
 70
     0
  9
$DIMSCALE
 40
1.0
  9
$DIMASZ
 40
3.5
  9
$DIMEXO
 40
1.0
  9
$DIMDLI
 40
11.286
  9
$DIMRND
 40
0.0
  9
$DIMDLE
 40
0.0
  9
$DIMEXE
 40
1.5
  9
$DIMTP
 40
0.01
  9
$DIMTM
 40
0.01
  9
$DIMTXT
 40
3.5
  9
$DIMCEN
 40
2.673
  9
$DIMTSZ
 40
0.0
  9
$DIMTOL
 70
     1
  9
$DIMLIM
 70
     0
  9
$DIMTIH
 70
     1
  9
$DIMTOH
 70
     1
  9
$DIMSE1
 70
     0
  9
$DIMSE2
 70
     0
  9
$DIMTAD
 70
     0
  9
$DIMZIN
 70
     0
  9
$DIMBLK
  1

  9
$DIMASO
 70
     1
  9
$DIMSHO
 70
     1
  9
$DIMPOST
  1

  9
$DIMAPOST
  1

  9
$DIMALT
 70
     0
  9
$DIMALTD
 70
     2
  9
$DIMALTF
 40
25.4
  9
$DIMLFAC
 40
1.0
  9
$DIMTOFL
 70
     0
  9
$DIMTVP
 40
0.0
  9
$DIMTIX
 70
     0
  9
$DIMSOXD
 70
     0
  9
$DIMSAH
 70
     0
  9
$DIMBLK1
  1

  9
$DIMBLK2
  1

  9
$DIMSTYLE
  2
STANDARD
  9
$DIMCLRD
 70
     0
  9
$DIMCLRE
 70
     0
  9
$DIMCLRT
 70
     0
  9
$DIMTFAC
 40
1.0
  9
$DIMGAP
 40
0.625
  9
$DIMJUST
 70
     0
  9
$DIMSD1
 70
     0
  9
$DIMSD2
 70
     0
  9
$DIMTOLJ
 70
     1
  9
$DIMTZIN
 70
     0
  9
$DIMALTZ
 70
     0
  9
$DIMALTTZ
 70
     0
  9
$DIMUPT
 70
     0
  9
$DIMDEC
 70
     4
  9
$DIMTDEC
 70
     4
  9
$DIMALTU
 70
     2
  9
$DIMALTTD
 70
     2
  9
$DIMTXSTY
  7
STANDARD
  9
$DIMAUNIT
 70
     0
  9
$DIMADEC
 70
     0
  9
$DIMALTRND
 40
0.0
  9
$DIMAZIN
 70
     0
  9
$DIMDSEP
 70
    44
  9
$DIMATFIT
 70
     3
  9
$DIMFRAC
 70
     0
  9
$DIMLDRBLK
  1

  9
$DIMLUNIT
 70
     2
  9
$DIMLWD
 70
    -2
  9
$DIMLWE
 70
    -2
  9
$DIMTMOVE
 70
     0
  9
$LUNITS
 70
     2
  9
$LUPREC
 70
     4
  9
$SKETCHINC
 40
0.1
  9
$FILLETRAD
 40
0.0
  9
$AUNITS
 70
     0
  9
$AUPREC
 70
     0
  9
$MENU
  1
.
  9
$ELEVATION
 40
0.0
  9
$PELEVATION
 40
0.0
  9
$THICKNESS
 40
0.0
  9
$LIMCHECK
 70
     0
  9
$CHAMFERA
 40
0.0
  9
$CHAMFERB
 40
0.0
  9
$CHAMFERC
 40
0.0
  9
$CHAMFERD
 40
0.0
  9
$SKPOLY
 70
     0
  9
$TDCREATE
 40
2458249.037099549
  9
$TDUCREATE
 40
2458248.703766215
  9
$TDUPDATE
 40
2458508.496094768
  9
$TDUUPDATE
 40
2458508.162761436
  9
$TDINDWG
 40
0.0827186227
  9
$TDUSRTIMER
 40
0.0827186227
  9
$USRTIMER
 70
     1
  9
$ANGBASE
 50
0.0
  9
$ANGDIR
 70
     0
  9
$PDMODE
 70
     3
  9
$PDSIZE
 40
8.0
  9
$PLINEWID
 40
0.0
  9
$SPLFRAME
 70
     0
  9
$SPLINETYPE
 70
     6
  9
$SPLINESEGS
 70
     8
  9
$HANDSEED
  5
554D
  9
$SURFTAB1
 70
     6
  9
$SURFTAB2
 70
     6
  9
$SURFTYPE
 70
     6
  9
$SURFU
 70
     6
  9
$SURFV
 70
     6
  9
$UCSBASE
  2

  9
$UCSNAME
  2

  9
$UCSORG
 10
0.0
 20
0.0
 30
0.0
  9
$UCSXDIR
 10
1.0
 20
0.0
 30
0.0
  9
$UCSYDIR
 10
0.0
 20
1.0
 30
0.0
  9
$UCSORTHOREF
  2

  9
$UCSORTHOVIEW
 70
     0
  9
$UCSORGTOP
 10
0.0
 20
0.0
 30
0.0
  9
$UCSORGBOTTOM
 10
0.0
 20
0.0
 30
0.0
  9
$UCSORGLEFT
 10
0.0
 20
0.0
 30
0.0
  9
$UCSORGRIGHT
 10
0.0
 20
0.0
 30
0.0
  9
$UCSORGFRONT
 10
0.0
 20
0.0
 30
0.0
  9
$UCSORGBACK
 10
0.0
 20
0.0
 30
0.0
  9
$PUCSBASE
  2

  9
$PUCSNAME
  2

  9
$PUCSORG
 10
0.0
 20
0.0
 30
0.0
  9
$PUCSXDIR
 10
1.0
 20
0.0
 30
0.0
  9
$PUCSYDIR
 10
0.0
 20
1.0
 30
0.0
  9
$PUCSORTHOREF
  2

  9
$PUCSORTHOVIEW
 70
     0
  9
$PUCSORGTOP
 10
0.0
 20
0.0
 30
0.0
  9
$PUCSORGBOTTOM
 10
0.0
 20
0.0
 30
0.0
  9
$PUCSORGLEFT
 10
0.0
 20
0.0
 30
0.0
  9
$PUCSORGRIGHT
 10
0.0
 20
0.0
 30
0.0
  9
$PUCSORGFRONT
 10
0.0
 20
0.0
 30
0.0
  9
$PUCSORGBACK
 10
0.0
 20
0.0
 30
0.0
  9
$USERI1
 70
     0
  9
$USERI2
 70
     0
  9
$USERI3
 70
     0
  9
$USERI4
 70
     0
  9
$USERI5
 70
     0
  9
$USERR1
 40
0.0
  9
$USERR2
 40
0.0
  9
$USERR3
 40
0.0
  9
$USERR4
 40
0.0
  9
$USERR5
 40
0.0
  9
$WORLDVIEW
 70
     1
  9
$SHADEDGE
 70
     3
  9
$SHADEDIF
 70
    70
  9
$TILEMODE
 70
     1
  9
$MAXACTVP
 70
    64
  9
$PINSBASE
 10
0.0
 20
0.0
 30
0.0
  9
$PLIMCHECK
 70
     0
  9
$PEXTMIN
 10
1.000000000000000E+20
 20
1.000000000000000E+20
 30
1.000000000000000E+20
  9
$PEXTMAX
 10
-1.000000000000000E+20
 20
-1.000000000000000E+20
 30
-1.000000000000000E+20
  9
$PLIMMIN
 10
0.0
 20
0.0
  9
$PLIMMAX
 10
12.0
 20
9.0
  9
$UNITMODE
 70
     0
  9
$VISRETAIN
 70
     1
  9
$PLINEGEN
 70
     0
  9
$PSLTSCALE
 70
     1
  9
$TREEDEPTH
 70
  3020
  9
$CMLSTYLE
  2
Standard
  9
$CMLJUST
 70
     0
  9
$CMLSCALE
 40
1.0
  9
$PROXYGRAPHICS
 70
     1
  9
$MEASUREMENT
 70
     1
  9
$CELWEIGHT
370
    -1
  9
$ENDCAPS
280
     0
  9
$JOINSTYLE
280
     0
  9
$LWDISPLAY
290
     0
  9
$INSUNITS
 70
     4
  9
$HYPERLINKBASE
  1

  9
$STYLESHEET
  1

  9
$XEDIT
290
     1
  9
$CEPSNTYPE
380
     0
  9
$PSTYLEMODE
290
     1
  9
$FINGERPRINTGUID
  2
{F2F7998C-03D6-45F9-A96A-CF8146DB7140}
  9
$VERSIONGUID
  2
{81088135-58CC-49CF-8511-ABCD0653C377}
  9
$EXTNAMES
290
     1
  9
$PSVPSCALE
 40
0.0
  9
$OLESTARTUP
290
     0
  9
$SORTENTS
280
   127
  9
$INDEXCTL
280
     0
  9
$HIDETEXT
280
     1
  9
$XCLIPFRAME
290
     0
  9
$HALOGAP
280
     0
  9
$OBSCOLOR
 70
   257
  9
$OBSLTYPE
280
     0
  9
$INTERSECTIONDISPLAY
280
     0
  9
$INTERSECTIONCOLOR
 70
   257
  9
$DIMASSOC
280
     2
  9
$PROJECTNAME
  1

  0
ENDSEC
  0
SECTION
  2
CLASSES
  0
CLASS
  1
ACDBDICTIONARYWDFLT
  2
AcDbDictionaryWithDefault
  3
ObjectDBX Classes
 90
        0
 91
        1
280
     0
281
     0
  0
CLASS
  1
MATERIAL
  2
AcDbMaterial
  3
ObjectDBX Classes
 90
        0
 91
        3
280
     0
281
     0
  0
CLASS
  1
VISUALSTYLE
  2
AcDbVisualStyle
  3
ObjectDBX Classes
 90
     4095
 91
       26
280
     0
281
     0
  0
CLASS
  1
TABLESTYLE
  2
AcDbTableStyle
  3
ObjectDBX Classes
 90
     4095
 91
        1
280
     0
281
     0
  0
CLASS
  1
SCALE
  2
AcDbScale
  3
ObjectDBX Classes
 90
     1153
 91
       33
280
     0
281
     0
  0
CLASS
  1
MLEADERSTYLE
  2
AcDbMLeaderStyle
  3
ACDB_MLEADERSTYLE_CLASS
 90
     4095
 91
        1
280
     0
281
     0
  0
CLASS
  1
CELLSTYLEMAP
  2
AcDbCellStyleMap
  3
ObjectDBX Classes
 90
     1152
 91
        2
280
     0
281
     0
  0
CLASS
  1
DICTIONARYVAR
  2
AcDbDictionaryVar
  3
ObjectDBX Classes
 90
        0
 91
        4
280
     0
281
     0
  0
CLASS
  1
DIMASSOC
  2
AcDbDimAssoc
  3
"ZcDbDimAssoc|Product Desc:     ZwDim ZRX App For Dimension|Company:          ZwSoft.|WEB Address:      www.zwsoft.com"
 90
        0
 91
        0
280
     0
281
     0
  0
CLASS
  1
SORTENTSTABLE
  2
AcDbSortentsTable
  3
ObjectDBX Classes
 90
        0
 91
        1
280
     0
281
     0
  0
CLASS
  1
SUN
  2
AcDbSun
  3
SCENEOE
 90
     1024
 91
        1
280
     0
281
     0
  0
ENDSEC
  0
SECTION
  2
TABLES
  0
TABLE
  2
VPORT
  5
8
330
0
100
AcDbSymbolTable
 70
     3
  0
VPORT
  5
5549
330
8
100
AcDbSymbolTableRecord
100
AcDbViewportTableRecord
  2
*Active
 70
     0
 10
0.0
 20
0.0
 11
1.0
 21
1.0
 12
32140.37828689172
 22
1904.188370734125
 13
0.0
 23
0.0
 14
1.0
 24
1.0
 15
0.0
 25
0.0
 16
0.0
 26
0.0
 36
1.0
 17
0.0
 27
0.0
 37
0.0
 40
1715.516656204372
 41
3.567282321899736
 42
50.0
 43
0.0
 44
0.0
 50
0.0
 51
0.0
 71
     0
 72
   100
 73
     1
 74
     1
 75
     1
 76
     0
 77
     0
 78
     0
281
     0
 65
     1
110
0.0
120
0.0
130
0.0
111
1.0
121
0.0
131
0.0
112
0.0
122
1.0
132
0.0
 79
     0
146
0.0
  0
ENDTAB
  0
TABLE
  2
LTYPE
  5
5
330
0
100
AcDbSymbolTable
 70
     1
  0
LTYPE
  5
14
330
5
100
AcDbSymbolTableRecord
100
AcDbLinetypeTableRecord
  2
BYBLOCK
 70
     0
  3

 72
    65
 73
     0
 40
0.0
  0
LTYPE
  5
15
330
5
100
AcDbSymbolTableRecord
100
AcDbLinetypeTableRecord
  2
BYLAYER
 70
     0
  3

 72
    65
 73
     0
 40
0.0
  0
LTYPE
  5
16
330
5
100
AcDbSymbolTableRecord
100
AcDbLinetypeTableRecord
  2
CONTINUOUS
 70
     0
  3
Solid line
 72
    65
 73
     0
 40
0.0
  0
ENDTAB
  0
TABLE
  2
LAYER
  5
2
102
{ACAD_XDICTIONARY
360
38E
102
}
330
0
100
AcDbSymbolTable
 70
     3
  0
LAYER
  5
10
330
2
100
AcDbSymbolTableRecord
100
AcDbLayerTableRecord
  2
0
 70
     0
 62
     7
  6
CONTINUOUS
370
    -3
390
F
  0
LAYER
  5
351
330
2
100
AcDbSymbolTableRecord
100
AcDbLayerTableRecord
  2
Defpoints
 70
     0
 62
     7
  6
CONTINUOUS
290
     0
370
    -3
390
F
  0
LAYER
  5
524C
330
2
100
AcDbSymbolTableRecord
100
AcDbLayerTableRecord
  2
11111外轮廓线
 70
     0
 62
   255
  6
CONTINUOUS
370
     5
390
F
1001
AcAecLayerStandard
1000

1000

  0
ENDTAB
  0
TABLE
  2
STYLE
  5
3
330
0
100
AcDbSymbolTable
 70
     1
  0
STYLE
  5
11
330
3
100
AcDbSymbolTableRecord
100
AcDbTextStyleTableRecord
  2
STANDARD
 70
     0
 40
0.0
 41
0.85
 50
0.0
 71
     0
 42
0.2
  3
txt
  4

  0
ENDTAB
  0
TABLE
  2
VIEW
  5
6
330
0
100
AcDbSymbolTable
 70
     0
  0
ENDTAB
  0
TABLE
  2
UCS
  5
7
330
0
100
AcDbSymbolTable
 70
     0
  0
ENDTAB
  0
TABLE
  2
APPID
  5
9
330
0
100
AcDbSymbolTable
 70
     8
  0
APPID
  5
1FF
330
9
100
AcDbSymbolTableRecord
100
AcDbRegAppTableRecord
  2
ACAD
 70
     0
  0
APPID
  5
343
330
9
100
AcDbSymbolTableRecord
100
AcDbRegAppTableRecord
  2
ACAD_MLEADERVER
 70
     0
  0
APPID
  5
389
330
9
100
AcDbSymbolTableRecord
100
AcDbRegAppTableRecord
  2
ACAD_DSTYLE_DIMJAG
 70
     0
  0
APPID
  5
38A
330
9
100
AcDbSymbolTableRecord
100
AcDbRegAppTableRecord
  2
ACAD_DSTYLE_DIMTALN
 70
     0
  0
APPID
  5
38B
330
9
100
AcDbSymbolTableRecord
100
AcDbRegAppTableRecord
  2
ACAD_PSEXT
 70
     0
  0
APPID
  5
38C
330
9
100
AcDbSymbolTableRecord
100
AcDbRegAppTableRecord
  2
AcAecLayerStandard
 70
     0
  0
APPID
  5
38D
330
9
100
AcDbSymbolTableRecord
100
AcDbRegAppTableRecord
  2
ACAD_DSTYLE_DIMBREAK
 70
     0
  0
APPID
  5
12E1
330
9
100
AcDbSymbolTableRecord
100
AcDbRegAppTableRecord
  2
ACAD_EXEMPT_FROM_CAD_STANDARDS
 70
     0
  0
ENDTAB
  0
TABLE
  2
DIMSTYLE
  5
A
330
0
100
AcDbSymbolTable
 70
     1
100
AcDbDimStyleTable
 71
     1
340
202
  0
DIMSTYLE
105
202
330
A
100
AcDbSymbolTableRecord
100
AcDbDimStyleTableRecord
  2
STANDARD
 70
     0
 41
3.5
 42
1.0
 44
1.5
 47
0.01
 48
0.01
 71
     1
 73
     0
 74
     0
 77
     1
 78
     8
140
3.5
147
0.625
271
     2
272
     2
278
    44
284
     8
340
11
  0
ENDTAB
  0
TABLE
  2
BLOCK_RECORD
  5
1
330
0
100
AcDbSymbolTable
 70
     0
  0
BLOCK_RECORD
  5
200
102
{ACAD_XDICTIONARY
360
467B
102
}
330
1
100
AcDbSymbolTableRecord
100
AcDbBlockTableRecord
  2
*Model_Space
340
2EE
  0
BLOCK_RECORD
  5
201
330
1
100
AcDbSymbolTableRecord
100
AcDbBlockTableRecord
  2
*Paper_Space
340
2EF
  0
ENDTAB
  0
ENDSEC
  0
SECTION
  2
BLOCKS
  0
BLOCK
  5
20
330
200
100
AcDbEntity
  8
0
100
AcDbBlockBegin
  2
*Model_Space
 70
     0
 10
0.0
 20
0.0
 30
0.0
  3
*Model_Space
  1

  0
ENDBLK
  5
21
330
200
100
AcDbEntity
  8
0
100
AcDbBlockEnd
  0
BLOCK
  5
1C
330
201
100
AcDbEntity
 67
     1
  8
0
100
AcDbBlockBegin
  2
*Paper_Space
 70
     0
 10
0.0
 20
0.0
 30
0.0
  3
*Paper_Space
  1

  0
ENDBLK
  5
1D
330
201
100
AcDbEntity
 67
     1
  8
0
100
AcDbBlockEnd
  0
ENDSEC
  0
SECTION
  2
ENTITIES
  0
MTEXT
  5
399
330
200
100
AcDbEntity
  8
0
100
AcDbMText
 10
31011.07764527027
 20
3050.0
 30
0.0
 40
75.0
 41
29.92235472972973
 71
     1
 72
     5
  1
{\fSimSun|b0|i0|c134|p2;SCALE  1:1}
 73
     1
 44
1.0
  0
LINE
  5
5389
330
200
100
AcDbEntity
  8
11111外轮廓线
 62
     7
370
     9
100
AcDbLine
 10
31011.07556652418
 20
1945.848336674455
 30
0.0
 11
30656.07556652417
 21
1945.848336674455
 31
0.0
  0
LINE
  5
538A
330
200
100
AcDbEntity
  8
11111外轮廓线
 62
     7
370
     9
100
AcDbLine
 10
30656.07556652417
 20
1503.348336674455
 30
0.0
 11
30656.07556652417
 21
1945.848336674455
 31
0.0
  0
LINE
  5
538B
330
200
100
AcDbEntity
  8
11111外轮廓线
 62
     7
370
     9
100
AcDbLine
 10
30663.07556652417
 20
1503.348336674455
 30
0.0
 11
30663.07556652417
 21
1945.848336674455
 31
0.0
  0
LINE
  5
538C
330
200
100
AcDbEntity
  8
11111外轮廓线
 62
     7
370
     9
100
AcDbLine
 10
31004.07556652418
 20
1945.848336674455
 30
0.0
 11
31004.07556652418
 21
1503.348336674455
 31
0.0
  0
LINE
  5
538D
330
200
100
AcDbEntity
  8
11111外轮廓线
 62
     7
370
     9
100
AcDbLine
 10
31011.07556652418
 20
1945.848336674455
 30
0.0
 11
31011.07556652418
 21
1503.348336674455
 31
0.0
  0
LINE
  5
538E
330
200
100
AcDbEntity
  8
11111外轮廓线
 62
     7
370
     9
100
AcDbLine
 10
30711.07556652417
 20
2169.218898417515
 30
0.0
 11
30956.07556652418
 21
2169.218898417515
 31
0.0
  0
LINE
  5
538F
330
200
100
AcDbEntity
  8
11111外轮廓线
 62
     7
370
     9
100
AcDbLine
 10
30656.07556652417
 20
2562.218898417516
 30
0.0
 11
30656.07556652417
 21
2520.950035496317
 31
0.0
  0
LINE
  5
5390
330
200
100
AcDbEntity
  8
11111外轮廓线
 62
     7
370
     9
100
AcDbLine
 10
30656.07556652417
 20
2520.950036070124
 30
0.0
 11
30656.07556652417
 21
2562.218898417516
 31
0.0
  0
LINE
  5
5391
330
200
100
AcDbEntity
  8
11111外轮廓线
 62
     7
370
     9
100
AcDbLine
 10
30703.47756391556
 20
2204.723152162318
 30
0.0
 11
30711.07556652417
 21
2169.218898417515
 31
0.0
  0
LWPOLYLINE
  5
5392
330
200
100
AcDbEntity
  8
11111外轮廓线
 62
     7
370
     9
100
AcDbPolyline
 90
        7
 70
     0
 43
0.0
 10
30666.25232061747
 20
2508.412249053116
 10
30668.89848365507
 20
2454.352945531726
 10
30673.32827514277
 20
2400.325100847815
 10
30679.20562790147
 20
2348.576130796027
 10
30686.26479799747
 20
2299.144734922316
 10
30694.19082575219
 20
2252.356371118618
 10
30701.65343275987
 20
2213.723712116116
  0
LINE
  5
5393
330
200
100
AcDbEntity
  8
11111外轮廓线
 62
     7
370
     9
100
AcDbLine
 10
30656.07556652417
 20
2520.913322034328
 30
0.0
 11
30656.28005888757
 21
2519.229729401217
 31
0.0
  0
LINE
  5
5394
330
200
100
AcDbEntity
  8
11111外轮廓线
 62
     7
370
     9
100
AcDbLine
 10
30661.65931446847
 20
2514.094806807916
 30
0.0
 11
30661.65789497427
 21
2514.094560978818
 31
0.0
  0
LINE
  5
5395
330
200
100
AcDbEntity
  8
11111外轮廓线
 62
     7
370
     9
100
AcDbLine
 10
31005.49323222697
 20
2514.094561183818
 30
0.0
 11
31005.49277368278
 21
2514.094639849027
 31
0.0
  0
LINE
  5
5396
330
200
100
AcDbEntity
  8
11111外轮廓线
 62
     7
370
     9
100
AcDbLine
 10
31011.07556652418
 20
2562.218898417516
 30
0.0
 11
30656.07556652417
 21
2562.218898417516
 31
0.0
  0
LINE
  5
5397
330
200
100
AcDbEntity
  8
11111外轮廓线
 62
     7
370
     9
100
AcDbLine
 10
31004.07556652418
 20
2569.218898417516
 30
0.0
 11
30663.07556652417
 21
2569.218898417516
 31
0.0
  0
LINE
  5
5398
330
200
100
AcDbEntity
  8
11111外轮廓线
 62
     7
370
     9
100
AcDbLine
 10
31011.07556652418
 20
2562.218898417516
 30
0.0
 11
31011.07556652418
 21
2520.950037112914
 31
0.0
  0
LINE
  5
5399
330
200
100
AcDbEntity
  8
11111外轮廓线
 62
     7
370
     9
100
AcDbLine
 10
31010.87107452448
 20
2519.229694570728
 30
0.0
 11
31011.07556652418
 21
2520.913393629817
 31
0.0
  0
LWPOLYLINE
  5
539A
330
200
100
AcDbEntity
  8
11111外轮廓线
 62
     7
370
     9
100
AcDbPolyline
 90
        7
 70
     0
 43
0.0
 10
30965.49768541267
 20
2213.723635127019
 10
30972.96030716098
 20
2252.356370375615
 10
30980.88633497397
 20
2299.144734431418
 10
30987.94550511358
 20
2348.576130536727
 10
30993.82285788807
 20
2400.325100670227
 10
30998.25264938729
 20
2454.352945440926
 10
31000.89881243099
 20
2508.412249057918
  0
LINE
  5
539B
330
200
100
AcDbEntity
  8
11111外轮廓线
 62
     7
370
     9
100
AcDbLine
 10
30956.07556652418
 20
2169.218898417617
 30
0.0
 11
30963.67356704977
 21
2204.723142408115
 31
0.0
  0
ARC
  5
539C
330
200
100
AcDbEntity
  8
11111外轮廓线
 62
     7
370
     9
100
AcDbCircle
 10
30833.57556652417
 20
1503.348336674455
 30
0.0
 40
177.5
100
AcDbArc
 50
180.0
 51
0.0
  0
ARC
  5
539D
330
200
100
AcDbEntity
  8
11111外轮廓线
 62
     7
370
     9
100
AcDbCircle
 10
30833.57556652417
 20
1503.348336674455
 30
0.0
 40
170.4999987985
100
AcDbArc
 50
180.0
 51
0.0
  0
ARC
  5
539E
330
200
100
AcDbEntity
  8
11111外轮廓线
 62
     7
370
     9
100
AcDbCircle
 10
30663.07556652417
 20
2520.909335295816
 30
0.0
 40
7.0
100
AcDbArc
 50
193.8832174712135
 51
257.4710539975165
  0
ARC
  5
539F
330
200
100
AcDbEntity
  8
11111外轮廓线
 62
     7
370
     9
100
AcDbCircle
 10
30660.25543701987
 20
2508.218898417516
 30
0.0
 40
6.0
100
AcDbArc
 50
1.846682169739795
 51
77.47105286326938
  0
ARC
  5
53A0
330
200
100
AcDbEntity
  8
11111外轮廓线
 62
     7
370
     9
100
AcDbCircle
 10
30663.07556652417
 20
2562.218898417516
 30
0.0
 40
7.0
100
AcDbArc
 50
90.0
 51
180.0
  0
ARC
  5
53A1
330
200
100
AcDbEntity
  8
11111外轮廓线
 62
     7
370
     9
100
AcDbCircle
 10
31004.07556652418
 20
2520.909298994218
 30
0.0
 40
7.0
100
AcDbArc
 50
282.5289682783298
 51
346.1167949334253
  0
ARC
  5
53A2
330
200
100
AcDbEntity
  8
11111外轮廓线
 62
     7
370
     9
100
AcDbCircle
 10
31006.89569616096
 20
2508.218898417516
 30
0.0
 40
6.0
100
AcDbArc
 50
102.5289817611926
 51
178.153317835485
  0
ARC
  5
53A3
330
200
100
AcDbEntity
  8
11111外轮廓线
 62
     7
370
     9
100
AcDbCircle
 10
31004.07556652418
 20
2562.218898417516
 30
0.0
 40
7.0
100
AcDbArc
 50
0.0
 51
90.0
  0
SPLINE
  5
53A4
330
200
100
AcDbEntity
  8
11111外轮廓线
 62
     7
370
     9
100
AcDbSpline
210
0.0
220
0.0
230
1.0
 70
     8
 71
     3
 72
    11
 73
     7
 74
     5
 42
0.0000000001
 43
0.0000000001
 44
0.0000000001
 12
0.0035807638607343
 22
0.9999935890445366
 32
0.0
 13
0.0155330572088755
 23
0.9998793547892395
 33
0.0
 40
0.0
 40
0.0
 40
0.0
 40
0.0
 40
10.39481808140317
 40
19.61082924502469
 40
27.72222769238821
 40
34.8145039015113
 40
34.8145039015113
 40
34.8145039015113
 40
34.8145039015113
 10
30882.53814329538
 20
1612.905998244154
 30
0.0
 10
30882.55055042502
 20
1616.37091539105
 30
0.0
 10
30882.58097760148
 20
1622.90779549789
 30
0.0
 10
30882.64954106184
 20
1632.148297899447
 30
0.0
 10
30882.73625768866
 20
1640.287745236095
 30
0.0
 10
30882.80652494213
 20
1645.355159518032
 30
0.0
 10
30882.8432465195
 20
1647.718966371354
 30
0.0
 11
30882.53814329538
 21
1612.905998244154
 31
0.0
 11
30882.58788487939
 21
1623.300697312443
 31
0.0
 11
30882.65755646078
 21
1632.516445119254
 31
0.0
 11
30882.74450991597
 21
1640.627377486653
 31
0.0
 11
30882.8432465195
 21
1647.718966371354
 31
0.0
  0
SPLINE
  5
53A5
330
200
100
AcDbEntity
  8
11111外轮廓线
 62
     7
370
     9
100
AcDbSpline
210
0.0
220
0.0
230
1.0
 70
     8
 71
     3
 72
     9
 73
     5
 74
     3
 42
0.0000000001
 43
0.0000000001
 44
0.0000000001
 12
0.0018549049835426
 22
0.9999982796622713
 32
0.0
 13
0.0035738988743168
 23
0.999993613603025
 33
0.0
 40
0.0
 40
0.0
 40
0.0
 40
0.0
 40
14.48875952724318
 40
29.67528417273853
 40
29.67528417273853
 40
29.67528417273853
 40
29.67528417273853
 10
30882.45527767547
 20
1583.230832643447
 30
0.0
 10
30882.46423609955
 20
1588.060410844008
 30
0.0
 10
30882.48758112066
 20
1597.95214653675
 30
0.0
 10
30882.52005159427
 20
1607.84385569138
 30
0.0
 10
30882.53814329538
 20
1612.905998244154
 30
0.0
 11
30882.45527767547
 21
1583.230832643447
 31
0.0
 11
30882.48920754068
 21
1597.719552442053
 31
0.0
 11
30882.53814329538
 21
1612.905998244154
 31
0.0
  0
SPLINE
  5
53A6
330
200
100
AcDbEntity
  8
11111外轮廓线
 62
     7
370
     9
100
AcDbSpline
210
0.0
220
0.0
230
1.0
 70
     8
 71
     3
 72
     9
 73
     5
 74
     3
 42
0.0000000001
 43
0.0000000001
 44
0.0000000001
 12
0.0035766185969489
 22
-0.9999936038792508
 32
0.0
 13
0.0018563846124565
 23
-0.999998276916601
 33
0.0
 40
0.0
 40
0.0
 40
0.0
 40
0.0
 40
15.16175343135989
 40
29.66889804535333
 40
29.66889804535333
 40
29.66889804535333
 40
29.66889804535333
 10
30784.61298174518
 20
1612.899596216844
 30
0.0
 10
30784.63105768161
 20
1607.84571073186
 30
0.0
 10
30784.66356311354
 20
1597.956130394439
 30
0.0
 10
30784.68686175049
 20
1588.066523303846
 30
0.0
 10
30784.69583869717
 20
1583.230816764855
 30
0.0
 11
30784.61298174518
 21
1612.899596216844
 31
0.0
 11
30784.66187591938
 21
1597.737921623546
 31
0.0
 11
30784.69583869717
 21
1583.230816764855
 31
0.0
  0
SPLINE
  5
53A7
330
200
100
AcDbEntity
  8
11111外轮廓线
 62
     7
370
     9
100
AcDbSpline
210
0.0
220
0.0
230
1.0
 70
     8
 71
     3
 72
    15
 73
    11
 74
     9
 42
0.0000000001
 43
0.0000000001
 44
0.0000000001
 12
0.0159546927221747
 22
-0.9998727157894354
 32
0.0
 13
0.003569371216437
 23
-0.9999936297742697
 33
0.0
 40
0.0
 40
0.0
 40
0.0
 40
0.0
 40
2.964366793167587
 40
6.257059311298142
 40
9.901105101166532
 40
13.94241049523077
 40
18.41368295907285
 40
23.35146697445249
 40
28.80441860271526
 40
34.82079628696978
 40
34.82079628696978
 40
34.82079628696978
 40
34.82079628696978
 10
30784.30742084328
 20
1647.718842644655
 30
0.0
 10
30784.32318603038
 20
1646.730846152628
 30
0.0
 10
30784.35352009005
 20
1644.645378922106
 30
0.0
 10
30784.39822283207
 20
1641.345312853159
 30
0.0
 10
30784.44194853437
 20
1637.686224443189
 30
0.0
 10
30784.48413722656
 20
1633.634234536176
 30
0.0
 10
30784.52333411631
 20
1629.150949880478
 30
0.0
 10
30784.55887394028
 20
1624.197072692433
 30
0.0
 10
30784.58972219062
 20
1618.72811996672
 30
0.0
 10
30784.60582351674
 20
1614.905042669701
 30
0.0
 10
30784.61298174518
 20
1612.899596216844
 30
0.0
 11
30784.30742084328
 21
1647.718842644655
 31
0.0
 11
30784.35146063809
 21
1644.754803005766
 31
0.0
 11
30784.39580514538
 21
1641.462409107153
 31
0.0
 11
30784.43948057699
 21
1637.818625060954
 31
0.0
 11
30784.48157786008
 21
1633.777538931354
 31
0.0
 11
30784.52086362848
 21
1629.306439058356
 31
0.0
 11
30784.55644261488
 21
1624.368783226055
 31
0.0
 11
30784.58742798327
 21
1618.915919632756
 31
0.0
 11
30784.61298174518
 21
1612.899596216844
 31
0.0
  0
SPLINE
  5
53A8
330
200
100
AcDbEntity
  8
11111外轮廓线
 62
     7
370
     9
100
AcDbSpline
210
0.0
220
0.0
230
1.0
 70
     8
 71
     3
 72
     9
 73
     5
 74
     3
 42
0.0000000001
 43
0.0000000001
 44
0.0000000001
 12
0.0051093160656657
 22
-0.999986947359485
 32
0.0
 13
0.0152980986185405
 23
-0.9998829772421657
 33
0.0
 40
0.0
 40
0.0
 40
0.0
 40
0.0
 40
0.2292255822608012
 40
0.4588640768755586
 40
0.4588640768755586
 40
0.4588640768755586
 40
0.4588640768755586
 10
30784.69583847049
 20
1583.230817111354
 30
0.0
 10
30784.69622886581
 20
1583.154409581267
 30
0.0
 10
30784.69740072677
 20
1583.001458634419
 30
0.0
 10
30784.6993509235
 20
1582.848515631282
 30
0.0
 10
30784.70052193428
 20
1582.771978424054
 30
0.0
 11
30784.69583847049
 21
1583.230817111354
 31
0.0
 11
30784.69759390617
 21
1583.001598250856
 31
0.0
 11
30784.70052193428
 21
1582.771978424054
 31
0.0
  0
SPLINE
  5
53A9
330
200
100
AcDbEntity
  8
11111外轮廓线
 62
     7
370
     9
100
AcDbSpline
210
0.0
220
0.0
230
1.0
 70
     8
 71
     3
 72
     9
 73
     5
 74
     3
 42
0.0000000001
 43
0.0000000001
 44
0.0000000001
 12
0.0152902151371125
 22
0.9998830978274716
 32
0.0
 13
0.005111005793258
 23
0.9999869387245922
 33
0.0
 40
0.0
 40
0.0
 40
0.0
 40
0.0
 40
0.2295523584021231
 40
0.4583427791907687
 40
0.4583427791907687
 40
0.4583427791907687
 40
0.4583427791907687
 10
30882.45011636918
 20
1582.772518212055
 30
0.0
 10
30882.45128633749
 20
1582.8490267198
 30
0.0
 10
30882.45322675401
 20
1583.001796034755
 30
0.0
 10
30882.45441588833
 20
1583.154573073956
 30
0.0
 10
30882.45480567139
 20
1583.230835551454
 30
0.0
 11
30882.45011636918
 21
1582.772518212055
 31
0.0
 11
30882.45304153418
 21
1583.002051932144
 31
0.0
 11
30882.45480567139
 21
1583.230835551454
 31
0.0
  0
SPLINE
  5
53AA
330
200
100
AcDbEntity
  8
11111外轮廓线
 62
     7
370
     9
100
AcDbSpline
210
0.0
220
0.0
230
1.0
 70
     8
 71
     3
 72
    13
 73
     9
 74
     7
 42
0.0000000001
 43
0.0000000001
 44
0.0000000001
 12
0.3207114867352426
 22
0.9471769329307329
 32
0.0
 13
0.0152929511690565
 23
0.9998830559843192
 33
0.0
 40
0.0
 40
0.0
 40
0.0
 40
0.0
 40
2.53608843491108
 40
5.066983694809332
 40
7.594884662473686
 40
10.1223646780042
 40
12.65235167111322
 40
15.1874553075296
 40
15.1874553075296
 40
15.1874553075296
 40
15.1874553075296
 10
30879.87770466588
 20
1567.864929156352
 30
0.0
 10
30880.14882223003
 20
1568.665637311492
 30
0.0
 10
30880.64907614638
 20
1570.27978829601
 30
0.0
 10
30881.27230221873
 20
1572.73462122033
 30
0.0
 10
30881.76690375805
 20
1575.215704696177
 30
0.0
 10
30882.13223959639
 20
1577.718782927215
 30
0.0
 10
30882.36759935165
 20
1580.239756893079
 30
0.0
 10
30882.43719329713
 20
1581.927582488317
 30
0.0
 10
30882.45011636918
 20
1582.772518212055
 30
0.0
 11
30879.87770466588
 21
1567.864929156352
 31
0.0
 11
30880.62842954929
 21
1570.287357008554
 31
0.0
 11
30881.25119759428
 21
1572.740434826053
 31
0.0
 11
30881.74539972299
 21
1575.219557162345
 31
0.0
 11
30882.11043808807
 21
1577.720537414352
 31
0.0
 11
30882.34563056447
 21
1580.239568713154
 31
0.0
 11
30882.45011636918
 21
1582.772518212055
 31
0.0
  0
SPLINE
  5
53AB
330
200
100
AcDbEntity
  8
11111外轮廓线
 62
     7
370
     9
100
AcDbSpline
210
0.0
220
0.0
230
1.0
 70
     8
 71
     3
 72
    29
 73
    25
 74
    23
 42
0.0000000001
 43
0.0000000001
 44
0.0000000001
 12
0.999999999986295
 22
0.0000052354582436
 32
0.0
 13
0.3207123666126134
 23
0.9471766350062361
 33
0.0
 40
0.0
 40
0.0
 40
0.0
 40
0.0
 40
2.739708280655803
 40
5.483264313152414
 40
8.229531947236406
 40
10.97741063009518
 40
13.72643300170135
 40
16.4787562292167
 40
19.23429195331926
 40
21.99399939748386
 40
24.75640897789331
 40
27.51963279957641
 40
30.28616866959389
 40
33.05752920861413
 40
35.83232239489979
 40
38.6101783923865
 40
41.38946213063118
 40
44.16886880835554
 40
46.95295810972914
 40
49.74182841708993
 40
52.53253548011917
 40
55.32499104590581
 40
58.11785008893703
 40
60.90970172099146
 40
60.90970172099146
 40
60.90970172099146
 40
60.90970172099146
 10
30833.57553354989
 20
1534.522264804454
 30
0.0
 10
30834.48876964343
 20
1534.522269585664
 30
0.0
 10
30836.31694189633
 20
1534.573733253566
 30
0.0
 10
30839.05171297523
 20
1534.80533368666
 30
0.0
 10
30841.77186862691
 20
1535.191126097152
 30
0.0
 10
30844.46769358929
 20
1535.730112829912
 30
0.0
 10
30847.13077225752
 20
1536.420860830311
 30
0.0
 10
30849.75305057963
 20
1537.261597945485
 30
0.0
 10
30852.32697965577
 20
1538.250398696303
 30
0.0
 10
30854.84394386062
 20
1539.384555062764
 30
0.0
 10
30857.29496396759
 20
1540.660521788678
 30
0.0
 10
30859.67179901087
 20
1542.074321071637
 30
0.0
 10
30861.96729347581
 20
1543.622030143982
 30
0.0
 10
30864.17454943811
 20
1545.299562802763
 30
0.0
 10
30866.28606871176
 20
1547.101932843435
 30
0.0
 10
30868.29392949637
 20
1549.022929661421
 30
0.0
 10
30870.19073390483
 20
1551.055763119268
 30
0.0
 10
30871.97070678813
 20
1553.194341096865
 30
0.0
 10
30873.62870000617
 20
1555.432796891541
 30
0.0
 10
30875.15935999806
 20
1557.764692546334
 30
0.0
 10
30876.55691880289
 20
1560.181925124396
 30
0.0
 10
30877.81607819179
 20
1562.675567723463
 30
0.0
 10
30878.93243102922
 20
1565.236639721861
 30
0.0
 10
30879.57924421783
 20
1566.983470278257
 30
0.0
 10
30879.87770466588
 20
1567.864929156352
 30
0.0
 11
30833.57553354989
 21
1534.522264804454
 31
0.0
 11
30836.31415650958
 21
1534.599373479454
 31
0.0
 11
30839.04792734498
 21
1534.830883140054
 31
0.0
 11
30841.76698427619
 21
1535.216519397254
 31
0.0
 11
30844.46153690107
 21
1535.755243266645
 31
0.0
 11
30847.12250750208
 21
1536.445431255655
 31
0.0
 11
30849.74342262808
 21
1537.285721116954
 31
0.0
 11
30852.31568430799
 21
1538.273874433453
 31
0.0
 11
30854.83175603549
 21
1539.407615250155
 31
0.0
 11
30857.28203168308
 21
1540.683176279945
 31
0.0
 11
30859.6568929353
 21
1542.095776691054
 31
0.0
 11
30861.95075693107
 21
1543.642356365355
 31
0.0
 11
30864.15721069028
 21
1545.319258582454
 31
0.0
 11
30866.26770606219
 21
1547.120726459445
 31
0.0
 11
30868.27490222229
 21
1549.041051306354
 31
0.0
 11
30870.17100971398
 21
1551.073093254152
 31
0.0
 11
30871.94908927137
 21
1553.209336350755
 31
0.0
 11
30873.60620281397
 21
1555.446550677756
 31
0.0
 11
30875.13660704139
 21
1557.778000975744
 31
0.0
 11
30876.53346742668
 21
1560.193953577855
 31
0.0
 11
30877.79218891979
 21
1562.686628504452
 31
0.0
 11
30878.90820320838
 21
1565.246818681353
 31
0.0
 11
30879.87770466588
 21
1567.864929156352
 31
0.0
  0
SPLINE
  5
53AC
330
200
100
AcDbEntity
  8
11111外轮廓线
 62
     7
370
     9
100
AcDbSpline
210
0.0
220
0.0
230
1.0
 70
     8
 71
     3
 72
    30
 73
    26
 74
    24
 42
0.0000000001
 43
0.0000000001
 44
0.0000000001
 12
0.3206441151606984
 22
-0.9471997420886541
 32
0.0
 13
0.9999999999986638
 23
0.0000016347753595
 33
0.0
 40
0.0
 40
0.0
 40
0.0
 40
0.0
 40
2.67071510118025
 40
5.342466350714587
 40
8.013638035243932
 40
10.68397963771306
 40
13.35160460519594
 40
16.01491065417629
 40
18.67450280094583
 40
21.33290436827512
 40
23.99069608501531
 40
26.64646966296106
 40
29.29924450207348
 40
31.94769179401089
 40
34.59208151933779
 40
37.23502310877119
 40
39.87691904324993
 40
42.51574579927989
 40
45.15135946630063
 40
47.78422679258275
 40
50.41363748618175
 40
53.04221125243173
 40
55.66914720792723
 40
58.29345213326493
 40
60.91424085306709
 40
60.91424085306709
 40
60.91424085306709
 40
60.91424085306709
 10
30787.27181561058
 20
1567.868176269254
 30
0.0
 10
30787.55726530407
 20
1567.024942717577
 30
0.0
 10
30788.17383813435
 20
1565.353177115176
 30
0.0
 10
30789.23252088438
 20
1562.899367866144
 30
0.0
 10
30790.42226541524
 20
1560.506403601445
 30
0.0
 10
30791.73909301295
 20
1558.182552191554
 30
0.0
 10
30793.17843783294
 20
1555.935635707074
 30
0.0
 10
30794.73524476532
 20
1553.772867999545
 30
0.0
 10
30796.40491115028
 20
1551.699937329316
 30
0.0
 10
30798.18315568027
 20
1549.721832241958
 30
0.0
 10
30800.06510331735
 20
1547.843916853706
 30
0.0
 10
30802.04472036952
 20
1546.072071201158
 30
0.0
 10
30804.11506932059
 20
1544.412124803656
 30
0.0
 10
30806.26923222114
 20
1542.869010955744
 30
0.0
 10
30808.50101045667
 20
1541.446546395022
 30
0.0
 10
30810.80461528615
 20
1540.148051423296
 30
0.0
 10
30813.17348376098
 20
1538.977008483034
 30
0.0
 10
30815.60002072674
 20
1537.936874889366
 30
0.0
 10
30818.07643395116
 20
1537.030544428769
 30
0.0
 10
30820.59520019163
 20
1536.26027778137
 30
0.0
 10
30823.1496044552
 20
1535.627706998212
 30
0.0
 10
30825.73248135679
 20
1535.134310766873
 30
0.0
 10
30828.33655345389
 20
1534.781249368143
 30
0.0
 10
30830.95320699856
 20
1534.569340280977
 30
0.0
 10
30832.70193730996
 20
1534.522263376321
 30
0.0
 10
30833.57553354989
 20
1534.522264804454
 30
0.0
 11
30787.27181561058
 21
1567.868176269254
 31
0.0
 11
30788.19601517288
 21
1565.362467922154
 31
0.0
 11
30789.25445710019
 21
1562.909315781355
 31
0.0
 11
30790.44368621599
 21
1560.517477099845
 31
0.0
 11
30791.76021041138
 21
1558.194227583153
 31
0.0
 11
30793.19916097228
 21
1555.947976428357
 31
0.0
 11
30794.75511174378
 21
1553.786445418355
 31
0.0
 11
30796.42345979208
 21
1551.715202994856
 31
0.0
 11
30798.20072647338
 21
1549.738230046954
 31
0.0
 11
30800.08210020379
 21
1547.860920883256
 31
0.0
 11
30802.06100344038
 21
1546.089741819043
 31
0.0
 11
30804.13069293657
 21
1544.430344417454
 31
0.0
 11
30806.28373888679
 21
1542.888051904854
 31
0.0
 11
30808.51370535618
 21
1541.466768483155
 31
0.0
 11
30810.81607517088
 21
1540.168988270055
 31
0.0
 11
30813.18439545937
 21
1538.998230763256
 31
0.0
 11
30815.60979509586
 21
1537.958594648244
 31
0.0
 11
30818.08485687039
 21
1537.052764303156
 31
0.0
 11
30820.60262678119
 21
1536.282812983852
 31
0.0
 11
30823.15494377117
 21
1535.650769806354
 31
0.0
 11
30825.73683318627
 21
1535.157568941755
 31
0.0
 11
30828.33995272389
 21
1534.804636671855
 31
0.0
 11
30830.95569435819
 21
1534.592806448054
 31
0.0
 11
30833.57553354989
 21
1534.522264804454
 31
0.0
  0
SPLINE
  5
53AD
330
200
100
AcDbEntity
  8
11111外轮廓线
 62
     7
370
     9
100
AcDbSpline
210
0.0
220
0.0
230
1.0
 70
     8
 71
     3
 72
    13
 73
     9
 74
     7
 42
0.0000000001
 43
0.0000000001
 44
0.0000000001
 12
0.0152984089798328
 22
-0.9998829724936243
 32
0.0
 13
0.3206466092489042
 23
-0.9471988977913669
 33
0.0
 40
0.0
 40
0.0
 40
0.0
 40
0.0
 40
2.534472789671105
 40
5.063886903746572
 40
7.590769275819212
 40
10.11798653199509
 40
12.6481672351949
 40
15.18348785859089
 40
15.18348785859089
 40
15.18348785859089
 40
15.18348785859089
 10
30784.70052193428
 20
1582.771978424054
 30
0.0
 10
30784.71344640138
 20
1581.927253028507
 30
0.0
 10
30784.78303501733
 20
1580.239829320573
 30
0.0
 10
30785.01831380054
 20
1577.719451791028
 30
0.0
 10
30785.3835074574
 20
1575.216978173928
 30
0.0
 10
30785.87789469193
 20
1572.736531315635
 30
0.0
 10
30786.50082631624
 20
1570.282369458706
 30
0.0
 10
30787.00083495684
 20
1568.668660569263
 30
0.0
 10
30787.27181561058
 20
1567.868176269254
 30
0.0
 11
30784.70052193428
 21
1582.771978424054
 31
0.0
 11
30784.80499031698
 21
1580.239659589744
 31
0.0
 11
30785.04010662478
 21
1577.721196550054
 31
0.0
 11
30785.40500570328
 21
1575.220799944553
 31
0.0
 11
30785.89899033169
 21
1572.742331416044
 31
0.0
 11
30786.52146637238
 21
1570.289916693855
 31
0.0
 11
30787.27181561058
 21
1567.868176269254
 31
0.0
  0
SPLINE
  5
53AE
330
200
100
AcDbEntity
  8
11111外轮廓线
 62
     7
370
     9
100
AcDbSpline
210
0.0
220
0.0
230
1.0
 70
     8
 71
     3
 72
    29
 73
    25
 74
    23
 42
0.0000000001
 43
0.0000000001
 44
0.0000000001
 12
0.9999999999810572
 22
0.0000061551121647
 32
0.0
 13
0.242088643133992
 23
0.9702541362269695
 33
0.0
 40
0.0
 40
0.0
 40
0.0
 40
0.0
 40
3.577277226626025
 40
7.161593171234206
 40
10.74940151988309
 40
14.33707622491865
 40
17.92170476544893
 40
21.5049631083719
 40
25.09016561521177
 40
28.67719060238642
 40
32.26194229871909
 40
35.83970591486424
 40
39.41137523924654
 40
42.98112421702576
 40
46.54771594836859
 40
50.10857460349825
 40
53.65937372070095
 40
57.19617955207484
 40
60.72406023229325
 40
64.24601173638247
 40
67.75675230750289
 40
71.25381129882329
 40
74.73328892110901
 40
78.19129645589891
 40
78.19129645589891
 40
78.19129645589891
 40
78.19129645589891
 10
30833.57556652428
 20
1518.623932056045
 30
0.0
 10
30834.76799226647
 20
1518.623939395559
 30
0.0
 10
30837.15580884851
 20
1518.695874155474
 30
0.0
 10
30840.72641181292
 20
1519.018895360103
 30
0.0
 10
30844.27475031674
 20
1519.55617841141
 30
0.0
 10
30847.78450818258
 20
1520.305485235459
 30
0.0
 10
30851.24151220913
 20
1521.263720775553
 30
0.0
 10
30854.63379568864
 20
1522.428021633606
 30
0.0
 10
30857.9507123291
 20
1523.794376766953
 30
0.0
 10
30861.18006567586
 20
1525.357614706585
 30
0.0
 10
30864.30756967494
 20
1527.1107140374
 30
0.0
 10
30867.31984910048
 20
1529.045692112148
 30
0.0
 10
30870.20618935642
 20
1531.155494644686
 30
0.0
 10
30872.95731223936
 20
1533.432973535522
 30
0.0
 10
30875.56381495726
 20
1535.869355490139
 30
0.0
 10
30878.01464190548
 20
1538.453583307134
 30
0.0
 10
30880.29901403615
 20
1541.17309923417
 30
0.0
 10
30882.40881281412
 20
1544.016501903542
 30
0.0
 10
30884.33752478626
 20
1546.974245429801
 30
0.0
 10
30886.07984019921
 20
1550.035485817979
 30
0.0
 10
30887.62940546143
 20
1553.187209002207
 30
0.0
 10
30888.98000484048
 20
1556.413873963614
 30
0.0
 10
30890.12682253625
 20
1559.699704701275
 30
0.0
 10
30890.75535014802
 20
1561.926897938942
 30
0.0
 10
30891.03439826538
 20
1563.045279976853
 30
0.0
 11
30833.57556652428
 21
1518.623932056045
 31
0.0
 11
30837.15122457398
 21
1518.731551142544
 31
0.0
 11
30840.72097020358
 21
1519.054408588945
 31
0.0
 11
30844.26834499639
 21
1519.591531317947
 31
0.0
 11
30847.77694727577
 21
1520.340610642353
 31
0.0
 11
30851.23129546208
 21
1521.298232896344
 31
0.0
 11
30854.62050539637
 21
1522.461416619353
 31
0.0
 11
30857.93548524808
 21
1523.826914915855
 31
0.0
 11
30861.16412237069
 21
1525.389813053654
 31
0.0
 11
30864.29109075797
 21
1527.142671698653
 31
0.0
 11
30867.30122711757
 21
1529.076443037153
 31
0.0
 11
30870.18465126059
 21
1531.184211282052
 31
0.0
 11
30872.93444586537
 21
1533.460554269353
 31
0.0
 11
30875.53996444649
 21
1535.896093121755
 31
0.0
 11
30877.99022467389
 21
1538.479877009744
 31
0.0
 11
30880.27394712827
 21
1541.198844851053
 31
0.0
 11
30882.38125844247
 21
1544.039308636053
 31
0.0
 11
30884.30823868378
 21
1546.994421027055
 31
0.0
 11
30886.05025502479
 21
1550.055388433746
 31
0.0
 11
30887.59909899168
 21
1553.206004520154
 31
0.0
 11
30888.94917592267
 21
1556.431948392754
 31
0.0
 11
30890.09548895198
 21
1559.717177602844
 31
0.0
 11
30891.03439826538
 21
1563.045279976853
 31
0.0
  0
SPLINE
  5
53AF
330
200
100
AcDbEntity
  8
11111外轮廓线
 62
     7
370
     9
100
AcDbSpline
210
0.0
220
0.0
230
1.0
 70
     8
 71
     3
 72
    13
 73
     9
 74
     7
 42
0.0000000001
 43
0.0000000001
 44
0.0000000001
 12
0.2459552625119262
 22
0.9692811815168441
 32
0.0
 13
-0.0281112126007268
 23
0.9996048017722387
 33
0.0
 40
0.0
 40
0.0
 40
0.0
 40
0.0
 40
3.25939360865638
 40
6.502511070539972
 40
9.728289884935616
 40
12.93632367793
 40
16.12685948768703
 40
19.29998544375246
 40
19.29998544375246
 40
19.29998544375246
 40
19.29998544375246
 10
30891.03439826538
 20
1563.045279976853
 30
0.0
 10
30891.30161993559
 20
1564.098369606196
 30
0.0
 10
30891.78679294267
 20
1566.211793651162
 30
0.0
 10
30892.36724853679
 20
1569.403278320584
 30
0.0
 10
30892.79869241684
 20
1572.601089629508
 30
0.0
 10
30893.08124317224
 20
1575.797889148407
 30
0.0
 10
30893.21514126472
 20
1578.986730806293
 30
0.0
 10
30893.20542136638
 20
1581.108843738217
 30
0.0
 10
30893.17568789359
 20
1582.166134385654
 30
0.0
 11
30891.03439826538
 21
1563.045279976853
 31
0.0
 11
30891.76358826997
 21
1566.222059577856
 31
0.0
 11
30892.34376121528
 21
1569.412860453045
 31
0.0
 11
30892.77485656739
 21
1572.609703545346
 31
0.0
 11
30893.05703740998
 21
1575.805302830155
 31
0.0
 11
30893.19056432549
 21
1578.993043302053
 31
0.0
 11
30893.17568789359
 21
1582.166134385654
 31
0.0
  0
SPLINE
  5
53B0
330
200
100
AcDbEntity
  8
11111外轮廓线
 62
     7
370
     9
100
AcDbSpline
210
0.0
220
0.0
230
1.0
 70
     8
 71
     3
 72
     9
 73
     5
 74
     3
 42
0.0000000001
 43
0.0000000001
 44
0.0000000001
 12
-0.0088512541676327
 22
0.9999608268825634
 32
0.0
 13
-0.0183668269616333
 23
0.9998313156064684
 33
0.0
 40
0.0
 40
0.0
 40
0.0
 40
0.0
 40
0.341147956015153
 40
0.6811487486248619
 40
0.6811487486248619
 40
0.6811487486248619
 40
0.6811487486248619
 10
30893.17568789359
 20
1582.166134385654
 30
0.0
 10
30893.1746813645
 20
1582.279845916383
 30
0.0
 10
30893.17201455989
 20
1582.506880318843
 30
0.0
 10
30893.16873325056
 20
1582.733907300226
 30
0.0
 10
30893.16665167198
 20
1582.847221780153
 30
0.0
 11
30893.17568789359
 21
1582.166134385654
 31
0.0
 11
30893.17185592448
 21
1582.507260819555
 31
0.0
 11
30893.16665167198
 21
1582.847221780153
 31
0.0
  0
SPLINE
  5
53B1
330
200
100
AcDbEntity
  8
11111外轮廓线
 62
     7
370
     9
100
AcDbSpline
210
0.0
220
0.0
230
1.0
 70
     8
 71
     3
 72
     9
 73
     5
 74
     3
 42
0.0000000001
 43
0.0000000001
 44
0.0000000001
 12
-0.0183490308309875
 22
0.9998316423616346
 32
0.0
 13
-0.0375298028325558
 23
0.9992955087957463
 33
0.0
 40
0.0
 40
0.0
 40
0.0
 40
0.0
 40
14.30110950213887
 40
29.36209227406908
 40
29.36209227406908
 40
29.36209227406908
 40
29.36209227406908
 10
30893.16665167198
 20
1582.847221780153
 30
0.0
 10
30893.07918117226
 20
1587.613455713859
 30
0.0
 10
30892.85588457575
 20
1597.398461364719
 30
0.0
 10
30892.52716226441
 20
1607.180483004242
 30
0.0
 10
30892.33875035978
 20
1612.197273818255
 30
0.0
 11
30893.16665167198
 21
1582.847221780153
 31
0.0
 11
30892.83665345349
 21
1597.144523419552
 31
0.0
 11
30892.33875035978
 21
1612.197273818255
 31
0.0
  0
SPLINE
  5
53B2
330
200
100
AcDbEntity
  8
11111外轮廓线
 62
     7
370
     9
100
AcDbSpline
210
0.0
220
0.0
230
1.0
 70
     8
 71
     3
 72
    11
 73
     7
 74
     5
 42
0.0000000001
 43
0.0000000001
 44
0.0000000001
 12
-0.032810623240123
 22
0.9994615865567794
 32
0.0
 13
-0.1570189775004376
 23
0.9875955856041059
 33
0.0
 40
0.0
 40
0.0
 40
0.0
 40
0.0
 40
9.926216259233369
 40
18.64923710267996
 40
26.32988369950036
 40
33.13972958519007
 40
33.13972958519007
 40
33.13972958519007
 40
33.13972958519007
 10
30892.33875035978
 20
1612.197273818255
 30
0.0
 10
30892.23018857916
 20
1615.504231101908
 30
0.0
 10
30891.95463467871
 20
1621.715352419443
 30
0.0
 10
30891.32032641792
 20
1630.470346775684
 30
0.0
 10
30890.50944883263
 20
1638.167076830247
 30
0.0
 10
30889.83399232482
 20
1642.950907302135
 30
0.0
 10
30889.47756731219
 20
1645.192698547253
 30
0.0
 11
30892.33875035978
 21
1612.197273818255
 31
0.0
 11
30891.88764161208
 21
1622.113234191452
 31
0.0
 11
30891.24492952049
 21
1630.812545302255
 31
0.0
 11
30890.43146996579
 21
1638.449993547456
 31
0.0
 11
30889.47756731219
 21
1645.192698547253
 31
0.0
  0
SPLINE
  5
53B3
330
200
100
AcDbEntity
  8
11111外轮廓线
 62
     7
370
     9
100
AcDbSpline
210
0.0
220
0.0
230
1.0
 70
     8
 71
     3
 72
     9
 73
     5
 74
     3
 42
0.0000000001
 43
0.0000000001
 44
0.0000000001
 12
-0.156921440537394
 22
0.9876110881818151
 32
0.0
 13
-0.2004657062149336
 23
0.9797007199301978
 33
0.0
 40
0.0
 40
0.0
 40
0.0
 40
0.0
 40
0.448438413207629
 40
0.8882822500716221
 40
0.8882822500716221
 40
0.8882822500716221
 40
0.8882822500716221
 10
30889.47756731219
 20
1645.192698547253
 30
0.0
 10
30889.45411077825
 20
1645.340326130336
 30
0.0
 10
30889.40436324562
 20
1645.632238883686
 30
0.0
 10
30889.34825888736
 20
1645.922996084134
 30
0.0
 10
30889.31886768556
 20
1646.066634525345
 30
0.0
 11
30889.47756731219
 21
1645.192698547253
 31
0.0
 11
30889.40226180537
 21
1645.634768780455
 31
0.0
 11
30889.31886768556
 21
1646.066634525345
 31
0.0
  0
SPLINE
  5
53B4
330
200
100
AcDbEntity
  8
11111外轮廓线
 62
     7
370
     9
100
AcDbSpline
210
0.0
220
0.0
230
1.0
 70
     8
 71
     3
 72
    12
 73
     8
 74
     6
 42
0.0000000001
 43
0.0000000001
 44
0.0000000001
 12
-0.1991282101894858
 22
0.9799734465314518
 32
0.0
 13
-0.3817174846923854
 23
0.9242790497896827
 33
0.0
 40
0.0
 40
0.0
 40
0.0
 40
0.0
 40
1.295626125307375
 40
2.50755894920567
 40
3.636086036216805
 40
4.672315040073065
 40
5.623174083375422
 40
5.623174083375422
 40
5.623174083375422
 40
5.623174083375422
 10
30889.31886768556
 20
1646.066634525345
 30
0.0
 10
30889.23286911509
 20
1646.489860925156
 30
0.0
 10
30889.04700528491
 20
1647.305133163334
 30
0.0
 10
30888.72807103545
 20
1648.474782676245
 30
0.0
 10
30888.38736659762
 20
1649.547857190214
 30
0.0
 10
30888.03653278457
 20
1650.525568124384
 30
0.0
 10
30887.79185058313
 20
1651.141203288547
 30
0.0
 10
30887.67086407569
 20
1651.434156319556
 30
0.0
 11
30889.31886768556
 21
1646.066634525345
 31
0.0
 11
30889.03170273139
 21
1647.330036023551
 31
0.0
 11
30888.71248060228
 21
1648.499171773554
 31
0.0
 11
30888.37116690859
 21
1649.574847537253
 31
0.0
 11
30888.02122898348
 21
1650.550200805053
 31
0.0
 11
30887.67086407569
 21
1651.434156319556
 31
0.0
  0
SPLINE
  5
53B5
330
200
100
AcDbEntity
  8
11111外轮廓线
 62
     7
370
     9
100
AcDbSpline
210
0.0
220
0.0
230
1.0
 70
     8
 71
     3
 72
    59
 73
    55
 74
    53
 42
0.0000000001
 43
0.0000000001
 44
0.0000000001
 12
-0.2726354016838338
 22
0.9621174240957778
 32
0.0
 13
-0.1914635139985795
 23
-0.9814997314351726
 33
0.0
 40
0.0
 40
0.0
 40
0.0
 40
0.0
 40
1.436271679137513
 40
2.591805428833814
 40
3.490380436094356
 40
4.298551192958252
 40
5.105300237216891
 40
5.917145411652676
 40
6.748903659908513
 40
7.673739933361761
 40
8.768623313150245
 40
9.895735079327611
 40
11.01235622612109
 40
12.23444573006478
 40
13.64279622145171
 40
15.26345703383571
 40
17.07951354284149
 40
19.11165507861719
 40
21.43763821561734
 40
24.13337191659895
 40
27.14568586155816
 40
30.55027783167348
 40
34.37538154618439
 40
38.7130017839606
 40
43.554578741221
 40
48.52910696254546
 40
53.74128276075978
 40
59.17451265459249
 40
64.49907245615659
 40
69.69192299493091
 40
75.04024532367925
 40
80.13671865971932
 40
84.59508734290764
 40
88.48474674336427
 40
91.87843713798903
 40
94.87352114694292
 40
97.4681672233847
 40
99.67808328081828
 40
101.6310161503886
 40
103.3779661905614
 40
104.8956398355892
 40
106.2058497384267
 40
107.3694028730401
 40
108.5131284516811
 40
109.5956894168924
 40
110.485308022861
 40
111.2578676123302
 40
112.0016499940615
 40
112.7361148225705
 40
113.4644693852315
 40
114.2058070084777
 40
115.0657964331369
 40
116.1826936680237
 40
117.5542590593949
 40
117.5542590593949
 40
117.5542590593949
 40
117.5542590593949
 10
30887.67086976459
 20
1651.434159871743
 30
0.0
 10
30887.54034359586
 20
1651.894780541155
 30
0.0
 10
30887.30595423839
 20
1652.726438346289
 30
0.0
 10
30886.92803654701
 20
1653.827892250927
 30
0.0
 10
30886.54223014994
 20
1654.702042118865
 30
0.0
 10
30886.12674668401
 20
1655.43124933986
 30
0.0
 10
30885.65717475975
 20
1656.091560216658
 30
0.0
 10
30885.11934933498
 20
1656.708060528871
 30
0.0
 10
30884.49360391117
 20
1657.294529230002
 30
0.0
 10
30883.73675258541
 20
1657.871816896855
 30
0.0
 10
30882.84952282461
 20
1658.433765964324
 30
0.0
 10
30881.86425023855
 20
1658.95318425928
 30
0.0
 10
30880.809875585
 20
1659.427030977107
 30
0.0
 10
30879.64019174371
 20
1659.867295181156
 30
0.0
 10
30878.28810526405
 20
1660.292916062215
 30
0.0
 10
30876.73054118283
 20
1660.721341342023
 30
0.0
 10
30874.95354735889
 20
1661.130245401054
 30
0.0
 10
30872.93418178219
 20
1661.528407411522
 30
0.0
 10
30870.6185819533
 20
1661.937281956393
 30
0.0
 10
30867.96897482349
 20
1662.33084015541
 30
0.0
 10
30864.94727039703
 20
1662.647367042189
 30
0.0
 10
30861.54286226517
 20
1662.909405455762
 30
0.0
 10
30857.69009965264
 20
1663.075615899155
 30
0.0
 10
30853.35659197497
 20
1663.180134748779
 30
0.0
 10
30848.63913408206
 20
1663.259427886183
 30
0.0
 10
30843.62938156771
 20
1663.230557606011
 30
0.0
 10
30838.423924635
 20
1663.12106218029
 30
0.0
 10
30833.10076132927
 20
1663.053246242648
 30
0.0
 10
30827.78382762239
 20
1663.095757481526
 30
0.0
 10
30822.49581446959
 20
1663.173076120957
 30
0.0
 10
30817.28300032613
 20
1663.172169566891
 30
0.0
 10
30812.31573193214
 20
1663.102533618166
 30
0.0
 10
30807.83523557534
 20
1662.994930965236
 30
0.0
 10
30803.92609597281
 20
1662.788378198466
 30
0.0
 10
30800.51177399562
 20
1662.497308011151
 30
0.0
 10
30797.53791113086
 20
1662.139393139589
 30
0.0
 10
30794.97112714115
 20
1661.723351053063
 30
0.0
 10
30792.75417411349
 20
1661.324416675096
 30
0.0
 10
30790.82520581846
 20
1660.922289739224
 30
0.0
 10
30789.1393704175
 20
1660.492938037832
 30
0.0
 10
30787.67525640987
 20
1660.065265158553
 30
0.0
 10
30786.41711160343
 20
1659.630141621544
 30
0.0
 10
30785.30402569344
 20
1659.164633046386
 30
0.0
 10
30784.28738726417
 20
1658.669705603491
 30
0.0
 10
30783.38868937991
 20
1658.146735077134
 30
0.0
 10
30782.63776887609
 20
1657.622043981923
 30
0.0
 10
30782.02578511525
 20
1657.101678888678
 30
0.0
 10
30781.50682826997
 20
1656.557989434332
 30
0.0
 10
30781.05424943473
 20
1655.976666437233
 30
0.0
 10
30780.66222717786
 20
1655.353727218705
 30
0.0
 10
30780.31865112524
 20
1654.65591542344
 30
0.0
 10
30779.99859633449
 20
1653.806679675087
 30
0.0
 10
30779.70260101073
 20
1652.729949306814
 30
0.0
 10
30779.49854106772
 20
1651.92532201148
 30
0.0
 10
30779.41100615788
 20
1651.476591657054
 30
0.0
 11
30887.67086976459
 21
1651.434159871743
 31
0.0
 11
30887.26636707437
 21
1652.812294085055
 31
0.0
 11
30886.88297815167
 21
1653.902372605455
 31
0.0
 11
30886.51561015909
 21
1654.722420044145
 31
0.0
 11
30886.11510806318
 21
1655.424373064954
 31
0.0
 11
30885.64770937397
 21
1656.081931036344
 31
0.0
 11
30885.11403993747
 21
1656.693723092354
 31
0.0
 11
30884.50769634297
 21
1657.263081704255
 31
0.0
 11
30883.77489138748
 21
1657.827279391153
 31
0.0
 11
30882.85150407529
 21
1658.415603695456
 31
0.0
 11
30881.85599825349
 21
1658.944138549756
 31
0.0
 11
30880.83772831799
 21
1659.402362429453
 31
0.0
 11
30879.69498782908
 21
1659.835544759044
 31
0.0
 11
30878.35339323179
 21
1660.264001341555
 31
0.0
 11
30876.79071503657
 21
1660.693627140354
 31
0.0
 11
30875.02192862498
 21
1661.105277324444
 31
0.0
 11
30873.02914268568
 21
1661.503276597755
 31
0.0
 11
30870.73831988667
 21
1661.906176656251
 31
0.0
 11
30868.07109472577
 21
1662.297188328353
 31
0.0
 11
30865.07621418549
 21
1662.620802067853
 31
0.0
 11
30861.68155399538
 21
1662.880664871452
 31
0.0
 11
30857.86051240378
 21
1663.056902160355
 31
0.0
 11
30853.52439550978
 21
1663.171093266443
 31
0.0
 11
30848.68331919078
 21
1663.240717304845
 31
0.0
 11
30843.70883990699
 21
1663.218651950945
 31
0.0
 11
30838.49742381088
 21
1663.129664171952
 31
0.0
 11
30833.06450257908
 21
1663.071750717154
 31
0.0
 11
30827.74002904839
 21
1663.102060804045
 31
0.0
 11
30822.54749844887
 21
1663.159703593053
 31
0.0
 11
30817.19917612337
 21
1663.159517261945
 31
0.0
 11
30812.10317016757
 21
1663.090497239955
 31
0.0
 11
30807.64649704559
 21
1662.967550100755
 31
0.0
 11
30803.76252038808
 21
1662.757370236053
 31
0.0
 11
30800.38142610569
 21
1662.465247063144
 31
0.0
 11
30797.40847872387
 21
1662.101774800645
 31
0.0
 11
30794.84594087999
 21
1661.694849671552
 31
0.0
 11
30792.67182579929
 21
1661.298677238454
 31
0.0
 11
30790.76136767088
 21
1660.893588936153
 31
0.0
 11
30789.06816077567
 21
1660.463606549445
 31
0.0
 11
30787.61279087247
 21
1660.033220980844
 31
0.0
 11
30786.37609893118
 21
1659.600505101953
 31
0.0
 11
30785.30249478828
 21
1659.151918386342
 31
0.0
 11
30784.27579170128
 21
1658.647945202156
 31
0.0
 11
30783.34185729388
 21
1658.100492221452
 31
0.0
 11
30782.61489639908
 21
1657.587706572754
 31
0.0
 11
30782.02783193408
 21
1657.085507774252
 31
0.0
 11
30781.51420898438
 21
1656.547545231955
 31
0.0
 11
30781.06304372978
 21
1655.967986350253
 31
0.0
 11
30780.67550160538
 21
1655.351292365554
 31
0.0
 11
30780.34635430717
 21
1654.687030724544
 31
0.0
 11
30780.03982462127
 21
1653.883525054254
 31
0.0
 11
30779.72831899838
 21
1652.810947001053
 31
0.0
 11
30779.41100615788
 21
1651.476591657054
 31
0.0
  0
SPLINE
  5
53B6
330
200
100
AcDbEntity
  8
11111外轮廓线
 62
     7
370
     9
100
AcDbSpline
210
0.0
220
0.0
230
1.0
 70
     8
 71
     3
 72
    13
 73
     9
 74
     7
 42
0.0000000001
 43
0.0000000001
 44
0.0000000001
 12
-0.3832981061252464
 22
-0.9236246866778731
 32
0.0
 13
-0.2091291951137475
 23
-0.977888020046813
 33
0.0
 40
0.0
 40
0.0
 40
0.0
 40
0.0
 40
0.727207265499845
 40
1.536890354139226
 40
2.430262423615682
 40
3.405973247431076
 40
4.465791783803357
 40
5.618723958936893
 40
5.618723958936893
 40
5.618723958936893
 40
5.618723958936893
 10
30779.41100615788
 20
1651.476591657054
 30
0.0
 10
30779.31809376867
 20
1651.252702796139
 30
0.0
 10
30779.15504482559
 20
1650.766469536502
 30
0.0
 10
30778.88744167756
 20
1650.002062981614
 30
0.0
 10
30778.61900532487
 20
1649.150217259443
 30
0.0
 10
30778.34717415361
 20
1648.212480965635
 30
0.0
 10
30778.07914978351
 20
1647.183764775266
 30
0.0
 10
30777.92104101658
 20
1646.46319698904
 30
0.0
 10
30777.84067042399
 20
1646.087384135044
 30
0.0
 11
30779.41100615788
 21
1651.476591657054
 31
0.0
 11
30779.16241052287
 21
1650.793195273356
 31
0.0
 11
30778.90046939188
 21
1650.027053283953
 31
0.0
 11
30778.63041584689
 21
1649.175475491054
 31
0.0
 11
30778.35907217338
 21
1648.238253947045
 31
0.0
 11
30778.09337654259
 21
1647.212280671654
 31
0.0
 11
30777.84067042399
 21
1646.087384135044
 31
0.0
  0
SPLINE
  5
53B7
330
200
100
AcDbEntity
  8
11111外轮廓线
 62
     7
370
     9
100
AcDbSpline
210
0.0
220
0.0
230
1.0
 70
     8
 71
     3
 72
     9
 73
     5
 74
     3
 42
0.0000000001
 43
0.0000000001
 44
0.0000000001
 12
-0.2020354306811918
 22
-0.9793782133320434
 32
0.0
 13
-0.1570968312717215
 23
-0.9875832043956521
 33
0.0
 40
0.0
 40
0.0
 40
0.0
 40
0.0
 40
0.4532956160942091
 40
0.912944095956394
 40
0.912944095956394
 40
0.912944095956394
 40
0.912944095956394
 10
30777.84067042399
 20
1646.087384135044
 30
0.0
 10
30777.81014316564
 20
1645.939401518177
 30
0.0
 10
30777.75208567984
 20
1645.640646111229
 30
0.0
 10
30777.70085093701
 20
1645.340645118866
 30
0.0
 10
30777.67678116378
 20
1645.189331412653
 30
0.0
 11
30777.84067042399
 21
1646.087384135044
 31
0.0
 11
30777.75417171169
 21
1645.642417969655
 31
0.0
 11
30777.67678116378
 21
1645.189331412653
 31
0.0
  0
SPLINE
  5
53B8
330
200
100
AcDbEntity
  8
11111外轮廓线
 62
     7
370
     9
100
AcDbSpline
210
0.0
220
0.0
230
1.0
 70
     8
 71
     3
 72
    15
 73
    11
 74
     9
 42
0.0000000001
 43
0.0000000001
 44
0.0000000001
 12
-0.1619369044369899
 22
-0.9868011141974687
 32
0.0
 13
-0.032842170994111
 23
-0.9994605503992611
 33
0.0
 40
0.0
 40
0.0
 40
0.0
 40
0.0
 40
2.861953599572114
 40
6.01351318750461
 40
9.476853965525496
 40
13.29362877825241
 40
17.51676891709023
 40
22.19680618418438
 40
27.38654229628276
 40
33.14450450286797
 40
33.14450450286797
 40
33.14450450286797
 40
33.14450450286797
 10
30777.67678116378
 20
1645.189331412653
 30
0.0
 10
30777.5222958616
 20
1644.247938412374
 30
0.0
 10
30777.22814620867
 20
1642.264967217421
 30
0.0
 10
30776.79964727126
 20
1639.13517227835
 30
0.0
 10
30776.3841094975
 20
1635.682667994229
 30
0.0
 10
30775.99278741208
 20
1631.868081725755
 30
0.0
 10
30775.63094204375
 20
1627.643385210786
 30
0.0
 10
30775.30221881697
 20
1622.957071105497
 30
0.0
 10
30775.01996916127
 20
1617.755280748866
 30
0.0
 10
30774.87543986716
 20
1614.108765323578
 30
0.0
 10
30774.81240520737
 20
1612.190479964854
 30
0.0
 11
30777.67678116378
 21
1645.189331412653
 31
0.0
 11
30777.24735111698
 21
1642.359778755253
 31
0.0
 11
30776.82182429617
 21
1639.237078839945
 31
0.0
 11
30776.40777048379
 21
1635.798577889654
 31
0.0
 11
30776.01670612348
 21
1632.001890038755
 31
0.0
 11
30775.65419914178
 21
1627.794337148953
 31
0.0
 11
30775.32579085077
 21
1623.125836659954
 31
0.0
 11
30775.04218587189
 21
1617.943855462654
 31
0.0
 11
30774.81240520737
 21
1612.190479964854
 31
0.0
  0
SPLINE
  5
53B9
330
200
100
AcDbEntity
  8
11111外轮廓线
 62
     7
370
     9
100
AcDbSpline
210
0.0
220
0.0
230
1.0
 70
     8
 71
     3
 72
     9
 73
     5
 74
     3
 42
0.0000000001
 43
0.0000000001
 44
0.0000000001
 12
-0.0375491605721857
 22
-0.9992947816036688
 32
0.0
 13
-0.0183462073531363
 23
-0.9998316941744526
 33
0.0
 40
0.0
 40
0.0
 40
0.0
 40
0.0
 40
15.03617489947836
 40
29.35546152046315
 40
29.35546152046315
 40
29.35546152046315
 40
29.35546152046315
 10
30774.81240520737
 20
1612.190479964854
 30
0.0
 10
30774.62420662547
 20
1607.181956260745
 30
0.0
 10
30774.29557552498
 20
1597.40214543245
 30
0.0
 10
30774.07166320829
 20
1587.619363839896
 30
0.0
 10
30773.9840950078
 20
1582.847071639353
 30
0.0
 11
30774.81240520737
 21
1612.190479964854
 31
0.0
 11
30774.31502401628
 21
1597.162533745944
 31
0.0
 11
30773.9840950078
 21
1582.847071639353
 31
0.0
  0
SPLINE
  5
53BA
330
200
100
AcDbEntity
  8
11111外轮廓线
 62
     7
370
     9
100
AcDbSpline
210
0.0
220
0.0
230
1.0
 70
     8
 71
     3
 72
     9
 73
     5
 74
     3
 42
0.0000000001
 43
0.0000000001
 44
0.0000000001
 12
-0.0183669347145637
 22
-0.9998313136270494
 32
0.0
 13
-0.0088424986932997
 23
-0.9999609043441942
 33
0.0
 40
0.0
 40
0.0
 40
0.0
 40
0.0
 40
0.3406954113278462
 40
0.6820116472072116
 40
0.6820116472072116
 40
0.6820116472072116
 40
0.6820116472072116
 10
30773.9840950078
 20
1582.847071639353
 30
0.0
 10
30773.98200916433
 20
1582.733525659135
 30
0.0
 10
30773.97838104922
 20
1582.506216432743
 30
0.0
 10
30773.97582601903
 20
1582.278892616087
 30
0.0
 10
30773.97481998958
 20
1582.165124985455
 30
0.0
 11
30773.9840950078
 21
1582.847071639353
 31
0.0
 11
30773.97865213488
 21
1582.506419707853
 31
0.0
 11
30773.97481998958
 21
1582.165124985455
 31
0.0
  0
SPLINE
  5
53BB
330
200
100
AcDbEntity
  8
11111外轮廓线
 62
     7
370
     9
100
AcDbSpline
210
0.0
220
0.0
230
1.0
 70
     8
 71
     3
 72
    13
 73
     9
 74
     7
 42
0.0000000001
 43
0.0000000001
 44
0.0000000001
 12
-0.0281208974735609
 22
-0.9996045293641287
 32
0.0
 13
0.2458969963587114
 23
-0.9692959646989994
 33
0.0
 40
0.0
 40
0.0
 40
0.0
 40
0.0
 40
3.172277867553543
 40
6.362035163891496
 40
9.569283081334075
 40
12.79420799941411
 40
16.03648753928944
 40
19.29504481533008
 40
19.29504481533008
 40
19.29504481533008
 40
19.29504481533008
 10
30773.97481998958
 20
1582.165124985455
 30
0.0
 10
30773.94508422269
 20
1581.108117210519
 30
0.0
 10
30773.93536582937
 20
1578.98654694517
 30
0.0
 10
30774.06915671415
 20
1575.798506892316
 30
0.0
 10
30774.35153914986
 20
1572.602502228799
 30
0.0
 10
30774.78274678511
 20
1569.405493325077
 30
0.0
 10
30775.36289675909
 20
1566.214810033587
 30
0.0
 10
30775.84783812202
 20
1564.101906015357
 30
0.0
 10
30776.11492793757
 20
1563.049070542554
 30
0.0
 11
30773.97481998958
 21
1582.165124985455
 31
0.0
 11
30773.95992413038
 21
1578.992882090853
 31
0.0
 11
30774.09335288138
 21
1575.805916703852
 31
0.0
 11
30774.37536683377
 21
1572.611091617153
 31
0.0
 11
30774.80622243678
 21
1569.415077822345
 31
0.0
 11
30775.38609451478
 21
1566.225073905756
 31
0.0
 11
30776.11492793757
 21
1563.049070542554
 31
0.0
  0
SPLINE
  5
53BC
330
200
100
AcDbEntity
  8
11111外轮廓线
 62
     7
370
     9
100
AcDbSpline
210
0.0
220
0.0
230
1.0
 70
     8
 71
     3
 72
    30
 73
    26
 74
    24
 42
0.0000000001
 43
0.0000000001
 44
0.0000000001
 12
0.2420181677025149
 22
-0.9702717178718122
 32
0.0
 13
0.9999999999999038
 23
0.0000004384250747
 33
0.0
 40
0.0
 40
0.0
 40
0.0
 40
0.0
 40
3.307481004513169
 40
6.634838826943413
 40
9.978214049349734
 40
13.33532716930404
 40
16.70186233798135
 40
20.07382959840912
 40
23.45387732925839
 40
26.84610870954405
 40
30.24907322869334
 40
33.65917309996214
 40
37.07291786702261
 40
40.4879193228559
 40
43.90647773894584
 40
47.33200116561771
 40
50.76265617949063
 40
54.19393288367752
 40
57.62372372640932
 40
61.05244307949658
 40
64.48216900807139
 40
67.91454964253398
 40
71.3465676203696
 40
74.77501652471231
 40
78.19694166214661
 40
78.19694166214661
 40
78.19694166214661
 40
78.19694166214661
 10
30776.11492793757
 20
1563.049070542554
 30
0.0
 10
30776.38175143504
 20
1561.979352117195
 30
0.0
 10
30776.97985712471
 20
1559.84861654932
 30
0.0
 10
30778.06381017285
 20
1556.702249999236
 30
0.0
 10
30779.33465106807
 20
1553.608591765323
 30
0.0
 10
30780.78808236219
 20
1550.581936769107
 30
0.0
 10
30782.41873945115
 20
1547.636059348629
 30
0.0
 10
30784.22082946775
 20
1544.782768102836
 30
0.0
 10
30786.18995666075
 20
1542.031539567065
 30
0.0
 10
30788.32101377792
 20
1539.390458514356
 30
0.0
 10
30790.60742632383
 20
1536.869120810868
 30
0.0
 10
30793.04033026672
 20
1534.478579449057
 30
0.0
 10
30795.60981804937
 20
1532.229395150523
 30
0.0
 10
30798.30672966153
 20
1530.130091912101
 30
0.0
 10
30801.12341949834
 20
1528.187539264926
 30
0.0
 10
30804.05156212468
 20
1526.407391015043
 30
0.0
 10
30807.08087924649
 20
1524.79640330792
 30
0.0
 10
30810.19901501646
 20
1523.361471905845
 30
0.0
 10
30813.39383285145
 20
1522.108262129101
 30
0.0
 10
30816.65498619052
 20
1521.041135434582
 30
0.0
 10
30819.97298025608
 20
1520.163243059226
 30
0.0
 10
30823.33697442157
 20
1519.477101449395
 30
0.0
 10
30826.73442765142
 20
1518.985313524163
 30
0.0
 10
30830.15092447531
 20
1518.689732754471
 30
0.0
 10
30832.43492481181
 20
1518.623931555959
 30
0.0
 10
30833.57556652428
 20
1518.623932056045
 30
0.0
 11
30776.11492793757
 21
1563.049070542554
 31
0.0
 11
30777.00854434139
 21
1559.864595653653
 31
0.0
 11
30778.09210916328
 21
1556.718614510155
 31
0.0
 11
30779.36234530187
 21
1553.625936377855
 31
0.0
 11
30780.81546198049
 21
1550.599608500954
 31
0.0
 11
30782.44574197068
 21
1547.654146534554
 31
0.0
 11
30784.24635917487
 21
1544.803192152354
 31
0.0
 11
30786.21344092598
 21
1542.054499363545
 31
0.0
 11
30788.34350069358
 21
1539.414408621953
 31
0.0
 11
30790.62937357398
 21
1536.893505471642
 31
0.0
 11
30793.06171938728
 21
1534.503427025953
 31
0.0
 11
30795.63036998479
 21
1532.254941437255
 31
0.0
 11
30798.32520311768
 21
1530.157297680754
 31
0.0
 11
30801.13931511108
 21
1528.216340356943
 31
0.0
 11
30804.06632867229
 21
1526.436789189043
 31
0.0
 11
30807.09528887318
 21
1524.825952783452
 31
0.0
 11
30810.21235113277
 21
1523.391525130853
 31
0.0
 11
30813.4053046682
 21
1522.139122262153
 31
0.0
 11
30816.66399815888
 21
1521.072804703453
 31
0.0
 11
30819.97960724897
 21
1520.195447132755
 31
0.0
 11
30823.34274165078
 21
1519.509470591452
 31
0.0
 11
30826.73936178457
 21
1519.017821258167
 31
0.0
 11
30830.15505807527
 21
1518.722388119644
 31
0.0
 11
30833.57556652428
 21
1518.623932056045
 31
0.0
  0
SPLINE
  5
53BD
330
200
100
AcDbEntity
  8
11111外轮廓线
 62
     7
370
     9
100
AcDbSpline
210
0.0
220
0.0
230
1.0
 70
     8
 71
     3
 72
    13
 73
     9
 74
     7
 42
0.0000000001
 43
0.0000000001
 44
0.0000000001
 12
-0.1541664205780484
 22
-0.9880448951166908
 32
0.0
 13
0.0271149984044962
 23
-0.9996323208367787
 33
0.0
 40
0.0
 40
0.0
 40
0.0
 40
0.0
 40
0.2012901375405897
 40
0.447537992395223
 40
0.7464468108246107
 40
1.10585128463557
 40
1.535962145270934
 40
2.052527544758111
 40
2.052527544758111
 40
2.052527544758111
 40
2.052527544758111
 10
30784.37484014198
 20
1649.913952271352
 30
0.0
 10
30784.36449608198
 20
1649.847657707074
 30
0.0
 10
30784.34474003901
 20
1649.6997552115
 30
0.0
 10
30784.31942383348
 20
1649.452195778745
 30
0.0
 10
30784.29826838871
 20
1649.15137024853
 30
0.0
 10
30784.28326632596
 20
1648.788819865967
 30
0.0
 10
30784.277684278
 20
1648.353462395587
 30
0.0
 10
30784.28005933568
 20
1648.037858008539
 30
0.0
 10
30784.28472822567
 20
1647.865732852155
 30
0.0
 11
30784.37484014198
 21
1649.913952271352
 31
0.0
 11
30784.34765065349
 21
1649.714506912452
 31
0.0
 11
30784.32238090717
 21
1649.469559069144
 31
0.0
 11
30784.30098672209
 21
1649.171416870555
 31
0.0
 11
30784.28579671218
 21
1648.812333538452
 31
0.0
 11
30784.27937922697
 21
1648.382270556645
 31
0.0
 11
30784.28472822567
 21
1647.865732852155
 31
0.0
  0
SPLINE
  5
53BE
330
200
100
AcDbEntity
  8
11111外轮廓线
 62
     7
370
     9
100
AcDbSpline
210
0.0
220
0.0
230
1.0
 70
     8
 71
     3
 72
    59
 73
    55
 74
    53
 42
0.0000000001
 43
0.0000000001
 44
0.0000000001
 12
-0.1315841819829843
 22
0.9913050000135523
 32
0.0
 13
-0.1541337630695748
 23
-0.9880499901735804
 33
0.0
 40
0.0
 40
0.0
 40
0.0
 40
0.0
 40
0.8712383582110419
 40
1.679848216339606
 40
2.361574442032759
 40
2.977243158332801
 40
3.582023660790516
 40
4.196675851886244
 40
4.850892953532366
 40
5.602407629258655
 40
6.463705602070552
 40
7.32955432330511
 40
8.179226400477643
 40
9.142684200578814
 40
10.32275236577569
 40
11.76273052863387
 40
13.45980103576498
 40
15.43082296477233
 40
17.68154442998656
 40
20.18709128495502
 40
23.03958889675398
 40
26.27812639401156
 40
29.98176506326654
 40
34.25706576389598
 40
39.00610894663818
 40
43.82430456735563
 40
48.98700511682203
 40
54.49112204847743
 40
59.87645579468887
 40
65.0243277546791
 40
70.23113436846324
 40
75.25507593453165
 40
79.60916854201578
 40
83.3036035872748
 40
86.50013320757436
 40
89.26524192790262
 40
91.69402976474849
 40
93.8210580683628
 40
95.64618308462854
 40
97.19178691765256
 40
98.47317172745485
 40
99.50855823527307
 40
100.3852997220453
 40
101.2605890546771
 40
102.1115239286094
 40
102.8340852179791
 40
103.4539379450111
 40
104.0148004933531
 40
104.5492813574354
 40
105.0734153234402
 40
105.6139031615115
 40
106.2262292302438
 40
106.9579429313365
 40
107.7305601369304
 40
107.7305601369304
 40
107.7305601369304
 40
107.7305601369304
 10
30882.79005929519
 20
1649.891721458454
 30
0.0
 10
30882.75184556629
 20
1650.179609105354
 30
0.0
 10
30882.65872494654
 20
1650.732461380001
 30
0.0
 10
30882.46363995345
 20
1651.495990166435
 30
0.0
 10
30882.23905018675
 20
1652.161695414632
 30
0.0
 10
30881.99564391765
 20
1652.747677231976
 30
0.0
 10
30881.72320873068
 20
1653.295885857282
 30
0.0
 10
30881.40699182427
 20
1653.835062566322
 30
0.0
 10
30881.02532818169
 20
1654.390617109738
 30
0.0
 10
30880.55193782649
 20
1654.980660894519
 30
0.0
 10
30879.98003783595
 20
1655.578638343653
 30
0.0
 10
30879.33084178041
 20
1656.14287612025
 30
0.0
 10
30878.60736691363
 20
1656.668073581311
 30
0.0
 10
30877.75350496458
 20
1657.186237083388
 30
0.0
 10
30876.68641345817
 20
1657.725463612372
 30
0.0
 10
30875.35918468225
 20
1658.284152649814
 30
0.0
 10
30873.75325617604
 20
1658.852409746495
 30
0.0
 10
30871.86268549878
 20
1659.418639950764
 30
0.0
 10
30869.68971673318
 20
1659.975293682579
 30
0.0
 10
30867.20409953499
 20
1660.484891322253
 30
0.0
 10
30864.37195238448
 20
1660.926628001395
 30
0.0
 10
30861.12838432945
 20
1661.305881158979
 30
0.0
 10
30857.40019603008
 20
1661.6006547597
 30
0.0
 10
30853.1636711468
 20
1661.831835943676
 30
0.0
 10
30848.55223548468
 20
1662.004648095796
 30
0.0
 10
30843.64174700796
 20
1662.040434979346
 30
0.0
 10
30838.48044938144
 20
1661.975603118258
 30
0.0
 10
30833.13015242307
 20
1661.903892927762
 30
0.0
 10
30827.78434934002
 20
1661.895843485729
 30
0.0
 10
30822.53763377145
 20
1661.872314800961
 30
0.0
 10
30817.41246271746
 20
1661.746279087568
 30
0.0
 10
30812.55617581462
 20
1661.51173771537
 30
0.0
 10
30808.20805289793
 20
1661.220647049966
 30
0.0
 10
30804.47670676345
 20
1660.854784741613
 30
0.0
 10
30801.28793906207
 20
1660.410868677087
 30
0.0
 10
30798.53498141285
 20
1659.911354872019
 30
0.0
 10
30796.1590565927
 20
1659.350441612021
 30
0.0
 10
30794.11017125819
 20
1658.777289697117
 30
0.0
 10
30792.36842819228
 20
1658.205064352722
 30
0.0
 10
30790.92307823448
 20
1657.640671831114
 30
0.0
 10
30789.75600282004
 20
1657.09455489017
 30
0.0
 10
30788.82724407392
 20
1656.572190881217
 30
0.0
 10
30788.05599934664
 20
1656.05219896067
 30
0.0
 10
30787.38054575048
 20
1655.50575597068
 30
0.0
 10
30786.79340559259
 20
1654.937092397637
 30
0.0
 10
30786.31232763358
 20
1654.385619999757
 30
0.0
 10
30785.92929675119
 20
1653.879311355854
 30
0.0
 10
30785.61421641316
 20
1653.401773139615
 30
0.0
 10
30785.34606307066
 20
1652.932850036092
 30
0.0
 10
30785.11056117072
 20
1652.454284983626
 30
0.0
 10
30784.89521427647
 20
1651.938072839645
 30
0.0
 10
30784.69010173426
 20
1651.343862954862
 30
0.0
 10
30784.50717322755
 20
1650.661729390303
 30
0.0
 10
30784.41453560775
 20
1650.168413745484
 30
0.0
 10
30784.37484014198
 20
1649.913952271352
 30
0.0
 11
30882.79005929519
 21
1649.891721458454
 31
0.0
 11
30882.64297432377
 21
1650.750454413454
 31
0.0
 11
30882.44261375439
 21
1651.533848021354
 31
0.0
 11
30882.22436861607
 21
1652.179696073454
 31
0.0
 11
30881.98788504349
 21
1652.748135593654
 31
0.0
 11
30881.71858161838
 21
1653.289647478454
 31
0.0
 11
30881.40767387518
 21
1653.819867896054
 31
0.0
 11
30881.03764675279
 21
1654.359386148553
 31
0.0
 11
30880.56718836449
 21
1654.945426431051
 31
0.0
 11
30879.97197883868
 21
1655.567969456355
 31
0.0
 11
30879.31884807068
 21
1656.136400813651
 31
0.0
 11
30878.63203873677
 21
1656.636636335755
 31
0.0
 11
30877.80987882958
 21
1657.138935071154
 31
0.0
 11
30876.75867733759
 21
1657.675159182654
 31
0.0
 11
30875.43362558529
 21
1658.238874503753
 31
0.0
 11
30873.83543708729
 21
1658.809700073445
 31
0.0
 11
30871.94872193499
 21
1659.379992435952
 31
0.0
 11
30869.76811850679
 21
1659.937411311552
 31
0.0
 11
30867.3141926069
 21
1660.443388307354
 31
0.0
 11
30864.49685448268
 21
1660.889872931053
 31
0.0
 11
30861.28059405368
 21
1661.269074689953
 31
0.0
 11
30857.58933841328
 21
1661.571682009053
 31
0.0
 11
30853.32078201897
 21
1661.811728649252
 31
0.0
 11
30848.57472385059
 21
1661.980082484555
 31
0.0
 11
30843.75673029517
 21
1662.024208888055
 31
0.0
 11
30838.59425175139
 21
1661.976331457255
 31
0.0
 11
30833.09048331578
 21
1661.914394355644
 31
0.0
 11
30827.70519210448
 21
1661.892990440556
 31
0.0
 11
30822.55745846019
 21
1661.855253934555
 31
0.0
 11
30817.35230937189
 21
1661.723883915554
 31
0.0
 11
30812.33408298338
 21
1661.484316027556
 31
0.0
 11
30807.99051420708
 21
1661.181772278454
 31
0.0
 11
30804.31463382429
 21
1660.811970013652
 31
0.0
 11
30801.14911523977
 21
1660.367792453955
 31
0.0
 11
30798.42988473009
 21
1659.866183372654
 31
0.0
 11
30796.06558374389
 21
1659.310223659154
 31
0.0
 11
30794.01813679469
 21
1658.733846703853
 31
0.0
 11
30792.28592415967
 21
1658.158937396154
 31
0.0
 11
30790.8481898269
 21
1657.591653342944
 31
0.0
 11
30789.68970655578
 21
1657.044055368755
 31
0.0
 11
30788.78903269337
 21
1656.533357988552
 31
0.0
 11
30788.06314118038
 21
1656.041669930946
 31
0.0
 11
30787.38298067399
 21
1655.490749699543
 31
0.0
 11
30786.77202856918
 21
1654.898442612553
 31
0.0
 11
30786.29683440368
 21
1654.354121639255
 31
0.0
 11
30785.92313566848
 21
1653.859584827154
 31
0.0
 11
30785.61457366919
 21
1653.391229950244
 31
0.0
 11
30785.34929052807
 21
1652.927231405952
 31
0.0
 11
30785.11783507499
 21
1652.456971065756
 31
0.0
 11
30784.90939999859
 21
1651.958290885654
 31
0.0
 11
30784.70934952598
 21
1651.379565542455
 31
0.0
 11
30784.51954998457
 21
1650.672896543245
 31
0.0
 11
30784.37484014198
 21
1649.913952271352
 31
0.0
  0
SPLINE
  5
53BF
330
200
100
AcDbEntity
  8
11111外轮廓线
 62
     7
370
     9
100
AcDbSpline
210
0.0
220
0.0
230
1.0
 70
     8
 71
     3
 72
    12
 73
     8
 74
     6
 42
0.0000000001
 43
0.0000000001
 44
0.0000000001
 12
0.0241160761809637
 22
0.9997091651423598
 32
0.0
 13
-0.1259543465171854
 23
0.9920360389589831
 33
0.0
 40
0.0
 40
0.0
 40
0.0
 40
0.0
 40
0.5633748637708736
 40
1.036630393252751
 40
1.432570988538848
 40
1.759842517094037
 40
2.031333374140512
 40
2.031333374140512
 40
2.031333374140512
 40
2.031333374140512
 10
30882.86535657029
 20
1647.863518179645
 30
0.0
 10
30882.86988536734
 20
1648.051255184553
 30
0.0
 10
30882.87402263333
 20
1648.396825028968
 30
0.0
 10
30882.86632920476
 20
1648.874348982152
 30
0.0
 10
30882.84820007614
 20
1649.272821426665
 30
0.0
 10
30882.82295998206
 20
1649.603477050514
 30
0.0
 10
30882.80145777968
 20
1649.801945220308
 30
0.0
 10
30882.79005929519
 20
1649.891721458454
 30
0.0
 11
30882.86535657029
 21
1647.863518179645
 31
0.0
 11
30882.87151605997
 21
1648.426859370946
 31
0.0
 11
30882.86339345077
 21
1648.900045190053
 31
0.0
 11
30882.84494372599
 21
1649.295555698954
 31
0.0
 11
30882.81965979219
 21
1649.621849088551
 31
0.0
 11
30882.79005929519
 21
1649.891721458454
 31
0.0
  0
SPLINE
  5
53C0
330
200
100
AcDbEntity
  8
11111外轮廓线
 62
     7
370
     9
100
AcDbSpline
210
0.0
220
0.0
230
1.0
 70
     8
 71
     3
 72
     9
 73
     5
 74
     3
 42
0.0000000001
 43
0.0000000001
 44
0.0000000001
 12
0.1713611117478889
 22
0.9852082873080838
 32
0.0
 13
0.1341700649381397
 23
0.9909583208563795
 33
0.0
 40
0.0
 40
0.0
 40
0.0
 40
0.0
 40
0.0747537577719544
 40
0.1463084929488618
 40
0.1463084929488618
 40
0.1463084929488618
 40
0.1463084929488618
 10
30882.84322791818
 20
1647.718934628967
 30
0.0
 10
30882.84749788053
 20
1647.743483969521
 30
0.0
 10
30882.85540721025
 20
1647.791612978211
 30
0.0
 10
30882.86217671837
 20
1647.839913256679
 30
0.0
 10
30882.86537688619
 20
1647.863549176753
 30
0.0
 11
30882.84322791818
 21
1647.718934628967
 31
0.0
 11
30882.85528259438
 21
1647.792710025154
 31
0.0
 11
30882.86537688619
 21
1647.863549176753
 31
0.0
  0
SPLINE
  5
53C1
330
200
100
AcDbEntity
  8
11111外轮廓线
 62
     7
370
     9
100
AcDbSpline
210
0.0
220
0.0
230
1.0
 70
     8
 71
     3
 72
     9
 73
     5
 74
     3
 42
0.0000000001
 43
0.0000000001
 44
0.0000000001
 12
0.136453781752632
 22
-0.9906464381631849
 32
0.0
 13
0.1726989112233393
 23
-0.9849746626498944
 33
0.0
 40
0.0
 40
0.0
 40
0.0
 40
0.0
 40
0.072429182782889
 40
0.148661138211885
 40
0.148661138211885
 40
0.148661138211885
 40
0.148661138211885
 10
30784.28472826198
 20
1647.865732952654
 30
0.0
 10
30784.28802267394
 20
1647.84181571534
 30
0.0
 10
30784.29508726252
 20
1647.792766439178
 30
0.0
 10
30784.30304445787
 20
1647.743850989041
 30
0.0
 10
30784.30743284978
 20
1647.718822140847
 30
0.0
 11
30784.28472826198
 21
1647.865732952654
 31
0.0
 11
30784.29511843057
 21
1647.794052893256
 31
0.0
 11
30784.30743284978
 21
1647.718822140847
 31
0.0
  0
SPLINE
  5
53C2
330
200
100
AcDbEntity
  8
11111外轮廓线
 62
     7
370
     9
100
AcDbSpline
210
0.0
220
0.0
230
1.0
 70
     8
 71
     3
 72
    20
 73
    16
 74
    14
 42
0.0000000001
 43
0.0000000001
 44
0.0000000001
 12
0.9999999999965833
 22
0.0000026140916227
 32
0.0
 13
0.0004348160828347
 23
-0.9999999054674827
 33
0.0
 40
0.0
 40
0.0
 40
0.0
 40
0.0
 40
11.63677402067926
 40
24.50601505360978
 40
38.66330030615227
 40
54.16340725293462
 40
70.87133477297166
 40
87.60182343390404
 40
103.1498016300271
 40
117.0471766262495
 40
129.4569911716264
 40
141.0436393238952
 40
152.7843819636838
 40
165.6650630241472
 40
180.1654524580649
 40
180.1654524580649
 40
180.1654524580649
 40
180.1654524580649
 10
30833.57556652417
 20
1705.326608940046
 30
0.0
 10
30837.45449119772
 20
1705.32661907991
 30
0.0
 10
30845.62331117187
 20
1705.280436682064
 30
0.0
 10
30858.50858733531
 20
1704.982212163342
 30
0.0
 10
30872.66887270688
 20
1704.273039656932
 30
0.0
 10
30888.06659986421
 20
1702.873267746192
 30
0.0
 10
30904.20636797479
 20
1700.402345102596
 30
0.0
 10
30920.08823900163
 20
1696.473894185358
 30
0.0
 10
30934.49660036165
 20
1690.909377537048
 30
0.0
 10
30946.59879236596
 20
1683.823162278458
 30
0.0
 10
30956.17858185398
 20
1675.46869025041
 30
0.0
 10
30963.47749299789
 20
1665.954646611764
 30
0.0
 10
30968.79407543044
 20
1655.030329590874
 30
0.0
 10
30972.11129416526
 20
1642.338923085033
 30
0.0
 10
30972.78626103057
 20
1633.185513531273
 30
0.0
 10
30972.78836269809
 20
1628.352050843554
 30
0.0
 11
30833.57556652417
 21
1705.326608940046
 31
0.0
 11
30845.21209198158
 21
1705.250550491953
 31
0.0
 11
30858.07751820438
 21
1704.937224991354
 31
0.0
 11
30872.21580865677
 21
1704.204102350966
 31
0.0
 11
30887.64833862847
 21
1702.758303597955
 31
0.0
 11
30904.15228563908
 21
1700.155502206053
 31
0.0
 11
30920.36602189518
 21
1696.029486276453
 31
0.0
 11
30934.82373732647
 21
1690.309862993854
 31
0.0
 11
30946.76212925128
 21
1683.195663809452
 31
0.0
 11
30956.07498841718
 21
1674.993581683146
 31
0.0
 11
30963.11565628099
 21
1665.791440006553
 31
0.0
 11
30968.27934562977
 21
1655.247183273954
 31
0.0
 11
30971.60953823728
 21
1642.804443954243
 31
0.0
 11
30972.78836269809
 21
1628.352050843554
 31
0.0
  0
SPLINE
  5
53C3
330
200
100
AcDbEntity
  8
11111外轮廓线
 62
     7
370
     9
100
AcDbSpline
210
0.0
220
0.0
230
1.0
 70
     8
 71
     3
 72
    20
 73
    16
 74
    14
 42
0.0000000001
 43
0.0000000001
 44
0.0000000001
 12
0.0004472582657507
 22
0.9999998999800169
 32
0.0
 13
0.9999999999972569
 23
-0.0000023422957623
 33
0.0
 40
0.0
 40
0.0
 40
0.0
 40
0.0
 40
14.29197827095795
 40
27.00647074091314
 40
38.58835911213123
 40
49.97699991767639
 40
62.11411146252032
 40
75.64555417831377
 40
90.6891250449423
 40
107.2848650746055
 40
124.4206799422904
 40
140.5975846170448
 40
155.386705240049
 40
168.6314123490159
 40
180.1691344145452
 40
180.1691344145452
 40
180.1691344145452
 40
180.1691344145452
 10
30694.36277035018
 20
1628.352050843554
 30
0.0
 10
30694.36490108532
 20
1633.116043124045
 30
0.0
 10
30695.02099691146
 20
1642.143262792328
 30
0.0
 10
30698.23978419365
 20
1654.672675872972
 30
0.0
 10
30703.39589247143
 20
1665.476608364209
 30
0.0
 10
30710.46182445849
 20
1674.899202363159
 30
0.0
 10
30719.71465909633
 20
1683.196900578504
 30
0.0
 10
30731.37789151693
 20
1690.270405230736
 30
0.0
 10
30745.38565152891
 20
1695.934361091676
 30
0.0
 10
30761.14981807973
 20
1700.050389442229
 30
0.0
 10
30777.59073571566
 20
1702.703544801473
 30
0.0
 10
30793.56032008061
 20
1704.217786625852
 30
0.0
 10
30808.28071540192
 20
1704.973794159369
 30
0.0
 10
30821.46870820652
 20
1705.280309903473
 30
0.0
 10
30829.72965916901
 20
1705.326617948298
 30
0.0
 10
30833.57556652417
 20
1705.326608940046
 30
0.0
 11
30694.36277035018
 21
1628.352050843554
 31
0.0
 11
30695.50646387386
 21
1642.598194462844
 31
0.0
 11
30698.74063364277
 21
1654.894472951655
 31
0.0
 11
30703.75536367729
 21
1665.334426060952
 31
0.0
 11
30710.57816288499
 21
1674.453118421654
 31
0.0
 11
30719.57764165189
 21
1682.596757569856
 31
0.0
 11
30731.09608621567
 21
1689.697840360655
 31
0.0
 11
30744.99797240969
 21
1695.446456252153
 31
0.0
 11
30761.02605600457
 21
1699.749841362445
 31
0.0
 11
30777.92930842287
 21
1702.563417176752
 31
0.0
 11
30794.02920862567
 21
1704.139950816054
 31
0.0
 11
30808.79735989126
 21
1704.927222686754
 31
0.0
 11
30822.03808614618
 21
1705.251929700345
 31
0.0
 11
30833.57556652417
 21
1705.326608940046
 31
0.0
  0
SPLINE
  5
53C4
330
200
100
AcDbEntity
  8
11111外轮廓线
 62
     7
370
     9
100
AcDbSpline
210
0.0
220
0.0
230
1.0
 70
     8
 71
     3
 72
    10
 73
     6
 74
     4
 42
0.0000000001
 43
0.0000000001
 44
0.0000000001
 12
-0.0000293820929343
 22
0.9999999995683463
 32
0.0
 13
0.0004714216064421
 23
0.9999998888808283
 33
0.0
 40
0.0
 40
0.0
 40
0.0
 40
0.0
 40
42.38054983789012
 40
84.04854079985204
 40
125.0039474108934
 40
125.0039474108934
 40
125.0039474108934
 40
125.0039474108934
 10
30694.34854631918
 20
1503.348105488454
 30
0.0
 10
30694.34813124276
 20
1517.474955428319
 30
0.0
 10
30694.34660162822
 20
1545.49113565873
 30
0.0
 10
30694.34847481363
 20
1587.159118216861
 30
0.0
 10
30694.35633459566
 20
1614.70025015685
 30
0.0
 10
30694.36277035018
 20
1628.352050843554
 30
0.0
 11
30694.34854631918
 21
1503.348105488454
 31
0.0
 11
30694.34729780389
 21
1545.728655307954
 31
0.0
 11
30694.35016958649
 21
1587.396646170953
 31
0.0
 11
30694.36277035018
 21
1628.352050843554
 31
0.0
  0
SPLINE
  5
53C5
330
200
100
AcDbEntity
  8
11111外轮廓线
 62
     7
370
     9
100
AcDbSpline
210
0.0
220
0.0
230
1.0
 70
     8
 71
     3
 72
    26
 73
    22
 74
    20
 42
0.0000000001
 43
0.0000000001
 44
0.0000000001
 12
-0.9999999999654072
 22
0.000008317784119
 32
0.0
 13
-0.0000384669125284
 23
0.9999999992601484
 33
0.0
 40
0.0
 40
0.0
 40
0.0
 40
0.0
 40
10.97299980819092
 40
22.11897709450838
 40
33.43235368215693
 40
44.90967243562395
 40
56.5225917002632
 40
68.17432077031582
 40
79.79870083256497
 40
91.41527658522063
 40
103.0392610192532
 40
114.664495016652
 40
126.2881377326257
 40
137.9127706533788
 40
149.5373086486546
 40
161.1575534823147
 40
172.7818508354158
 40
184.420148600209
 40
196.0098934780521
 40
207.4496204188209
 40
218.6229137507222
 40
218.6229137507222
 40
218.6229137507222
 40
218.6229137507222
 10
30833.57556652417
 20
1364.135539625054
 30
0.0
 10
30829.91789992157
 20
1364.135570048736
 30
0.0
 10
30822.54162879258
 20
1364.42632656801
 30
0.0
 10
30811.46486846233
 20
1365.749242517075
 30
0.0
 10
30800.36471667089
 20
1367.993902136633
 30
0.0
 10
30789.33544612278
 20
1371.182125063135
 30
0.0
 10
30778.50237328061
 20
1375.313489073702
 30
0.0
 10
30768.00767413491
 20
1380.356015575914
 30
0.0
 10
30757.96978460179
 20
1386.25798906829
 30
0.0
 10
30748.46661253223
 20
1392.97113522717
 30
0.0
 10
30739.55613140695
 20
1400.453584335914
 30
0.0
 10
30731.2992552274
 20
1408.654965615945
 30
0.0
 10
30723.75521842049
 20
1417.516743802197
 30
0.0
 10
30716.97689020066
 20
1426.976793177781
 30
0.0
 10
30711.01200223729
 20
1436.96839083296
 30
0.0
 10
30705.90138110796
 20
1447.422601695406
 30
0.0
 10
30701.6789218446
 20
1458.270973537353
 30
0.0
 10
30698.37966896596
 20
1469.424188841339
 30
0.0
 10
30696.03413089709
 20
1480.753386272918
 30
0.0
 10
30694.6516772875
 20
1492.082549308923
 30
0.0
 10
30694.34868958655
 20
1499.623674380576
 30
0.0
 10
30694.34854631918
 20
1503.348105488454
 30
0.0
 11
30833.57556652417
 21
1364.135539625054
 31
0.0
 11
30822.61108794998
 21
1364.567898719444
 31
0.0
 11
30811.54375290367
 21
1365.889603921052
 31
0.0
 11
30800.45484145698
 21
1368.132042937253
 31
0.0
 11
30789.42894697247
 21
1371.319282587054
 31
0.0
 11
30778.57831409658
 21
1375.457357023257
 31
0.0
 11
30768.07599227988
 21
1380.503546355856
 31
0.0
 11
30758.05537891988
 21
1386.395364387754
 31
0.0
 11
30748.56737551458
 21
1393.097798542454
 31
0.0
 11
30739.66567720639
 21
1400.572875890055
 31
0.0
 11
30731.41772621549
 21
1408.765395035345
 31
0.0
 11
30723.88301329838
 21
1417.616223880453
 31
0.0
 11
30717.11235301889
 21
1427.065575705946
 31
0.0
 11
30711.15368088118
 21
1437.046763508951
 31
0.0
 11
30706.05021829798
 21
1447.486340112253
 31
0.0
 11
30701.83386704407
 21
1458.319006961046
 31
0.0
 11
30698.53255401679
 21
1469.479262655153
 31
0.0
 11
30696.18285142318
 21
1480.828319182245
 31
0.0
 11
30694.79728299107
 21
1492.183826771044
 31
0.0
 11
30694.34854631918
 21
1503.348105488454
 31
0.0
  0
SPLINE
  5
53C6
330
200
100
AcDbEntity
  8
11111外轮廓线
 62
     7
370
     9
100
AcDbSpline
210
0.0
220
0.0
230
1.0
 70
     8
 71
     3
 72
    26
 73
    22
 74
    20
 42
0.0000000001
 43
0.0000000001
 44
0.0000000001
 12
-0.000037710475744
 22
-0.99999999928896
 32
0.0
 13
-0.9999999999588363
 23
-0.0000090734432296
 33
0.0
 40
0.0
 40
0.0
 40
0.0
 40
0.0
 40
10.97438289220818
 40
22.12162639659913
 40
33.43611704188751
 40
44.9143630795538
 40
56.5280249447959
 40
68.18041850388502
 40
79.80546812910347
 40
91.42272514968228
 40
103.0473047771675
 40
114.6728043310387
 40
126.2962622196054
 40
137.9202961164552
 40
149.5439813508684
 40
161.1633647813909
 40
172.7868045144216
 40
184.4241100207156
 40
196.0126867653814
 40
207.4510860828732
 40
218.622914120799
 40
218.622914120799
 40
218.622914120799
 40
218.622914120799
 10
30972.80258672917
 20
1503.348105488454
 30
0.0
 10
30972.80244877943
 20
1499.689977860319
 30
0.0
 10
30972.51132266564
 20
1492.312829346502
 30
0.0
 10
30971.18743019153
 20
1481.234913134194
 30
0.0
 10
30968.94143180596
 20
1470.133898236419
 30
0.0
 10
30965.75158701907
 20
1459.104122690869
 30
0.0
 10
30961.61839848238
 20
1448.270906057052
 30
0.0
 10
30956.57390716755
 20
1437.776377101752
 30
0.0
 10
30950.6698687314
 20
1427.738917206048
 30
0.0
 10
30943.95461307872
 20
1418.236436582215
 30
0.0
 10
30936.4701338558
 20
1409.326985637414
 30
0.0
 10
30928.26698404516
 20
1401.071547551149
 30
0.0
 10
30919.40387425594
 20
1393.529343902721
 30
0.0
 10
30909.94299790302
 20
1386.753112890223
 30
0.0
 10
30899.95101178723
 20
1380.790390295314
 30
0.0
 10
30889.49674572313
 20
1375.681848073175
 30
0.0
 10
30878.64860673427
 20
1371.461301426479
 30
0.0
 10
30867.49594762774
 20
1368.163743618768
 30
0.0
 10
30856.1676568
 20
1365.819608990291
 30
0.0
 10
30844.83970916177
 20
1364.438177784707
 30
0.0
 10
30837.29950920333
 20
1364.135573414037
 30
0.0
 10
30833.57556652417
 20
1364.135539625054
 30
0.0
 11
30972.80258672917
 21
1503.348105488454
 31
0.0
 11
30972.36968019317
 21
1492.382264353553
 31
0.0
 11
30971.04700346269
 21
1481.313770146444
 31
0.0
 11
30968.80323075998
 21
1470.223991851955
 31
0.0
 11
30965.61437652117
 21
1459.197598935647
 31
0.0
 11
30961.47449448268
 21
1448.346860775153
 31
0.0
 11
30956.42635777068
 21
1437.844737590156
 31
0.0
 11
30950.53248522218
 21
1427.824555697054
 31
0.0
 11
30943.82793149917
 21
1418.337215708554
 31
0.0
 11
30936.35077877288
 21
1409.436483231755
 31
0.0
 11
30928.15646834158
 21
1401.189937504452
 31
0.0
 11
30919.30432080469
 21
1393.657059085654
 31
0.0
 11
30909.85418672567
 21
1386.888519366945
 31
0.0
 11
30899.87267964878
 21
1380.932046005753
 31
0.0
 11
30889.43304937377
 21
1375.830654918354
 31
0.0
 11
30878.60056861158
 21
1371.616190330256
 31
0.0
 11
30867.44084932128
 21
1368.316562349955
 31
0.0
 11
30856.09269593799
 21
1365.968259610454
 31
0.0
 11
30844.73840150317
 21
1364.583710285253
 31
0.0
 11
30833.57556652417
 21
1364.135539625054
 31
0.0
  0
SPLINE
  5
53C7
330
200
100
AcDbEntity
  8
11111外轮廓线
 62
     7
370
     9
100
AcDbSpline
210
0.0
220
0.0
230
1.0
 70
     8
 71
     3
 72
    10
 73
     6
 74
     4
 42
0.0000000001
 43
0.0000000001
 44
0.0000000001
 12
0.0004714222968202
 22
-0.9999998888805031
 32
0.0
 13
-0.0000293821225337
 23
-0.9999999995683454
 33
0.0
 40
0.0
 40
0.0
 40
0.0
 40
0.0
 40
40.96188786656486
 40
82.62987876355998
 40
125.0039474108434
 40
125.0039474108434
 40
125.0039474108434
 40
125.0039474108434
 10
30972.78836269809
 20
1628.352050843554
 30
0.0
 10
30972.7947994805
 20
1614.698089738587
 30
0.0
 10
30972.80265904989
 20
1587.154797401412
 30
0.0
 10
30972.80453113077
 20
1545.486814843348
 30
0.0
 10
30972.80300174253
 20
1517.472795031451
 30
0.0
 10
30972.80258672917
 20
1503.348105488454
 30
0.0
 11
30972.78836269809
 21
1628.352050843554
 31
0.0
 11
30972.80096453768
 21
1587.390164915454
 31
0.0
 11
30972.80383521477
 21
1545.722174117345
 31
0.0
 11
30972.80258672917
 21
1503.348105488454
 31
0.0
  0
SPLINE
  5
53C8
330
200
100
AcDbEntity
  8
11111外轮廓线
 62
     7
370
     9
100
AcDbSpline
210
0.0
220
0.0
230
1.0
 70
     8
 71
     3
 72
    26
 73
    22
 74
    20
 42
0.0000000001
 43
0.0000000001
 44
0.0000000001
 12
-0.9999999999909469
 22
0.0000042550981411
 32
0.0
 13
-0.0000271277993912
 23
0.9999999996320411
 33
0.0
 40
0.0
 40
0.0
 40
0.0
 40
0.0
 40
10.35541007380743
 40
20.87027937163233
 40
31.54308877567442
 40
42.37047143947994
 40
53.3256902120139
 40
64.31743311937646
 40
75.2833085312324
 40
86.24177515583113
 40
97.20721317245688
 40
108.1738128377145
 40
119.1388932273859
 40
130.1048894590473
 40
141.0707806009959
 40
152.0326047840154
 40
162.9982340453773
 40
173.9770741692596
 40
184.9102087231466
 40
195.7017863143613
 40
206.2478868732717
 40
206.2478868732717
 40
206.2478868732717
 40
206.2478868732717
 10
30833.57556652417
 20
1372.014001649153
 30
0.0
 10
30830.12376316627
 20
1372.014016336915
 30
0.0
 10
30823.16390710374
 20
1372.288498445355
 30
0.0
 10
30812.71313563736
 20
1373.53698263001
 30
0.0
 10
30802.24158995745
 20
1375.654933278111
 30
0.0
 10
30791.83699732752
 20
1378.663006689937
 30
0.0
 10
30781.61761112426
 20
1382.560788859935
 30
0.0
 10
30771.71753758064
 20
1387.318074853717
 30
0.0
 10
30762.2484791561
 20
1392.886060884872
 30
0.0
 10
30753.28389508306
 20
1399.219200437048
 30
0.0
 10
30744.87844674864
 20
1406.277995551045
 30
0.0
 10
30737.08957653516
 20
1414.014929784732
 30
0.0
 10
30729.97314929158
 20
1422.374781358408
 30
0.0
 10
30723.57902447547
 20
1431.298944557432
 30
0.0
 10
30717.95221439775
 20
1440.724479108101
 30
0.0
 10
30713.1312202702
 20
1450.586361063231
 30
0.0
 10
30709.14799568861
 20
1460.820028048641
 30
0.0
 10
30706.03559173935
 20
1471.341272550427
 30
0.0
 10
30703.82275728468
 20
1482.028536337231
 30
0.0
 10
30702.51816913517
 20
1492.717736980879
 30
0.0
 10
30702.23218546616
 20
1499.833559313679
 30
0.0
 10
30702.23209010199
 20
1503.348926165356
 30
0.0
 11
30833.57556652417
 21
1372.014001649153
 31
0.0
 11
30823.22820471648
 21
1372.422194517145
 31
0.0
 11
30812.78756558718
 21
1373.669403770654
 31
0.0
 11
30802.32658910858
 21
1375.785256244053
 31
0.0
 11
30791.92518181127
 21
1378.792404658055
 31
0.0
 11
30781.68922875418
 21
1382.696515743453
 31
0.0
 11
30771.78196973889
 21
1387.457254230856
 31
0.0
 11
30762.32921345918
 21
1393.015655283747
 31
0.0
 11
30753.37894498717
 21
1399.338683438156
 31
0.0
 11
30744.98178036248
 21
1406.390524131355
 31
0.0
 11
30737.20132767919
 21
1414.119098661053
 31
0.0
 11
30730.09369425697
 21
1422.468621706554
 31
0.0
 11
30723.70680158277
 21
1431.382693465355
 31
0.0
 11
30718.08585348208
 21
1440.798409634953
 31
0.0
 11
30713.27160970966
 21
1450.646487940856
 31
0.0
 11
30709.29415051259
 21
1460.865335401955
 31
0.0
 11
30706.17980472818
 21
1471.393192771855
 31
0.0
 11
30703.96304306977
 21
1482.099237742954
 31
0.0
 11
30702.6557360161
 21
1492.811338152052
 31
0.0
 11
30702.23209010199
 21
1503.348926165356
 31
0.0
  0
SPLINE
  5
53C9
330
200
100
AcDbEntity
  8
11111外轮廓线
 62
     7
370
     9
100
AcDbSpline
210
0.0
220
0.0
230
1.0
 70
     8
 71
     3
 72
    26
 73
    22
 74
    20
 42
0.0000000001
 43
0.0000000001
 44
0.0000000001
 12
-0.0000269292271031
 22
-0.9999999996374084
 32
0.0
 13
-0.9999999999892757
 23
-0.000004631244157
 33
0.0
 40
0.0
 40
0.0
 40
0.0
 40
0.0
 40
10.35669881589991
 40
20.87222752495692
 40
31.54558877946311
 40
42.37339377652166
 40
53.32891839575701
 40
64.32096258858519
 40
75.28722053513364
 40
86.24616051405473
 40
97.21207300068392
 40
108.1789200481356
 40
119.1439068508402
 40
130.1095013193362
 40
141.0748311765541
 40
152.0361616885146
 40
163.0013716894397
 40
173.9797302760256
 40
184.9122713885742
 40
195.7031444589747
 40
206.2478391513365
 40
206.2478391513365
 40
206.2478391513365
 40
206.2478391513365
 10
30964.91904294548
 20
1503.348878190354
 30
0.0
 10
30964.91894997952
 20
1499.896645252973
 30
0.0
 10
30964.64422951404
 20
1492.936143370759
 30
0.0
 10
30963.39510426665
 20
1482.484603663068
 30
0.0
 10
30961.27634827122
 20
1472.012660662958
 30
0.0
 10
30958.26732638597
 20
1461.607893890984
 30
0.0
 10
30954.36849762272
 20
1451.388536144295
 30
0.0
 10
30949.61008574692
 20
1441.48863450397
 30
0.0
 10
30944.04089135552
 20
1432.01983613948
 30
0.0
 10
30937.70647532654
 20
1423.055607916077
 30
0.0
 10
30930.64641842453
 20
1414.650696392266
 30
0.0
 10
30922.9083780678
 20
1406.862628667871
 30
0.0
 10
30914.54771525632
 20
1399.747283180493
 30
0.0
 10
30905.6230795289
 20
1393.354426520389
 30
0.0
 10
30896.19733561722
 20
1387.728920797797
 30
0.0
 10
30886.33540244293
 20
1382.909158352328
 30
0.0
 10
30876.10180172193
 20
1378.927055207064
 30
0.0
 10
30865.58078478583
 20
1375.815653513959
 30
0.0
 10
30854.89395607706
 20
1373.603668027916
 30
0.0
 10
30844.20558711504
 20
1372.299755355297
 30
0.0
 10
30837.09046475493
 20
1372.014017927505
 30
0.0
 10
30833.57556652417
 20
1372.014001649153
 30
0.0
 11
30964.91904294548
 21
1503.348878190354
 31
0.0
 11
30964.51046972518
 21
1493.000241647943
 31
0.0
 11
30963.26264814407
 21
1482.559011579953
 31
0.0
 11
30961.14599185938
 21
1472.097634680056
 31
0.0
 11
30958.13790043838
 21
1461.696060421454
 31
0.0
 11
30954.23275818057
 21
1451.460173374944
 31
0.0
 11
30949.47090917538
 21
1441.553113791553
 31
0.0
 11
30943.91130673368
 21
1432.100620255955
 31
0.0
 11
30937.58699004787
 21
1423.150682607054
 31
0.0
 11
30930.53384293809
 21
1414.753995610856
 31
0.0
 11
30922.80413901049
 21
1406.974316224543
 31
0.0
 11
30914.45381526518
 21
1399.867767911044
 31
0.0
 11
30905.53931185327
 21
1393.482167628652
 31
0.0
 11
30896.12345060348
 21
1387.862557695356
 31
0.0
 11
30886.27532188299
 21
1383.049541250646
 31
0.0
 11
30876.05649631056
 21
1379.073181824646
 31
0.0
 11
30865.52884714337
 21
1375.959829890144
 31
0.0
 11
30854.82323267068
 21
1373.743916096755
 31
0.0
 11
30844.11176337139
 21
1372.437253526754
 31
0.0
 11
30833.57556652417
 21
1372.014001649153
 31
0.0
  0
SPLINE
  5
53CA
330
200
100
AcDbEntity
  8
11111外轮廓线
 62
     7
370
     9
100
AcDbSpline
210
0.0
220
0.0
230
1.0
 70
     8
 71
     3
 72
    10
 73
     6
 74
     4
 42
0.0000000001
 43
0.0000000001
 44
0.0000000001
 12
0.0003753450093905
 22
-0.9999999295580595
 32
0.0
 13
-0.0000246234698284
 23
-0.9999999996968423
 33
0.0
 40
0.0
 40
0.0
 40
0.0
 40
0.0
 40
40.9581130138781
 40
82.62475915397624
 40
124.9980900936361
 40
124.9980900936361
 40
124.9980900936361
 40
124.9980900936361
 10
30964.90990208797
 20
1628.346967129055
 30
0.0
 10
30964.9150265624
 20
1614.694263752818
 30
0.0
 10
30964.92085180355
 20
1587.15267757613
 30
0.0
 10
30964.92114340317
 20
1545.48664747456
 30
0.0
 10
30964.91939073038
 20
1517.473321832626
 30
0.0
 10
30964.91904293757
 20
1503.348878190354
 30
0.0
 11
30964.90990208797
 21
1628.346967129055
 31
0.0
 11
30964.91941777407
 21
1587.388855220553
 31
0.0
 11
30964.92066273248
 21
1545.722209099054
 31
0.0
 11
30964.91904293757
 21
1503.348878190354
 31
0.0
  0
SPLINE
  5
53CB
330
200
100
AcDbEntity
  8
11111外轮廓线
 62
     7
370
     9
100
AcDbSpline
210
0.0
220
0.0
230
1.0
 70
     8
 71
     3
 72
    20
 73
    16
 74
    14
 42
0.0000000001
 43
0.0000000001
 44
0.0000000001
 12
0.9999999999994537
 22
0.0000010453877734
 32
0.0
 13
0.0003831303926054
 23
-0.9999999266055485
 33
0.0
 40
0.0
 40
0.0
 40
0.0
 40
0.0
 40
11.52635922524801
 40
24.22223693358188
 40
38.11599985621736
 40
53.21733178347811
 40
69.32070404619242
 40
85.18343767671252
 40
99.5867760123896
 40
112.1096383855191
 40
123.0136757933278
 40
133.0579734688249
 40
143.2584782469921
 40
154.6508631453921
 40
167.8379109072071
 40
167.8379109072071
 40
167.8379109072071
 40
167.8379109072071
 10
30833.57556652417
 20
1697.501428134142
 30
0.0
 10
30837.41768626592
 20
1697.501432150648
 30
0.0
 10
30845.49191360833
 20
1697.45557766597
 30
0.0
 10
30858.19477036592
 20
1697.160409455795
 30
0.0
 10
30872.07670847293
 20
1696.463136345661
 30
0.0
 10
30887.05349321422
 20
1695.099119906084
 30
0.0
 10
30902.5759395224
 20
1692.721310719819
 30
0.0
 10
30917.6097707538
 20
1689.004931848801
 30
0.0
 10
30930.96388024551
 20
1683.855857498566
 30
0.0
 10
30941.90753563191
 20
1677.460368289402
 30
0.0
 10
30950.37471865444
 20
1670.087125524353
 30
0.0
 10
30956.73709853654
 20
1661.794780519771
 30
0.0
 10
30961.37675458367
 20
1652.24661295241
 30
0.0
 10
30964.3130449832
 20
1640.960347240292
 30
0.0
 10
30964.90821776537
 20
1632.742649403007
 30
0.0
 10
30964.90990188497
 20
1628.346967138353
 30
0.0
 11
30833.57556652417
 21
1697.501428134142
 31
0.0
 11
30845.10167698068
 21
1697.425700108553
 31
0.0
 11
30857.79375828928
 21
1697.115244248944
 31
0.0
 11
30871.66875278647
 21
1696.393319146555
 31
0.0
 11
30886.70392216549
 21
1694.981261172656
 31
0.0
 11
30902.61008928238
 21
1692.468803037453
 31
0.0
 11
30917.98212130849
 21
1688.553838207343
 31
0.0
 11
30931.37502576778
 21
1683.254190543943
 31
0.0
 11
30942.13274462578
 21
1676.843764115954
 31
0.0
 11
30950.31572876877
 21
1669.637044868854
 31
0.0
 11
30956.41812149578
 21
1661.659030153445
 31
0.0
 11
30960.90210722707
 21
1652.496925062856
 31
0.0
 11
30963.84360183028
 21
1641.490833877855
 31
0.0
 11
30964.90990188497
 21
1628.346967138353
 31
0.0
  0
SPLINE
  5
53CC
330
200
100
AcDbEntity
  8
11111外轮廓线
 62
     7
370
     9
100
AcDbSpline
210
0.0
220
0.0
230
1.0
 70
     8
 71
     3
 72
    20
 73
    16
 74
    14
 42
0.0000000001
 43
0.0000000001
 44
0.0000000001
 12
0.0003847366294777
 22
0.9999999259888602
 32
0.0
 13
0.999999999999572
 23
-0.0000009252635131
 33
0.0
 40
0.0
 40
0.0
 40
0.0
 40
0.0
 40
12.99847869087858
 40
24.24994229233331
 40
34.31655694422301
 40
44.18591236612425
 40
54.83488944259591
 40
66.99896605988056
 40
80.89685245470905
 40
96.59521591775897
 40
113.0871536944813
 40
128.8368497884825
 40
143.3470682982542
 40
156.4130130451862
 40
167.8413747287921
 40
167.8413747287921
 40
167.8413747287921
 40
167.8413747287921
 10
30702.24123110099
 20
1628.346731575355
 30
0.0
 10
30702.24289809794
 20
1632.67955748497
 30
0.0
 10
30702.82171239322
 20
1640.786189748433
 30
0.0
 10
30705.67157243364
 20
1651.931845441723
 30
0.0
 10
30710.1716046797
 20
1661.377169851252
 30
0.0
 10
30716.32714075056
 20
1669.586268522227
 30
0.0
 10
30724.49223323342
 20
1676.899358931646
 30
0.0
 10
30735.01409524674
 20
1683.269375552451
 30
0.0
 10
30747.96680933665
 20
1688.498839588444
 30
0.0
 10
30762.86312192113
 20
1692.385432890928
 30
0.0
 10
30778.65537466872
 20
1694.93494275482
 30
0.0
 10
30794.17653352424
 20
1696.409166531846
 30
0.0
 10
30808.60220336998
 20
1697.152134891488
 30
0.0
 10
30821.60120250337
 20
1697.455449776023
 30
0.0
 10
30829.76611262964
 20
1697.501431658891
 30
0.0
 10
30833.57556652417
 20
1697.501428134142
 30
0.0
 11
30702.24123110099
 21
1628.346731575355
 31
0.0
 11
30703.27572824717
 21
1641.303979119944
 31
0.0
 11
30706.13365972907
 21
1652.186426492644
 31
0.0
 11
30710.48965399318
 21
1661.261780178356
 31
0.0
 11
30716.40080950788
 21
1669.165097008954
 31
0.0
 11
30724.29655420966
 21
1676.310580084253
 31
0.0
 11
30734.65088818688
 21
1682.694350744252
 31
0.0
 11
30747.49349548658
 21
1688.006476871255
 31
0.0
 11
30762.65412258969
 21
1692.080050395645
 31
0.0
 11
30778.92158864287
 21
1694.791795191853
 31
0.0
 11
30794.59595699328
 21
1696.330334716552
 31
0.0
 11
30809.08546349868
 21
1697.105345962453
 31
0.0
 11
30822.14744675546
 21
1697.427068715144
 31
0.0
 11
30833.57556652417
 21
1697.501428134142
 31
0.0
  0
SPLINE
  5
53CD
330
200
100
AcDbEntity
  8
11111外轮廓线
 62
     7
370
     9
100
AcDbSpline
210
0.0
220
0.0
230
1.0
 70
     8
 71
     3
 72
    10
 73
     6
 74
     4
 42
0.0000000001
 43
0.0000000001
 44
0.0000000001
 12
-0.0000246235264832
 22
0.9999999996968409
 32
0.0
 13
0.0003753438151763
 23
0.9999999295585077
 33
0.0
 40
0.0
 40
0.0
 40
0.0
 40
0.0
 40
42.37976401785901
 40
84.04641004078632
 40
124.9978065522562
 40
124.9978065522562
 40
124.9978065522562
 40
124.9978065522562
 10
30702.23209011037
 20
1503.348926165356
 30
0.0
 10
30702.23174226395
 20
1517.475514167026
 30
0.0
 10
30702.22998929231
 20
1545.490984129286
 30
0.0
 10
30702.23028180234
 20
1587.156919717127
 30
0.0
 10
30702.23610724538
 20
1614.696267020391
 30
0.0
 10
30702.24123086318
 20
1628.346731562655
 30
0.0
 11
30702.23209011037
 21
1503.348926165356
 31
0.0
 11
30702.23047013759
 21
1545.728690152253
 31
0.0
 11
30702.23171598777
 21
1587.395336156554
 31
0.0
 11
30702.24123086318
 21
1628.346731562655
 31
0.0
  0
SPLINE
  5
53CE
330
200
100
AcDbEntity
  8
11111外轮廓线
 62
     7
370
     9
100
AcDbSpline
210
0.0
220
0.0
230
1.0
 70
     8
 71
     3
 72
     9
 73
     5
 74
     3
 42
0.0000000001
 43
0.0000000001
 44
0.0000000001
 12
-0.9822899348022586
 22
0.187367243631791
 32
0.0
 13
0.963123273974045
 23
-0.2690605120219549
 33
0.0
 40
0.0
 40
0.0
 40
0.0
 40
0.0
 40
0.0444851431192682
 40
0.1022577362961618
 40
0.1022577362961618
 40
0.1022577362961618
 40
0.1022577362961618
 10
31005.59381495806
 20
2514.076071174219
 30
0.0
 10
31005.57924918862
 20
2514.078849527102
 30
0.0
 10
31005.56018720046
 20
2514.081837681777
 30
0.0
 10
31005.4746957417
 20
2514.099741663882
 30
0.0
 10
31005.49324311807
 20
2514.094560222715
 30
0.0
 11
31005.59381495806
 21
2514.076071174219
 31
0.0
 11
31005.55009230218
 21
2514.084272230324
 31
0.0
 11
31005.49324311807
 21
2514.094560222715
 31
0.0
  0
SPLINE
  5
53CF
330
200
100
AcDbEntity
  8
11111外轮廓线
 62
     7
370
     9
100
AcDbSpline
210
0.0
220
0.0
230
1.0
 70
     8
 71
     3
 72
    10
 73
     6
 74
     4
 42
0.0000000001
 43
0.0000000001
 44
0.0000000001
 12
-0.9846502582349602
 22
-0.1745390184395064
 32
0.0
 13
-0.9823391959393038
 23
-0.1871088028963948
 33
0.0
 40
0.0
 40
0.0
 40
0.0
 40
0.0
 40
0.0483698794936461
 40
0.0702401397117589
 40
0.1025199629338491
 40
0.1025199629338491
 40
0.1025199629338491
 40
0.1025199629338491
 10
30661.65788935517
 20
2514.094560301215
 30
0.0
 10
30661.64201355039
 20
2514.091746157453
 30
0.0
 10
30661.61897179631
 20
2514.087590086367
 30
0.0
 10
30661.58536802556
 20
2514.081376894686
 30
0.0
 10
30661.56762995234
 20
2514.07803524461
 30
0.0
 10
30661.55706004048
 20
2514.076021964917
 30
0.0
 11
30661.65788935517
 21
2514.094560301215
 31
0.0
 11
30661.61028761128
 21
2514.085974311427
 31
0.0
 11
30661.58878186398
 21
2514.081997992118
 31
0.0
 11
30661.55706004048
 21
2514.076021964917
 31
0.0
  0
SPLINE
  5
53D0
330
200
100
AcDbEntity
  8
11111外轮廓线
 62
     7
370
     9
100
AcDbSpline
210
0.0
220
0.0
230
1.0
 70
     8
 71
     3
 72
     8
 73
     4
 74
     2
 42
0.0000000001
 43
0.0000000001
 44
0.0000000001
 12
-0.9853336570930911
 22
0.1706387535103171
 32
0.0
 13
-0.99855749974984
 23
-0.0536928272057683
 33
0.0
 40
0.0
 40
0.0
 40
0.0
 40
0.0
 40
0.5916284209811288
 40
0.5916284209811288
 40
0.5916284209811288
 40
0.5916284209811288
 10
31005.49181033457
 20
2514.094806740126
 30
0.0
 10
31005.29749320267
 20
2514.128458318892
 30
0.0
 10
31005.09714368033
 20
2514.111991260117
 30
0.0
 10
31004.90021868138
 20
2514.101402525925
 30
0.0
 11
31005.49181033457
 21
2514.094806740126
 31
0.0
 11
31004.90021868138
 21
2514.101402525925
 31
0.0
  0
SPLINE
  5
53D1
330
200
100
AcDbEntity
  8
11111外轮廓线
 62
     7
370
     9
100
AcDbSpline
210
0.0
220
0.0
230
1.0
 70
     8
 71
     3
 72
    10
 73
     6
 74
     4
 42
0.0000000001
 43
0.0000000001
 44
0.0000000001
 12
-0.9985574997528562
 22
-0.0536928271496711
 32
0.0
 13
-0.9999965022875686
 23
0.0026448842373021
 33
0.0
 40
0.0
 40
0.0
 40
0.0
 40
0.0
 40
1.935448777978537
 40
5.684609504217014
 40
11.82923637893275
 40
11.82923637893275
 40
11.82923637893275
 40
11.82923637893275
 10
31004.90021868138
 20
2514.101402525925
 30
0.0
 10
31004.25599971717
 20
2514.066762620361
 30
0.0
 10
31002.35936591588
 20
2514.14376383292
 30
0.0
 10
30998.41764785832
 20
2514.094860087701
 30
0.0
 10
30995.11919950357
 20
2514.112034400339
 30
0.0
 10
30993.07099770937
 20
2514.117451675927
 30
0.0
 11
31004.90021868138
 21
2514.101402525925
 31
0.0
 11
31002.96477965299
 21
2514.107545776627
 31
0.0
 11
30999.21562304517
 21
2514.113102869917
 31
0.0
 11
30993.07099770937
 21
2514.117451675927
 31
0.0
  0
LINE
  5
53D2
330
200
100
AcDbEntity
  8
11111外轮廓线
 62
     7
370
     9
100
AcDbLine
 10
30993.07099770937
 20
2514.117451675927
 30
0.0
 11
30992.08862511727
 21
2514.119657796328
 31
0.0
  0
SPLINE
  5
53D3
330
200
100
AcDbEntity
  8
11111外轮廓线
 62
     7
370
     9
100
AcDbSpline
210
0.0
220
0.0
230
1.0
 70
     8
 71
     3
 72
     9
 73
     5
 74
     3
 42
0.0000000001
 43
0.0000000001
 44
0.0000000001
 12
-0.9999982623881496
 22
0.0018641943786845
 32
0.0
 13
-0.9999999778704951
 23
0.0002103782530101
 33
0.0
 40
0.0
 40
0.0
 40
0.0
 40
0.0
 40
8.217187182781774
 40
21.48976354489942
 40
21.48976354489942
 40
21.48976354489942
 40
21.48976354489942
 10
30992.08862511727
 20
2514.119657796328
 30
0.0
 10
30989.34956748244
 20
2514.124763941046
 30
0.0
 10
30982.18630440467
 20
2514.116324652084
 30
0.0
 10
30975.02305365077
 20
2514.120252013807
 30
0.0
 10
30970.59886162797
 20
2514.121182767616
 30
0.0
 11
30992.08862511727
 21
2514.119657796328
 31
0.0
 11
30983.87143794739
 21
2514.120118117317
 31
0.0
 11
30970.59886162797
 21
2514.121182767616
 31
0.0
  0
LINE
  5
53D4
330
200
100
AcDbEntity
  8
11111外轮廓线
 62
     7
370
     9
100
AcDbLine
 10
30970.59886162797
 20
2514.121182767616
 30
0.0
 11
30969.14686083097
 21
2514.121436301626
 31
0.0
  0
SPLINE
  5
53D5
330
200
100
AcDbEntity
  8
11111外轮廓线
 62
     7
370
     9
100
AcDbSpline
210
0.0
220
0.0
230
1.0
 70
     8
 71
     3
 72
     8
 73
     4
 74
     2
 42
0.0000000001
 43
0.0000000001
 44
0.0000000001
 12
-0.9999999901954288
 22
0.0001400326474938
 32
0.0
 13
-0.999999990209686
 23
-0.0001399307973538
 33
0.0
 40
0.0
 40
0.0
 40
0.0
 40
0.0
 40
9.217677752741613
 40
9.217677752741613
 40
9.217677752741613
 40
9.217677752741613
 10
30969.14686083097
 20
2514.121436301626
 30
0.0
 10
30966.07430161018
 20
2514.121866560233
 30
0.0
 10
30963.0017423017
 20
2514.12164560399
 30
0.0
 10
30959.92918308087
 20
2514.121215658324
 30
0.0
 11
30969.14686083097
 21
2514.121436301626
 31
0.0
 11
30959.92918308087
 21
2514.121215658324
 31
0.0
  0
SPLINE
  5
53D6
330
200
100
AcDbEntity
  8
11111外轮廓线
 62
     7
370
     9
100
AcDbSpline
210
0.0
220
0.0
230
1.0
 70
     8
 71
     3
 72
     9
 73
     5
 74
     3
 42
0.0000000001
 43
0.0000000001
 44
0.0000000001
 12
-0.9999999902096854
 22
-0.0001399308002721
 32
0.0
 13
-0.9999999936065814
 23
-0.000113078899158
 33
0.0
 40
0.0
 40
0.0
 40
0.0
 40
0.0
 40
6.549698306524175
 40
20.47060942079609
 40
20.47060942079609
 40
20.47060942079609
 40
20.47060942079609
 10
30959.92918308087
 20
2514.121215658324
 30
0.0
 10
30957.7459503334
 20
2514.120910156816
 30
0.0
 10
30950.92241397691
 20
2514.119625535877
 30
0.0
 10
30944.09887754046
 20
2514.11885975295
 30
0.0
 10
30939.45857386537
 20
2514.118335032515
 30
0.0
 11
30959.92918308087
 21
2514.121215658324
 31
0.0
 11
30953.37948486247
 21
2514.120141226428
 31
0.0
 11
30939.45857386537
 21
2514.118335032515
 31
0.0
  0
LINE
  5
53D7
330
200
100
AcDbEntity
  8
11111外轮廓线
 62
     7
370
     9
100
AcDbLine
 10
30939.45857386537
 20
2514.118335032515
 30
0.0
 11
30924.48233484757
 21
2514.116406466616
 31
0.0
  0
LINE
  5
53D8
330
200
100
AcDbEntity
  8
11111外轮廓线
 62
     7
370
     9
100
AcDbLine
 10
30924.48233484757
 20
2514.116406466616
 30
0.0
 11
30923.94346187788
 21
2514.116327086617
 31
0.0
  0
LINE
  5
53D9
330
200
100
AcDbEntity
  8
11111外轮廓线
 62
     7
370
     9
100
AcDbLine
 10
30923.94346187788
 20
2514.116327086617
 30
0.0
 11
30920.48243490177
 21
2514.115809310817
 31
0.0
  0
SPLINE
  5
53DA
330
200
100
AcDbEntity
  8
11111外轮廓线
 62
     7
370
     9
100
AcDbSpline
210
0.0
220
0.0
230
1.0
 70
     8
 71
     3
 72
     9
 73
     5
 74
     3
 42
0.0000000001
 43
0.0000000001
 44
0.0000000001
 12
-0.9999999885955849
 22
-0.0001510259240302
 32
0.0
 13
-0.9999999925421716
 23
-0.000122129671298
 33
0.0
 40
0.0
 40
0.0
 40
0.0
 40
0.0
 40
10.33684853250394
 40
23.21568343400658
 40
23.21568343400658
 40
23.21568343400658
 40
23.21568343400658
 10
30920.48243490177
 20
2514.115809310817
 30
0.0
 10
30917.03681876356
 20
2514.11528893345
 30
0.0
 10
30909.29825771024
 20
2514.114098517304
 30
0.0
 10
30901.55969663103
 20
2514.113085206574
 30
0.0
 10
30897.26675169587
 20
2514.112560910616
 30
0.0
 11
30920.48243490177
 21
2514.115809310817
 31
0.0
 11
30910.14558648478
 21
2514.114263972319
 31
0.0
 11
30897.26675169587
 21
2514.112560910616
 31
0.0
  0
LINE
  5
53DB
330
200
100
AcDbEntity
  8
11111外轮廓线
 62
     7
370
     9
100
AcDbLine
 10
30897.26675169587
 20
2514.112560910616
 30
0.0
 11
30896.97385142127
 21
2514.112525197325
 31
0.0
  0
LINE
  5
53DC
330
200
100
AcDbEntity
  8
11111外轮廓线
 62
     7
370
     9
100
AcDbLine
 10
30896.97385142127
 20
2514.112525197325
 30
0.0
 11
30893.26681160259
 21
2514.112082848828
 31
0.0
  0
SPLINE
  5
53DD
330
200
100
AcDbEntity
  8
11111外轮廓线
 62
     7
370
     9
100
AcDbSpline
210
0.0
220
0.0
230
1.0
 70
     8
 71
     3
 72
     9
 73
     5
 74
     3
 42
0.0000000001
 43
0.0000000001
 44
0.0000000001
 12
-0.9999999931520301
 22
-0.0001170296529049
 32
0.0
 13
-0.9999999966659222
 23
-0.0000816587754497
 33
0.0
 40
0.0
 40
0.0
 40
0.0
 40
0.0
 40
7.863692282408055
 40
26.03943375397749
 40
26.03943375397749
 40
26.03943375397749
 40
26.03943375397749
 10
30893.26681160259
 20
2514.112082848828
 30
0.0
 10
30890.64558085973
 20
2514.111776087101
 30
0.0
 10
30881.96576966335
 20
2514.110800609894
 30
0.0
 10
30873.2859584555
 20
2514.109917035191
 30
0.0
 10
30867.22737798518
 20
2514.109422298927
 30
0.0
 11
30893.26681160259
 21
2514.112082848828
 31
0.0
 11
30885.40311937027
 21
2514.111195296519
 31
0.0
 11
30867.22737798518
 21
2514.109422298927
 31
0.0
  0
LINE
  5
53DE
330
200
100
AcDbEntity
  8
11111外轮廓线
 62
     7
370
     9
100
AcDbLine
 10
30867.22737798518
 20
2514.109422298927
 30
0.0
 11
30863.22740107946
 21
2514.109114215826
 31
0.0
  0
SPLINE
  5
53DF
330
200
100
AcDbEntity
  8
11111外轮廓线
 62
     7
370
     9
100
AcDbSpline
210
0.0
220
0.0
230
1.0
 70
     8
 71
     3
 72
     9
 73
     5
 74
     3
 42
0.0000000001
 43
0.0000000001
 44
0.0000000001
 12
-0.9999999973951771
 22
-0.0000721778767165
 32
0.0
 13
-0.9999999999237505
 23
-0.0000123490442565
 33
0.0
 40
0.0
 40
0.0
 40
0.0
 40
0.0
 40
3.83911528944977
 40
23.61561766741286
 40
23.61561766741286
 40
23.61561766741286
 40
23.61561766741286
 10
30863.22740107946
 20
2514.109114215826
 30
0.0
 10
30861.94769598631
 20
2514.109021849429
 30
0.0
 10
30854.07582344834
 20
2514.108491821912
 30
0.0
 10
30846.2039508924
 20
2514.108223991992
 30
0.0
 10
30839.61178343358
 20
2514.108142585025
 30
0.0
 11
30863.22740107946
 21
2514.109114215826
 31
0.0
 11
30859.38828579866
 21
2514.108856449027
 31
0.0
 11
30839.61178343358
 21
2514.108142585025
 31
0.0
  0
LINE
  5
53E0
330
200
100
AcDbEntity
  8
11111外轮廓线
 62
     7
370
     9
100
AcDbLine
 10
30839.61178343358
 20
2514.108142585025
 30
0.0
 11
30827.61176538837
 21
2514.108144483027
 31
0.0
  0
SPLINE
  5
53E1
330
200
100
AcDbEntity
  8
11111外轮廓线
 62
     7
370
     9
100
AcDbSpline
210
0.0
220
0.0
230
1.0
 70
     8
 71
     3
 72
     9
 73
     5
 74
     3
 42
0.0000000001
 43
0.0000000001
 44
0.0000000001
 12
-0.9999999999219372
 22
0.0000124950205528
 32
0.0
 13
-0.9999999974555677
 23
0.0000713362776383
 33
0.0
 40
0.0
 40
0.0
 40
0.0
 40
0.0
 40
21.47667224872687
 40
23.65276678063768
 40
23.65276678063768
 40
23.65276678063768
 40
23.65276678063768
 10
30827.61176538837
 20
2514.108144483027
 30
0.0
 10
30820.45287463936
 20
2514.108233933514
 30
0.0
 10
30812.5686190453
 20
2514.108513038424
 30
0.0
 10
30804.68436347028
 20
2514.109052933898
 30
0.0
 10
30803.95899862815
 20
2514.109104678726
 30
0.0
 11
30827.61176538837
 21
2514.108144483027
 31
0.0
 11
30806.13509315497
 21
2514.108955798718
 31
0.0
 11
30803.95899862815
 21
2514.109104678726
 31
0.0
  0
LINE
  5
53E2
330
200
100
AcDbEntity
  8
11111外轮廓线
 62
     7
370
     9
100
AcDbLine
 10
30803.95899862815
 20
2514.109104678726
 30
0.0
 11
30799.97430230087
 21
2514.109408967219
 31
0.0
  0
SPLINE
  5
53E3
330
200
100
AcDbEntity
  8
11111外轮廓线
 62
     7
370
     9
100
AcDbSpline
210
0.0
220
0.0
230
1.0
 70
     8
 71
     3
 72
     9
 73
     5
 74
     3
 42
0.0000000001
 43
0.0000000001
 44
0.0000000001
 12
-0.9999999967044233
 22
0.0000811859178453
 32
0.0
 13
-0.9999999930978297
 23
0.0001174918739501
 33
0.0
 40
0.0
 40
0.0
 40
0.0
 40
0.0
 40
19.78474913007267
 40
26.05727755718552
 40
26.05727755718552
 40
26.05727755718552
 40
26.05727755718552
 10
30799.97430230087
 20
2514.109408967219
 30
0.0
 10
30793.37938594592
 20
2514.109944381558
 30
0.0
 10
30784.69362680531
 20
2514.110848583117
 30
0.0
 10
30776.00786767638
 20
2514.111840337577
 30
0.0
 10
30773.91702488177
 20
2514.112085994617
 30
0.0
 11
30799.97430230087
 21
2514.109408967219
 31
0.0
 11
30780.18955326778
 21
2514.111367939128
 31
0.0
 11
30773.91702488177
 21
2514.112085994617
 31
0.0
  0
LINE
  5
53E4
330
200
100
AcDbEntity
  8
11111外轮廓线
 62
     7
370
     9
100
AcDbLine
 10
30773.91702488177
 20
2514.112085994617
 30
0.0
 11
30770.03084746858
 21
2514.112550998318
 31
0.0
  0
LINE
  5
53E5
330
200
100
AcDbEntity
  8
11111外轮廓线
 62
     7
370
     9
100
AcDbLine
 10
30770.03084746858
 20
2514.112550998318
 30
0.0
 11
30769.91708794727
 21
2514.112564877316
 31
0.0
  0
SPLINE
  5
53E6
330
200
100
AcDbEntity
  8
11111外轮廓线
 62
     7
370
     9
100
AcDbSpline
210
0.0
220
0.0
230
1.0
 70
     8
 71
     3
 72
     9
 73
     5
 74
     3
 42
0.0000000001
 43
0.0000000001
 44
0.0000000001
 12
-0.9999999925490854
 22
0.0001220730487296
 32
0.0
 13
-0.9999999885171455
 23
0.0001515444122911
 33
0.0
 40
0.0
 40
0.0
 40
0.0
 40
0.0
 40
14.38339567996606
 40
23.21950184394815
 40
23.21950184394815
 40
23.21950184394815
 40
23.21950184394815
 10
30769.91708794727
 20
2514.112564877316
 30
0.0
 10
30765.12262275634
 20
2514.113150152303
 30
0.0
 10
30757.38278887377
 20
2514.114163729422
 30
0.0
 10
30749.64295501599
 20
2514.115346356253
 30
0.0
 10
30746.69758632848
 20
2514.115792710425
 30
0.0
 11
30769.91708794727
 21
2514.112564877316
 31
0.0
 11
30755.53369239357
 21
2514.114470747714
 31
0.0
 11
30746.69758632848
 21
2514.115792710425
 31
0.0
  0
LINE
  5
53E7
330
200
100
AcDbEntity
  8
11111外轮廓线
 62
     7
370
     9
100
AcDbLine
 10
30746.69758632848
 20
2514.115792710425
 30
0.0
 11
30742.98486207937
 21
2514.116351308527
 31
0.0
  0
LINE
  5
53E8
330
200
100
AcDbEntity
  8
11111外轮廓线
 62
     7
370
     9
100
AcDbLine
 10
30742.98486207937
 20
2514.116351308527
 30
0.0
 11
30742.69768591618
 21
2514.116393990917
 31
0.0
  0
LINE
  5
53E9
330
200
100
AcDbEntity
  8
11111外轮廓线
 62
     7
370
     9
100
AcDbLine
 10
30742.69768591618
 20
2514.116393990917
 30
0.0
 11
30727.71533718349
 21
2514.118356039824
 31
0.0
  0
SPLINE
  5
53EA
330
200
100
AcDbEntity
  8
11111外轮廓线
 62
     7
370
     9
100
AcDbSpline
210
0.0
220
0.0
230
1.0
 70
     8
 71
     3
 72
     9
 73
     5
 74
     3
 42
0.0000000001
 43
0.0000000001
 44
0.0000000001
 12
-0.9999999937106775
 22
0.0001121545583127
 32
0.0
 13
-0.9999999889292322
 23
0.0001488003215002
 33
0.0
 40
0.0
 40
0.0
 40
0.0
 40
0.0
 40
15.06470042839449
 40
20.47891356811589
 40
20.47891356811589
 40
20.47891356811589
 40
20.47891356811589
 10
30727.71533718349
 20
2514.118356039824
 30
0.0
 10
30722.6937704056
 20
2514.118919231432
 30
0.0
 10
30715.86746591406
 20
2514.119637345311
 30
0.0
 10
30709.04116150023
 20
2514.120868546476
 30
0.0
 10
30707.23642380697
 20
2514.121137092028
 30
0.0
 11
30727.71533718349
 21
2514.118356039824
 31
0.0
 11
30712.65063687458
 21
2514.120253399917
 31
0.0
 11
30707.23642380697
 21
2514.121137092028
 31
0.0
  0
SPLINE
  5
53EB
330
200
100
AcDbEntity
  8
11111外轮廓线
 62
     7
370
     9
100
AcDbSpline
210
0.0
220
0.0
230
1.0
 70
     8
 71
     3
 72
     8
 73
     4
 74
     2
 42
0.0000000001
 43
0.0000000001
 44
0.0000000001
 12
-0.9999999889292324
 22
0.0001488003206118
 32
0.0
 13
-0.9999999941586031
 23
-0.0001080869729327
 33
0.0
 40
0.0
 40
0.0
 40
0.0
 40
0.0
 40
9.225357270245588
 40
9.225357270245588
 40
9.225357270245588
 40
9.225357270245588
 10
30707.23642380697
 20
2514.121137092028
 30
0.0
 10
30704.16130475094
 20
2514.121594670735
 30
0.0
 10
30701.08618561829
 20
2514.121886885031
 30
0.0
 10
30698.01106654617
 20
2514.121554504717
 30
0.0
 11
30707.23642380697
 21
2514.121137092028
 31
0.0
 11
30698.01106654617
 21
2514.121554504717
 31
0.0
  0
SPLINE
  5
53EC
330
200
100
AcDbEntity
  8
11111外轮廓线
 62
     7
370
     9
100
AcDbSpline
210
0.0
220
0.0
230
1.0
 70
     8
 71
     3
 72
    10
 73
     6
 74
     4
 42
0.0000000001
 43
0.0000000001
 44
0.0000000001
 12
-0.9999999941586031
 22
-0.0001080869723009
 32
0.0
 13
-0.9999986466305145
 23
-0.0016452164415084
 33
0.0
 40
0.0
 40
0.0
 40
0.0
 40
0.0
 40
2.303245842578805
 40
15.24726471023356
 40
22.94854604432589
 40
22.94854604432589
 40
22.94854604432589
 40
22.94854604432589
 10
30698.01106654617
 20
2514.121554504717
 30
0.0
 10
30697.24331793646
 20
2514.121471521093
 30
0.0
 10
30692.16089629429
 20
2514.120664456192
 30
0.0
 10
30684.51138396949
 20
2514.116410130562
 30
0.0
 10
30677.62961088748
 20
2514.124252028618
 30
0.0
 10
30675.06252058368
 20
2514.120028603727
 30
0.0
 11
30698.01106654617
 21
2514.121554504717
 31
0.0
 11
30695.70782073378
 21
2514.121181607028
 31
0.0
 11
30682.76380191777
 21
2514.120025304219
 31
0.0
 11
30675.06252058368
 21
2514.120028603727
 31
0.0
  0
SPLINE
  5
53ED
330
200
100
AcDbEntity
  8
11111外轮廓线
 62
     7
370
     9
100
AcDbSpline
210
0.0
220
0.0
230
1.0
 70
     8
 71
     3
 72
    11
 73
     7
 74
     5
 42
0.0000000001
 43
0.0000000001
 44
0.0000000001
 12
-0.9999986466305076
 22
-0.0016452164457261
 32
0.0
 13
-0.9985630002855085
 23
0.0535904325491361
 33
0.0
 40
0.0
 40
0.0
 40
0.0
 40
0.0
 40
1.270894040482265
 40
7.271286292967857
 40
10.93257829489356
 40
12.82427130664315
 40
12.82427130664315
 40
12.82427130664315
 40
12.82427130664315
 10
30675.06252058368
 20
2514.120028603727
 30
0.0
 10
30674.63888981018
 20
2514.119331638469
 30
0.0
 10
30672.21516861761
 20
2514.114220261089
 30
0.0
 10
30668.57044807187
 20
2514.095172071991
 30
0.0
 10
30664.7206362456
 20
2514.14279393593
 30
0.0
 10
30662.86792595135
 20
2514.067542033636
 30
0.0
 10
30662.23826773487
 20
2514.101334249219
 30
0.0
 11
30675.06252058368
 21
2514.120028603727
 31
0.0
 11
30673.79162944237
 21
2514.117314001818
 31
0.0
 11
30667.79123877688
 21
2514.112949911316
 31
0.0
 11
30664.12995094549
 21
2514.107423698515
 31
0.0
 11
30662.23826773487
 21
2514.101334249219
 31
0.0
  0
SPLINE
  5
53EE
330
200
100
AcDbEntity
  8
11111外轮廓线
 62
     7
370
     9
100
AcDbSpline
210
0.0
220
0.0
230
1.0
 70
     8
 71
     3
 72
     8
 73
     4
 74
     2
 42
0.0000000001
 43
0.0000000001
 44
0.0000000001
 12
-0.998563000280555
 22
0.0535904326414382
 32
0.0
 13
-0.9853022988245658
 23
-0.1708197293377611
 33
0.0
 40
0.0
 40
0.0
 40
0.0
 40
0.0
 40
0.5789900622392659
 40
0.5789900622392659
 40
0.5789900622392659
 40
0.5789900622392659
 10
30662.23826773487
 20
2514.101334249219
 30
0.0
 10
30662.04554838364
 20
2514.111677025196
 30
0.0
 10
30661.84947454824
 20
2514.127774449823
 30
0.0
 10
30661.65931446847
 20
2514.094806807916
 30
0.0
 11
30662.23826773487
 21
2514.101334249219
 31
0.0
 11
30661.65931446847
 21
2514.094806807916
 31
0.0
  0
SPLINE
  5
53EF
330
200
100
AcDbEntity
  8
11111外轮廓线
 62
     7
370
     9
100
AcDbSpline
210
0.0
220
0.0
230
1.0
 70
     8
 71
     3
 72
    13
 73
     9
 74
     7
 42
0.0000000001
 43
0.0000000001
 44
0.0000000001
 12
-0.9994967152204182
 22
0.0317224882944965
 32
0.0
 13
-0.9999999997331304
 23
-0.0000231027972105
 33
0.0
 40
0.0
 40
0.0
 40
0.0
 40
0.0
 40
0.5715223012340749
 40
2.533099992438442
 40
6.372020857425176
 40
12.69450819781243
 40
22.18534278876766
 40
35.89616469959019
 40
35.89616469959019
 40
35.89616469959019
 40
35.89616469959019
 10
31011.07556652297
 20
2520.950037051116
 30
0.0
 10
31010.88515496872
 20
2520.956080420953
 30
0.0
 10
31010.04100380151
 20
2520.976717423805
 30
0.0
 10
31007.9168389011
 20
2520.976517020207
 30
0.0
 10
31003.8759831705
 20
2520.995544434148
 30
0.0
 10
30997.32517070433
 20
2520.999699661721
 30
0.0
 10
30987.48382453374
 20
2521.006723348579
 30
0.0
 10
30979.74992769153
 20
2521.007295500231
 30
0.0
 10
30975.17965372248
 20
2521.007189914119
 30
0.0
 11
31011.07556652297
 21
2520.950037051116
 31
0.0
 11
31010.50422317657
 21
2520.964338146729
 31
0.0
 11
31008.54269057415
 21
2520.977638082718
 31
0.0
 11
31004.70378858547
 21
2520.989676723417
 31
0.0
 11
30998.38130826248
 21
2520.999096636726
 31
0.0
 11
30988.89047544067
 21
2521.004891579716
 31
0.0
 11
30975.17965372248
 21
2521.007189914119
 31
0.0
  0
LINE
  5
53F0
330
200
100
AcDbEntity
  8
11111外轮廓线
 62
     7
370
     9
100
AcDbLine
 10
30975.17965372248
 20
2521.007189914119
 30
0.0
 11
30974.90035809097
 21
2521.007182910715
 31
0.0
  0
LINE
  5
53F1
330
200
100
AcDbEntity
  8
11111外轮廓线
 62
     7
370
     9
100
AcDbLine
 10
30974.90035809097
 20
2521.007182910715
 30
0.0
 11
30973.14685504847
 21
2521.007114262917
 31
0.0
  0
LINE
  5
53F2
330
200
100
AcDbEntity
  8
11111外轮廓线
 62
     7
370
     9
100
AcDbLine
 10
30973.14685504847
 20
2521.007114262917
 30
0.0
 11
30972.97407193698
 21
2521.007105244618
 31
0.0
  0
LINE
  5
53F3
330
200
100
AcDbEntity
  8
11111外轮廓线
 62
     7
370
     9
100
AcDbLine
 10
30972.97407193698
 20
2521.007105244618
 30
0.0
 11
30970.97843574517
 21
2521.006972938827
 31
0.0
  0
LINE
  5
53F4
330
200
100
AcDbEntity
  8
11111外轮廓线
 62
     7
370
     9
100
AcDbLine
 10
30970.97843574517
 20
2521.006972938827
 30
0.0
 11
30969.14698357377
 21
2521.006807850525
 31
0.0
  0
LINE
  5
53F5
330
200
100
AcDbEntity
  8
11111外轮廓线
 62
     7
370
     9
100
AcDbLine
 10
30969.14698357377
 20
2521.006807850525
 30
0.0
 11
30963.92919502217
 21
2521.006131134618
 31
0.0
  0
LINE
  5
53F6
330
200
100
AcDbEntity
  8
11111外轮廓线
 62
     7
370
     9
100
AcDbLine
 10
30963.92919502217
 20
2521.006131134618
 30
0.0
 11
30961.32534251527
 21
2521.005692611216
 31
0.0
  0
LINE
  5
53F7
330
200
100
AcDbEntity
  8
11111外轮廓线
 62
     7
370
     9
100
AcDbLine
 10
30961.32534251527
 20
2521.005692611216
 30
0.0
 11
30959.92931592577
 21
2521.005433382725
 31
0.0
  0
LINE
  5
53F8
330
200
100
AcDbEntity
  8
11111外轮廓线
 62
     7
370
     9
100
AcDbLine
 10
30959.92931592577
 20
2521.005433382725
 30
0.0
 11
30957.79410718757
 21
2521.005007494117
 31
0.0
  0
LINE
  5
53F9
330
200
100
AcDbEntity
  8
11111外轮廓线
 62
     7
370
     9
100
AcDbLine
 10
30957.79410718757
 20
2521.005007494117
 30
0.0
 11
30957.37901567719
 21
2521.004920857915
 31
0.0
  0
LINE
  5
53FA
330
200
100
AcDbEntity
  8
11111外轮廓线
 62
     7
370
     9
100
AcDbLine
 10
30957.37901567719
 20
2521.004920857915
 30
0.0
 11
30951.45833397938
 21
2521.003565058527
 31
0.0
  0
SPLINE
  5
53FB
330
200
100
AcDbEntity
  8
11111外轮廓线
 62
     7
370
     9
100
AcDbSpline
210
0.0
220
0.0
230
1.0
 70
     8
 71
     3
 72
     9
 73
     5
 74
     3
 42
0.0000000001
 43
0.0000000001
 44
0.0000000001
 12
-0.9999999696446034
 22
-0.0002463956012366
 32
0.0
 13
-0.9999999528138724
 23
-0.0003072006720559
 33
0.0
 40
0.0
 40
0.0
 40
0.0
 40
0.0
 40
15.09794223163479
 40
26.97567602978655
 40
26.97567602978655
 40
26.97567602978655
 40
26.97567602978655
 10
30951.45833397938
 20
2521.003565058527
 30
0.0
 10
30946.42568672161
 20
2521.002325036342
 30
0.0
 10
30937.4337950766
 20
2520.9997435259
 30
0.0
 10
30928.44190349853
 20
2520.996960175929
 30
0.0
 10
30924.48265908597
 20
2520.995743893327
 30
0.0
 11
30951.45833397938
 21
2521.003565058527
 31
0.0
 11
30936.36039232997
 21
2520.999372133127
 31
0.0
 11
30924.48265908597
 21
2520.995743893327
 31
0.0
  0
SPLINE
  5
53FC
330
200
100
AcDbEntity
  8
11111外轮廓线
 62
     7
370
     9
100
AcDbSpline
210
0.0
220
0.0
230
1.0
 70
     8
 71
     3
 72
    11
 73
     7
 74
     5
 42
0.0000000001
 43
0.0000000001
 44
0.0000000001
 12
-0.9999999528138728
 22
-0.0003072006712126
 32
0.0
 13
-0.9999999999997791
 23
0.000000664590653
 33
0.0
 40
0.0
 40
0.0
 40
0.0
 40
0.0
 40
11.79899705608931
 40
37.36781837135616
 40
64.24420629868372
 40
90.90708616519973
 40
90.90708616519973
 40
90.90708616519973
 40
90.90708616519973
 10
30924.48265908597
 20
2520.995743893327
 30
0.0
 10
30920.54966025286
 20
2520.994535673389
 30
0.0
 10
30908.09372137293
 20
2520.990738145248
 30
0.0
 10
30886.67898665486
 20
2520.985184906856
 30
0.0
 10
30860.30962411166
 20
2520.979828409512
 30
0.0
 10
30842.46320146964
 20
2520.978843698085
 30
0.0
 10
30833.57557484747
 20
2520.978849604718
 30
0.0
 11
30924.48265908597
 21
2520.995743893327
 31
0.0
 11
30912.68366256387
 21
2520.992194089217
 31
0.0
 11
30887.11484211668
 21
2520.985531394326
 31
0.0
 11
30860.23845466418
 21
2520.980479351216
 31
0.0
 11
30833.57557484747
 21
2520.978849604718
 31
0.0
  0
SPLINE
  5
53FD
330
200
100
AcDbEntity
  8
11111外轮廓线
 62
     7
370
     9
100
AcDbSpline
210
0.0
220
0.0
230
1.0
 70
     8
 71
     3
 72
    11
 73
     7
 74
     5
 42
0.0000000001
 43
0.0000000001
 44
0.0000000001
 12
-0.9999999999912315
 22
0.0000041877099733
 32
0.0
 13
-0.999999953085221
 23
0.0003063161043383
 33
0.0
 40
0.0
 40
0.0
 40
0.0
 40
0.0
 40
27.49894719223958
 40
54.30416256028654
 40
79.78396101104528
 40
90.03283439611742
 40
90.03283439611742
 40
90.03283439611742
 40
90.03283439611742
 10
30832.73019430426
 20
2520.978851658227
 30
0.0
 10
30823.5638785736
 20
2520.978890044099
 30
0.0
 10
30805.46249101251
 20
2520.979997792401
 30
0.0
 10
30778.86783787484
 20
2520.985561778389
 30
0.0
 10
30758.02320952875
 20
2520.991061839899
 30
0.0
 10
30746.11365279885
 20
2520.994680885134
 30
0.0
 10
30742.69736183077
 20
2520.995727350124
 30
0.0
 11
30832.73019430426
 21
2520.978851658227
 31
0.0
 11
30805.23124717407
 21
2520.980698998116
 31
0.0
 11
30778.42603231148
 21
2520.985904529618
 31
0.0
 11
30752.94623475198
 21
2520.992643833917
 31
0.0
 11
30742.69736183077
 21
2520.995727350124
 31
0.0
  0
SPLINE
  5
53FE
330
200
100
AcDbEntity
  8
11111外轮廓线
 62
     7
370
     9
100
AcDbSpline
210
0.0
220
0.0
230
1.0
 70
     8
 71
     3
 72
     9
 73
     5
 74
     3
 42
0.0000000001
 43
0.0000000001
 44
0.0000000001
 12
-0.9999999530852216
 22
0.0003063161027151
 32
0.0
 13
-0.9999999693737882
 23
0.0002474922684373
 33
0.0
 40
0.0
 40
0.0
 40
0.0
 40
0.0
 40
13.2834959907768
 40
26.98179028923189
 40
26.98179028923189
 40
26.98179028923189
 40
26.98179028923189
 10
30742.69736183077
 20
2520.995727350124
 30
0.0
 10
30738.26953004157
 20
2520.997083666365
 30
0.0
 10
30729.27560037675
 20
2520.999867080003
 30
0.0
 10
30720.28167064091
 20
2521.002430797841
 30
0.0
 10
30715.71557268127
 20
2521.003560871817
 30
0.0
 11
30742.69736183077
 21
2520.995727350124
 31
0.0
 11
30729.41386645547
 21
2520.999771041628
 31
0.0
 11
30715.71557268127
 21
2521.003560871817
 31
0.0
  0
LINE
  5
53FF
330
200
100
AcDbEntity
  8
11111外轮廓线
 62
     7
370
     9
100
AcDbLine
 10
30715.71557268127
 20
2521.003560871817
 30
0.0
 11
30709.35808142627
 21
2521.005012003115
 31
0.0
  0
LINE
  5
5400
330
200
100
AcDbEntity
  8
11111外轮廓线
 62
     7
370
     9
100
AcDbLine
 10
30709.35808142627
 20
2521.005012003115
 30
0.0
 11
30708.61313615757
 21
2521.005164351918
 31
0.0
  0
LINE
  5
5401
330
200
100
AcDbEntity
  8
11111外轮廓线
 62
     7
370
     9
100
AcDbLine
 10
30708.61313615757
 20
2521.005164351918
 30
0.0
 11
30707.23630358897
 21
2521.005434985927
 31
0.0
  0
LINE
  5
5402
330
200
100
AcDbEntity
  8
11111外轮廓线
 62
     7
370
     9
100
AcDbLine
 10
30707.23630358897
 20
2521.005434985927
 30
0.0
 11
30706.22303637069
 21
2521.005624564216
 31
0.0
  0
LINE
  5
5403
330
200
100
AcDbEntity
  8
11111外轮廓线
 62
     7
370
     9
100
AcDbLine
 10
30706.22303637069
 20
2521.005624564216
 30
0.0
 11
30703.23641284077
 21
2521.006131482828
 31
0.0
  0
LINE
  5
5404
330
200
100
AcDbEntity
  8
11111外轮廓线
 62
     7
370
     9
100
AcDbLine
 10
30703.23641284077
 20
2521.006131482828
 30
0.0
 11
30698.01095540497
 21
2521.006804042016
 31
0.0
  0
LINE
  5
5405
330
200
100
AcDbEntity
  8
11111外轮廓线
 62
     7
370
     9
100
AcDbLine
 10
30698.01095540497
 20
2521.006804042016
 30
0.0
 11
30696.58949064967
 21
2521.006933351015
 31
0.0
  0
LINE
  5
5406
330
200
100
AcDbEntity
  8
11111外轮廓线
 62
     7
370
     9
100
AcDbLine
 10
30696.58949064967
 20
2521.006933351015
 30
0.0
 11
30694.17950760127
 21
2521.007094233326
 31
0.0
  0
LINE
  5
5407
330
200
100
AcDbEntity
  8
11111外轮廓线
 62
     7
370
     9
100
AcDbLine
 10
30694.17950760127
 20
2521.007094233326
 30
0.0
 11
30694.01107176738
 21
2521.007102609918
 31
0.0
  0
LINE
  5
5408
330
200
100
AcDbEntity
  8
11111外轮廓线
 62
     7
370
     9
100
AcDbLine
 10
30694.01107176738
 20
2521.007102609918
 30
0.0
 11
30691.83696745886
 21
2521.007175391016
 31
0.0
  0
LINE
  5
5409
330
200
100
AcDbEntity
  8
11111外轮廓线
 62
     7
370
     9
100
AcDbLine
 10
30691.83696745886
 20
2521.007175391016
 30
0.0
 11
30691.09879067507
 21
2521.007184715116
 31
0.0
  0
SPLINE
  5
540A
330
200
100
AcDbEntity
  8
11111外轮廓线
 62
     7
370
     9
100
AcDbSpline
210
0.0
220
0.0
230
1.0
 70
     8
 71
     3
 72
    13
 73
     9
 74
     7
 42
0.0000000001
 43
0.0000000001
 44
0.0000000001
 12
-0.9999999999741127
 22
0.0000071954519617
 32
0.0
 13
-0.9994841218658029
 23
-0.0321168201748674
 33
0.0
 40
0.0
 40
0.0
 40
0.0
 40
0.0
 40
13.37071526372586
 40
22.62625547490367
 40
28.79956509150561
 40
32.54788154850299
 40
34.46461632034692
 40
35.02347727871687
 40
35.02347727871687
 40
35.02347727871687
 40
35.02347727871687
 10
30691.09879067507
 20
2521.007184715116
 30
0.0
 10
30686.64188558727
 20
2521.007216784563
 30
0.0
 10
30679.09978913373
 20
2521.006523265561
 30
0.0
 10
30669.4999692309
 20
2520.999426109048
 30
0.0
 10
30663.10751584071
 20
2520.995159257511
 30
0.0
 10
30659.161535389
 20
2520.976273145187
 30
0.0
 10
30657.08674013106
 20
2520.976437186759
 30
0.0
 10
30656.26175743002
 20
2520.956018381862
 30
0.0
 10
30656.07556654528
 20
2520.950035436228
 30
0.0
 11
30691.09879067507
 21
2521.007184715116
 31
0.0
 11
30677.72807564367
 21
2521.004692182815
 31
0.0
 11
30668.47253730836
 21
2520.998799447116
 31
0.0
 11
30662.29923492917
 21
2520.989346536218
 31
0.0
 11
30658.55093759587
 21
2520.977373109229
 31
0.0
 11
30656.63424813667
 21
2520.964193481217
 31
0.0
 11
30656.07556654528
 21
2520.950035436228
 31
0.0
  0
LINE
  5
540B
330
200
100
AcDbEntity
  8
11111外轮廓线
 62
     7
370
     9
100
AcDbLine
 10
30666.25232061747
 20
2508.412249053116
 30
0.0
 11
31000.89881234219
 21
2508.412249041536
 31
0.0
  0
LINE
  5
5418
330
200
100
AcDbEntity
  8
11111外轮廓线
 62
     7
370
     9
100
AcDbLine
 10
30965.49768541267
 20
2213.723635127019
 30
0.0
 11
30963.67356704977
 21
2204.723142408115
 31
0.0
  0
LINE
  5
5419
330
200
100
AcDbEntity
  8
11111外轮廓线
 62
     7
370
     9
100
AcDbLine
 10
30703.47756391556
 20
2204.723152162318
 30
0.0
 11
30701.65343275987
 21
2213.723712116116
 31
0.0
  0
CIRCLE
  5
541A
330
200
100
AcDbEntity
  8
11111外轮廓线
 62
     7
370
     9
100
AcDbCircle
 10
30756.07556652418
 20
1785.848336674455
 30
0.0
 40
8.0
  0
CIRCLE
  5
541B
330
200
100
AcDbEntity
  8
11111外轮廓线
 62
     7
370
     9
100
AcDbCircle
 10
30911.07556652417
 20
1785.848336674455
 30
0.0
 40
8.0
  0
LINE
  5
541C
330
200
100
AcDbEntity
  8
11111外轮廓线
 62
     7
370
     9
100
AcDbLine
 10
31938.31101379389
 20
2520.978901496416
 30
0.0
 11
31938.31101379389
 21
2562.218898417516
 31
0.0
  0
LINE
  5
541D
330
200
100
AcDbEntity
  8
11111外轮廓线
 62
     7
370
     9
100
AcDbLine
 10
31788.31175223499
 20
2169.218898417515
 30
0.0
 11
31323.31101379389
 21
2169.218898417515
 31
0.0
  0
LWPOLYLINE
  5
541E
330
200
100
AcDbEntity
  8
11111外轮廓线
 62
     7
370
     9
100
AcDbPolyline
 90
        7
 70
     0
 43
0.0
 10
31927.82401766158
 20
2508.780124305828
 10
31919.20870325878
 20
2448.588483809028
 10
31904.31709874629
 20
2387.773935834925
 10
31883.43200682488
 20
2328.670949485226
 10
31856.74823365988
 20
2271.952712547423
 10
31824.60447992518
 20
2218.233176443915
 10
31788.31101379389
 20
2169.218898417515
  0
LWPOLYLINE
  5
541F
330
200
100
AcDbEntity
  8
11111外轮廓线
 62
     7
370
     9
100
AcDbPolyline
 90
        6
 70
     0
 43
0.0
 10
31932.65000001078
 20
2514.108106187327
 10
31931.58699495848
 20
2513.796779410525
 10
31929.87403323788
 20
2512.758149022316
 10
31928.59800713588
 20
2511.212748634716
 10
31927.90194028849
 20
2509.332431498515
 10
31927.82401081129
 20
2508.780124949626
  0
LINE
  5
5420
330
200
100
AcDbEntity
  8
11111外轮廓线
 62
     7
370
     9
100
AcDbLine
 10
31318.31101379389
 20
2562.218898417516
 30
0.0
 11
31938.31101379389
 21
2562.218898417516
 31
0.0
  0
LINE
  5
5421
330
200
100
AcDbEntity
  8
11111外轮廓线
 62
     7
370
     9
100
AcDbLine
 10
31318.31101379389
 20
2569.218898417516
 30
0.0
 11
31931.30901540218
 21
2569.218898417516
 31
0.0
  0
LINE
  5
5422
330
200
100
AcDbEntity
  8
11111外轮廓线
 62
     7
370
     9
100
AcDbLine
 10
31318.31101379389
 20
2174.218898417516
 30
0.0
 11
31318.31101379389
 21
2569.218898417516
 31
0.0
  0
ARC
  5
5423
330
200
100
AcDbEntity
  8
11111外轮廓线
 62
     7
370
     9
100
AcDbCircle
 10
31931.31101379389
 20
2562.218898417516
 30
0.0
 40
7.0
100
AcDbArc
 50
0.0
 51
90.0
  0
ARC
  5
5424
330
200
100
AcDbEntity
  8
11111外轮廓线
 62
     7
370
     9
100
AcDbCircle
 10
31931.31101085569
 20
2520.978849684216
 30
0.0
 40
6.999999988199999
100
AcDbArc
 50
281.0277353608638
 51
359.9999996381467
  0
ARC
  5
5425
330
200
100
AcDbEntity
  8
11111外轮廓线
 62
     7
370
     9
100
AcDbCircle
 10
31323.31101379389
 20
2174.218898417516
 30
0.0
 40
5.0
100
AcDbArc
 50
180.0
 51
270.0
  0
CIRCLE
  5
5426
330
200
100
AcDbEntity
  8
11111外轮廓线
 62
     7
370
     9
100
AcDbCircle
 10
31518.31101379389
 20
2209.218898417516
 30
0.0
 40
4.5
  0
LINE
  5
5427
330
200
100
AcDbEntity
  8
11111外轮廓线
 62
     7
370
     9
100
AcDbLine
 10
31760.81036321299
 20
2520.950037051116
 30
0.0
 11
31762.27838718609
 21
2520.951638461927
 31
0.0
  0
SPLINE
  5
5428
330
200
100
AcDbEntity
  8
11111外轮廓线
 62
     7
370
     9
100
AcDbSpline
210
0.0
220
0.0
230
1.0
 70
     8
 71
     3
 72
     9
 73
     5
 74
     3
 42
0.0000000001
 43
0.0000000001
 44
0.0000000001
 12
0.9999994172129758
 22
0.0010796173901365
 32
0.0
 13
0.9999996907858825
 23
0.0007864020214202
 33
0.0
 40
0.0
 40
0.0
 40
0.0
 40
0.0
 40
12.76289839089746
 40
27.65416435863659
 40
27.65416435863659
 40
27.65416435863659
 40
27.65416435863659
 10
31762.27838718609
 20
2520.951638461927
 30
0.0
 10
31766.53268417037
 20
2520.956231477612
 30
0.0
 10
31775.75073454341
 20
2520.965294919056
 30
0.0
 10
31784.96878601728
 20
2520.973141377794
 30
0.0
 10
31789.93253980499
 20
2520.977044885014
 30
0.0
 11
31762.27838718609
 21
2520.951638461927
 31
0.0
 11
31775.0412792586
 21
2520.964338146729
 31
0.0
 11
31789.93253980499
 21
2520.977044885014
 31
0.0
  0
LINE
  5
5429
330
200
100
AcDbEntity
  8
11111外轮廓线
 62
     7
370
     9
100
AcDbLine
 10
31789.93253980499
 20
2520.977044885014
 30
0.0
 11
31790.69002819689
 21
2520.977638082718
 31
0.0
  0
LINE
  5
542A
330
200
100
AcDbEntity
  8
11111外轮廓线
 62
     7
370
     9
100
AcDbLine
 10
31790.69002819689
 20
2520.977638082718
 30
0.0
 11
31793.92532306509
 21
2520.980114888618
 31
0.0
  0
SPLINE
  5
542B
330
200
100
AcDbEntity
  8
11111外轮廓线
 62
     7
370
     9
100
AcDbSpline
210
0.0
220
0.0
230
1.0
 70
     8
 71
     3
 72
     9
 73
     5
 74
     3
 42
0.0000000001
 43
0.0000000001
 44
0.0000000001
 12
0.9999997179750241
 22
0.0007510325374829
 32
0.0
 13
0.9999998911365828
 23
0.0004666120682569
 33
0.0
 40
0.0
 40
0.0
 40
0.0
 40
0.0
 40
14.01722923099621
 40
26.46476497600645
 40
26.46476497600645
 40
26.46476497600645
 40
26.46476497600645
 10
31793.92532306509
 20
2520.980114888618
 30
0.0
 10
31798.59773149102
 20
2520.983624020364
 30
0.0
 10
31807.41931776946
 20
2520.989684292139
 30
0.0
 10
31816.24090484901
 20
2520.994436284917
 30
0.0
 10
31820.39008297899
 20
2520.996372341717
 30
0.0
 11
31793.92532306509
 21
2520.980114888618
 31
0.0
 11
31807.94254903479
 21
2520.989676723417
 31
0.0
 11
31820.39008297899
 21
2520.996372341717
 31
0.0
  0
LINE
  5
542C
330
200
100
AcDbEntity
  8
11111外轮廓线
 62
     7
370
     9
100
AcDbLine
 10
31820.39008297899
 20
2520.996372341717
 30
0.0
 11
31820.48335881678
 21
2520.996415815015
 31
0.0
  0
LINE
  5
542D
330
200
100
AcDbEntity
  8
11111外轮廓线
 62
     7
370
     9
100
AcDbLine
 10
31820.48335881678
 20
2520.996415815015
 30
0.0
 11
31824.38988201719
 21
2520.998145746718
 31
0.0
  0
SPLINE
  5
542E
330
200
100
AcDbEntity
  8
11111外轮廓线
 62
     7
370
     9
100
AcDbSpline
210
0.0
220
0.0
230
1.0
 70
     8
 71
     3
 72
    10
 73
     6
 74
     4
 42
0.0000000001
 43
0.0000000001
 44
0.0000000001
 12
0.9999999117771308
 22
0.0004200544380936
 32
0.0
 13
0.9999999838420988
 23
0.0001797659650019
 33
0.0
 40
0.0
 40
0.0
 40
0.0
 40
0.0
 40
2.340154187192977
 40
22.34859680207538
 40
25.19966167583154
 40
25.19966167583154
 40
25.19966167583154
 40
25.19966167583154
 10
31824.38988201719
 20
2520.998145746718
 30
0.0
 10
31825.1699333441
 20
2520.998473410769
 30
0.0
 10
31832.61946499671
 20
2521.001500645534
 30
0.0
 10
31841.01935197811
 20
2521.003808929278
 30
0.0
 10
31848.63918766621
 20
2521.00526461824
 30
0.0
 10
31849.58954260877
 20
2521.005435459716
 30
0.0
 11
31824.38988201719
 21
2520.998145746718
 31
0.0
 11
31826.73003601119
 21
2520.999096636726
 31
0.0
 11
31846.7384777869
 21
2521.004891579716
 31
0.0
 11
31849.58954260877
 21
2521.005435459716
 31
0.0
  0
LINE
  5
542F
330
200
100
AcDbEntity
  8
11111外轮廓线
 62
     7
370
     9
100
AcDbLine
 10
31849.58954260877
 20
2521.005435459716
 30
0.0
 11
31855.58957924079
 21
2521.006364296918
 31
0.0
  0
SPLINE
  5
5430
330
200
100
AcDbEntity
  8
11111外轮廓线
 62
     7
370
     9
100
AcDbSpline
210
0.0
220
0.0
230
1.0
 70
     8
 71
     3
 72
     9
 73
     5
 74
     3
 42
0.0000000001
 43
0.0000000001
 44
0.0000000001
 12
0.9999999917297667
 22
0.000128609744357
 32
0.0
 13
0.9999999978599706
 23
-0.0000654221587954
 33
0.0
 40
0.0
 40
0.0
 40
0.0
 40
0.0
 40
12.24728420963002
 40
18.00773982385932
 40
18.00773982385932
 40
18.00773982385932
 40
18.00773982385932
 10
31855.58957924079
 20
2521.006364296918
 30
0.0
 10
31859.6720072769
 20
2521.006889336949
 30
0.0
 10
31865.67458722436
 20
2521.007325473692
 30
0.0
 10
31871.67716716649
 20
2521.007128889599
 30
0.0
 10
31873.59731903379
 20
2521.007003269119
 30
0.0
 11
31855.58957924079
 21
2521.006364296918
 31
0.0
 11
31867.83686342259
 21
2521.007189914119
 31
0.0
 11
31873.59731903379
 21
2521.007003269119
 31
0.0
  0
SPLINE
  5
5431
330
200
100
AcDbEntity
  8
11111外轮廓线
 62
     7
370
     9
100
AcDbSpline
210
0.0
220
0.0
230
1.0
 70
     8
 71
     3
 72
    12
 73
     8
 74
     6
 42
0.0000000001
 43
0.0000000001
 44
0.0000000001
 12
0.9999999775732336
 22
-0.0002117865257191
 32
0.0
 13
0.9999999819102797
 23
0.0001902089397703
 33
0.0
 40
0.0
 40
0.0
 40
0.0
 40
0.0
 40
107.3929377109282
 40
203.8046969275163
 40
290.6912448631482
 40
369.5037632407538
 40
441.7012970129515
 40
441.7012970129515
 40
441.7012970129515
 40
441.7012970129515
 10
31318.31101379389
 20
2520.922281134918
 30
0.0
 10
31354.10865889471
 20
2520.914699675862
 30
0.0
 10
31422.04355788433
 20
2520.90632294002
 30
0.0
 10
31518.94063963579
 20
2520.912747670247
 30
0.0
 10
31606.31091362765
 20
2520.92721404313
 30
0.0
 10
31685.6097795792
 20
2520.938003987456
 30
0.0
 10
31735.94646318651
 20
2520.944923485942
 30
0.0
 10
31760.01230734189
 20
2520.949501024727
 30
0.0
 11
31318.31101379389
 21
2520.922281134918
 31
0.0
 11
31425.70395073808
 21
2520.909448251027
 31
0.0
 11
31522.11570981509
 21
2520.914636229925
 31
0.0
 11
31609.00225684069
 21
2520.927211524318
 31
0.0
 11
31687.81477443499
 21
2520.938323175124
 31
0.0
 11
31760.01230734189
 21
2520.949501024727
 31
0.0
  0
LINE
  5
5432
330
200
100
AcDbEntity
  8
11111外轮廓线
 62
     7
370
     9
100
AcDbLine
 10
31760.01230734189
 20
2520.949501024727
 30
0.0
 11
31760.81036321299
 21
2520.950037112914
 31
0.0
  0
SPLINE
  5
5433
330
200
100
AcDbEntity
  8
11111外轮廓线
 62
     7
370
     9
100
AcDbSpline
210
0.0
220
0.0
230
1.0
 70
     8
 71
     3
 72
    12
 73
     8
 74
     6
 42
0.0000000001
 43
0.0000000001
 44
0.0000000001
 12
0.999999995220252
 22
-0.0000977726755922
 32
0.0
 13
0.9999999961433212
 23
0.0000878257230458
 33
0.0
 40
0.0
 40
0.0
 40
0.0
 40
0.0
 40
107.3938349359967
 40
203.8061845955461
 40
290.6927644405902
 40
369.5049007347142
 40
441.7025998154897
 40
441.7025998154897
 40
441.7025998154897
 40
441.7025998154897
 10
31318.31101379398
 20
2514.081997992617
 30
0.0
 10
31354.10895860154
 20
2514.078497931755
 30
0.0
 10
31422.04435346984
 20
2514.07463344075
 30
0.0
 10
31518.94194164436
 20
2514.077598887451
 30
0.0
 10
31606.31229665848
 20
2514.084272127203
 30
0.0
 10
31685.61110157313
 20
2514.089256000444
 30
0.0
 10
31735.94771327071
 20
2514.092446617674
 30
0.0
 10
31760.01361287148
 20
2514.094560222715
 30
0.0
 11
31318.31101379398
 21
2514.081997992617
 31
0.0
 11
31425.70484856668
 21
2514.076075549427
 31
0.0
 11
31522.11719819649
 21
2514.078469831118
 31
0.0
 11
31609.00377784779
 21
2514.084272230324
 31
0.0
 11
31687.81591397498
 21
2514.089401924819
 31
0.0
 11
31760.01361287148
 21
2514.094560222715
 31
0.0
  0
LINE
  5
5434
330
200
100
AcDbEntity
  8
11111外轮廓线
 62
     7
370
     9
100
AcDbLine
 10
31760.01361286159
 20
2514.094561183818
 30
0.0
 11
31760.81888132638
 21
2514.094806740126
 31
0.0
  0
SPLINE
  5
5435
330
200
100
AcDbEntity
  8
11111外轮廓线
 62
     7
370
     9
100
AcDbSpline
210
0.0
220
0.0
230
1.0
 70
     8
 71
     3
 72
    11
 73
     7
 74
     5
 42
0.0000000001
 43
0.0000000001
 44
0.0000000001
 12
0.9999998628869082
 22
0.0005236660816973
 32
0.0
 13
0.9999999775971936
 23
0.0002116733629465
 33
0.0
 40
0.0
 40
0.0
 40
0.0
 40
0.0
 40
13.77849921221547
 40
28.92436487896783
 40
45.61670453408099
 40
59.57075188528998
 40
59.57075188528998
 40
59.57075188528998
 40
59.57075188528998
 10
31760.81888132638
 20
2514.094806740126
 30
0.0
 10
31765.41171376739
 20
2514.097211851024
 30
0.0
 10
31775.05316766476
 20
2514.101765988286
 30
0.0
 10
31790.25873460601
 20
2514.107918547878
 30
0.0
 10
31805.52281798473
 20
2514.113051266388
 30
0.0
 10
31815.73828000842
 20
2514.115625702316
 30
0.0
 10
31820.38962902129
 20
2514.116610269026
 30
0.0
 11
31760.81888132638
 21
2514.094806740126
 31
0.0
 11
31774.59737895989
 21
2514.101402525925
 31
0.0
 11
31789.74324338078
 21
2514.107545776627
 31
0.0
 11
31806.43558211088
 21
2514.113102869917
 31
0.0
 11
31820.38962902129
 21
2514.116610269026
 31
0.0
  0
SPLINE
  5
5436
330
200
100
AcDbEntity
  8
11111外轮廓线
 62
     7
370
     9
100
AcDbSpline
210
0.0
220
0.0
230
1.0
 70
     8
 71
     3
 72
     9
 73
     5
 74
     3
 42
0.0000000001
 43
0.0000000001
 44
0.0000000001
 12
0.9999999775971934
 22
0.000211673363417
 32
0.0
 13
0.9999999952695198
 23
0.0000972674685885
 33
0.0
 40
0.0
 40
0.0
 40
0.0
 40
0.0
 40
4.219407852493871
 40
23.20000207674802
 40
23.20000207674802
 40
23.20000207674802
 40
23.20000207674802
 10
31820.38962902129
 20
2514.116610269026
 30
0.0
 10
31821.79609827394
 20
2514.11690798111
 30
0.0
 10
31829.52943214626
 20
2514.118450593131
 30
0.0
 10
31837.26276612039
 20
2514.119466616702
 30
0.0
 10
31843.58963083189
 20
2514.120082014819
 30
0.0
 11
31820.38962902129
 21
2514.116610269026
 31
0.0
 11
31824.60903678989
 21
2514.117451675927
 31
0.0
 11
31843.58963083189
 21
2514.120082014819
 31
0.0
  0
LINE
  5
5437
330
200
100
AcDbEntity
  8
11111外轮廓线
 62
     7
370
     9
100
AcDbLine
 10
31843.58963083189
 20
2514.120082014819
 30
0.0
 11
31843.96336796528
 21
2514.120118117317
 31
0.0
  0
LINE
  5
5438
330
200
100
AcDbEntity
  8
11111外轮廓线
 62
     7
370
     9
100
AcDbLine
 10
31843.96336796528
 20
2514.120118117317
 30
0.0
 11
31849.58964180848
 21
2514.120598482616
 31
0.0
  0
SPLINE
  5
5439
330
200
100
AcDbEntity
  8
11111外轮廓线
 62
     7
370
     9
100
AcDbSpline
210
0.0
220
0.0
230
1.0
 70
     8
 71
     3
 72
     9
 73
     5
 74
     3
 42
0.0000000001
 43
0.0000000001
 44
0.0000000001
 12
0.9999999972432467
 22
0.0000742529907995
 32
0.0
 13
0.9999999995795631
 23
-0.0000289978199904
 33
0.0
 40
0.0
 40
0.0
 40
0.0
 40
0.0
 40
14.78527600395113
 40
20.0077508782785
 40
20.0077508782785
 40
20.0077508782785
 40
20.0077508782785
 10
31849.58964180848
 20
2514.120598482616
 30
0.0
 10
31854.51806712955
 20
2514.120964432937
 30
0.0
 10
31861.18731742441
 20
2514.121254847291
 30
0.0
 10
31867.85656771731
 20
2514.121159088053
 30
0.0
 10
31869.59739267469
 20
2514.121108607924
 30
0.0
 11
31849.58964180848
 21
2514.120598482616
 31
0.0
 11
31864.37491780089
 21
2514.121182767616
 31
0.0
 11
31869.59739267469
 21
2514.121108607924
 31
0.0
  0
LINE
  5
543A
330
200
100
AcDbEntity
  8
11111外轮廓线
 62
     7
370
     9
100
AcDbLine
 10
31869.59739267469
 20
2514.121108607924
 30
0.0
 11
31872.96316072327
 21
2514.120979525127
 31
0.0
  0
LINE
  5
543B
330
200
100
AcDbEntity
  8
11111外轮廓线
 62
     7
370
     9
100
AcDbLine
 10
31872.96316072327
 20
2514.120979525127
 30
0.0
 11
31873.59743485167
 21
2514.120948216016
 31
0.0
  0
SPLINE
  5
543C
330
200
100
AcDbEntity
  8
11111外轮廓线
 62
     7
370
     9
100
AcDbSpline
210
0.0
220
0.0
230
1.0
 70
     8
 71
     3
 72
     9
 73
     5
 74
     3
 42
0.0000000001
 43
0.0000000001
 44
0.0000000001
 12
0.9999999986948685
 22
-0.0000510907325195
 32
0.0
 13
0.9999999932650538
 23
-0.0001160598656665
 33
0.0
 40
0.0
 40
0.0
 40
0.0
 40
0.0
 40
10.29964047022832
 40
12.5259617714987
 40
12.5259617714987
 40
12.5259617714987
 40
12.5259617714987
 10
31873.59743485167
 20
2514.120948216016
 30
0.0
 10
31877.03064833726
 20
2514.120772810624
 30
0.0
 10
31881.20596891752
 20
2514.12044232853
 30
0.0
 10
31885.38128948256
 20
2514.119981547265
 30
0.0
 10
31886.12339657798
 20
2514.119895418415
 30
0.0
 11
31873.59743485167
 21
2514.120948216016
 31
0.0
 11
31883.89707529028
 21
2514.120141226428
 31
0.0
 11
31886.12339657798
 21
2514.119895418415
 31
0.0
  0
LINE
  5
543D
330
200
100
AcDbEntity
  8
11111外轮廓线
 62
     7
370
     9
100
AcDbLine
 10
31886.12339657798
 20
2514.119895418415
 30
0.0
 11
31889.16555251757
 21
2514.119518285424
 31
0.0
  0
LINE
  5
543E
330
200
100
AcDbEntity
  8
11111外轮廓线
 62
     7
370
     9
100
AcDbLine
 10
31889.16555251757
 20
2514.119518285424
 30
0.0
 11
31890.12353812329
 21
2514.119389368127
 31
0.0
  0
LINE
  5
543F
330
200
100
AcDbEntity
  8
11111外轮廓线
 62
     7
370
     9
100
AcDbLine
 10
31890.12353812329
 20
2514.119389368127
 30
0.0
 11
31896.65935409039
 21
2514.118372637517
 31
0.0
  0
LINE
  5
5440
330
200
100
AcDbEntity
  8
11111外轮廓线
 62
     7
370
     9
100
AcDbLine
 10
31896.65935409039
 20
2514.118372637517
 30
0.0
 11
31899.31293808029
 21
2514.117887422515
 31
0.0
  0
LINE
  5
5441
330
200
100
AcDbEntity
  8
11111外轮廓线
 62
     7
370
     9
100
AcDbLine
 10
31899.31293808029
 20
2514.117887422515
 30
0.0
 11
31900.65951038889
 21
2514.117624129718
 31
0.0
  0
LINE
  5
5442
330
200
100
AcDbEntity
  8
11111外轮廓线
 62
     7
370
     9
100
AcDbLine
 10
31900.65951038889
 20
2514.117624129718
 30
0.0
 11
31900.85939834179
 21
2514.117584038828
 31
0.0
  0
LINE
  5
5443
330
200
100
AcDbEntity
  8
11111外轮廓线
 62
     7
370
     9
100
AcDbLine
 10
31927.82401766158
 20
2508.780124305828
 30
0.0
 11
31318.31101379389
 21
2508.780124305828
 31
0.0
  0
LINE
  5
5444
330
200
100
AcDbEntity
  8
11111外轮廓线
 62
     7
370
     9
100
AcDbLine
 10
31873.59731903379
 20
2521.007003269119
 30
0.0
 11
31938.31101084389
 21
2520.978849640015
 31
0.0
  0
LINE
  5
5445
330
200
100
AcDbEntity
  8
11111外轮廓线
 62
     7
370
     9
100
AcDbLine
 10
31900.85939834179
 20
2514.117584038828
 30
0.0
 11
31932.64999992148
 21
2514.108106775584
 31
0.0
  0
ENDSEC
  0
SECTION
  2
OBJECTS
  0
DICTIONARY
  5
C
330
0
100
AcDbDictionary
281
     1
  3
ACAD_COLOR
350
31C
  3
ACAD_DETAILVIEWSTYLE
350
3E0
  3
ACAD_GROUP
350
D
  3
ACAD_LAYOUT
350
1A
  3
ACAD_MATERIAL
350
2F2
  3
ACAD_MLEADERSTYLE
350
341
  3
ACAD_MLINESTYLE
350
17
  3
ACAD_PLOTSETTINGS
350
19
  3
ACAD_PLOTSTYLENAME
350
E
  3
ACAD_SCALELIST
350
31F
  3
ACAD_SECTIONVIEWSTYLE
350
3E1
  3
ACAD_TABLESTYLE
350
31D
  3
ACAD_VISUALSTYLE
350
30B
  3
ACDB_RECOMPOSE_DATA
350
3DE
  3
ACDBHEADERROUNDTRIPXREC
350
554A
  3
AcDbVariableDictionary
350
347
  0
DICTIONARY
  5
38E
330
2
100
AcDbDictionary
280
     1
281
     1
  3
ACAD_LAYERSTATES
360
38F
  0
DICTIONARY
  5
467B
330
200
100
AcDbDictionary
280
     1
281
     1
  3
ACAD_SORTENTS
360
467C
  0
DICTIONARY
  5
31C
102
{ACAD_REACTORS
330
C
102
}
330
C
100
AcDbDictionary
281
     1
  0
DICTIONARY
  5
3E0
102
{ACAD_REACTORS
330
C
102
}
330
C
100
AcDbDictionary
281
     1
  0
DICTIONARY
  5
D
102
{ACAD_REACTORS
330
C
102
}
330
C
100
AcDbDictionary
281
     1
  0
DICTIONARY
  5
1A
102
{ACAD_REACTORS
330
C
102
}
330
C
100
AcDbDictionary
281
     1
  3
Layout1
350
2EF
  3
Model
350
2EE
  0
DICTIONARY
  5
2F2
102
{ACAD_REACTORS
330
C
102
}
330
C
100
AcDbDictionary
281
     1
  3
ByBlock
350
2FB
  3
ByLayer
350
2F3
  3
Global
350
303
  0
DICTIONARY
  5
341
102
{ACAD_REACTORS
330
C
102
}
330
C
100
AcDbDictionary
281
     1
  3
Standard
350
342
  0
DICTIONARY
  5
17
102
{ACAD_REACTORS
330
C
102
}
330
C
100
AcDbDictionary
281
     1
  3
Standard
350
18
  0
DICTIONARY
  5
19
102
{ACAD_REACTORS
330
C
102
}
330
C
100
AcDbDictionary
281
     1
  0
ACDBDICTIONARYWDFLT
  5
E
102
{ACAD_REACTORS
330
C
102
}
330
C
100
AcDbDictionary
281
     1
  3
Normal
350
F
100
AcDbDictionaryWithDefault
340
F
  0
DICTIONARY
  5
31F
102
{ACAD_REACTORS
330
C
102
}
330
C
100
AcDbDictionary
281
     1
  3
A0
350
320
  3
A1
350
321
  3
A2
350
322
  3
A3
350
323
  3
A4
350
324
  3
A5
350
325
  3
A6
350
326
  3
A7
350
327
  3
A8
350
328
  3
A9
350
329
  3
B0
350
32A
  3
B1
350
32B
  3
B2
350
32C
  3
B3
350
32D
  3
B4
350
32E
  3
B5
350
32F
  3
B6
350
330
  3
B7
350
331
  3
B8
350
332
  3
B9
350
333
  3
C0
350
334
  3
C1
350
335
  3
C2
350
336
  3
C3
350
337
  3
C4
350
338
  3
C5
350
339
  3
C6
350
33A
  3
C7
350
33B
  3
C8
350
33C
  3
C9
350
33D
  3
D0
350
33E
  3
D1
350
33F
  3
D2
350
340
  0
DICTIONARY
  5
3E1
102
{ACAD_REACTORS
330
C
102
}
330
C
100
AcDbDictionary
281
     1
  0
DICTIONARY
  5
31D
102
{ACAD_REACTORS
330
C
102
}
330
C
100
AcDbDictionary
281
     1
  3
Standard
350
31E
  0
DICTIONARY
  5
30B
102
{ACAD_REACTORS
330
C
102
}
330
C
100
AcDbDictionary
281
     1
  3
2dWireframe
350
311
  3
3D Hidden
350
313
  3
3dWireframe
350
312
  3
Basic
350
310
  3
Brighten
350
317
  3
ColorChange
350
31B
  3
Conceptual
350
314
  3
Dim
350
316
  3
EdgeColorOff
350
39F
  3
Facepattern
350
31A
  3
Flat
350
30C
  3
FlatWithEdges
350
30D
  3
Gouraud
350
30E
  3
GouraudWithEdges
350
30F
  3
Hidden
350
39C
  3
JitterOff
350
39D
  3
Linepattern
350
319
  3
OverhangOff
350
39E
  3
Realistic
350
315
  3
Shaded
350
3A4
  3
Shaded with edges
350
3A3
  3
Shades of Gray
350
3A0
  3
Sketchy
350
3A1
  3
Thicken
350
318
  3
Wireframe
350
39B
  3
X-Ray
350
3A2
  0
XRECORD
  5
3DE
102
{ACAD_REACTORS
330
C
102
}
330
C
100
AcDbXrecord
280
     1
 90
        1
330
31E
  0
DICTIONARY
  5
554A
102
{ACAD_REACTORS
330
C
102
}
330
C
100
AcDbDictionary
281
     1
  0
DICTIONARY
  5
347
102
{ACAD_REACTORS
330
C
102
}
330
C
100
AcDbDictionary
281
     1
  3
CANNOSCALE
350
34A
  3
CMLEADERSTYLE
350
349
  3
CTABLESTYLE
350
348
  3
XCLIPFRAME
350
3DF
  0
DICTIONARY
  5
38F
102
{ACAD_REACTORS
330
38E
102
}
330
38E
100
AcDbDictionary
281
     1
  0
SORTENTSTABLE
  5
467C
102
{ACAD_REACTORS
330
467B
102
}
330
467B
100
AcDbSortentsTable
330
200
331
399
  5
399
  0
LAYOUT
  5
2EF
102
{ACAD_REACTORS
330
1A
102
}
330
1A
100
AcDbPlotSettings
  1

  2
none_device
  4
ISO_A4_(297.00_x_210.00_MM)
  6

 40
0.0
 41
0.0
 42
0.0
 43
0.0
 44
297.0
 45
210.0
 46
0.0
 47
0.0
 48
0.0
 49
0.0
140
0.0
141
0.0
142
1.0
143
1.0
 70
     0
 72
     1
 73
     0
 74
     0
  7

 75
     0
147
1.0
 76
     0
 77
     2
 78
   300
148
0.0
149
0.0
100
AcDbLayout
  1
Layout1
 70
     1
 71
     1
 10
0.0
 20
0.0
 11
12.0
 21
9.0
 12
0.0
 22
0.0
 32
0.0
 14
1.000000000000000E+20
 24
1.000000000000000E+20
 34
1.000000000000000E+20
 15
-1.000000000000000E+20
 25
-1.000000000000000E+20
 35
-1.000000000000000E+20
146
0.0
 13
0.0
 23
0.0
 33
0.0
 16
1.0
 26
0.0
 36
0.0
 17
0.0
 27
1.0
 37
0.0
 76
     0
330
201
  0
LAYOUT
  5
2EE
102
{ACAD_REACTORS
330
1A
102
}
330
1A
100
AcDbPlotSettings
  1

  2
none_device
  4
ISO_A4_(297.00_x_210.00_MM)
  6

 40
0.0
 41
0.0
 42
0.0
 43
0.0
 44
297.0
 45
210.0
 46
0.0
 47
0.0
 48
0.0
 49
0.0
140
0.0
141
0.0
142
1.0
143
1.0
 70
  1024
 72
     1
 73
     0
 74
     0
  7

 75
     0
147
1.0
 76
     0
 77
     2
 78
   300
148
0.0
149
0.0
100
AcDbLayout
  1
Model
 70
     0
 71
     0
 10
0.0
 20
0.0
 11
297.0
 21
210.0
 12
0.0
 22
0.0
 32
0.0
 14
0.0
 24
0.0
 34
0.0
 15
0.0
 25
0.0
 35
0.0
146
0.0
 13
0.0
 23
0.0
 33
0.0
 16
1.0
 26
0.0
 36
0.0
 17
0.0
 27
1.0
 37
0.0
 76
     0
330
200
331
39A
  0
MATERIAL
  5
2FB
102
{ACAD_REACTORS
330
2F2
102
}
330
2F2
100
AcDbMaterial
  1
ByBlock
  2

 72
     0
 73
     2
 43
0.0008202099737533
 43
0.0
 43
0.0
 43
0.0
 43
0.0
 43
0.0008202099737533
 43
0.0
 43
0.0
 43
0.0
 43
0.0
 43
1.0
 43
0.0
 43
0.0
 43
0.0
 43
0.0
 43
1.0
 77
     0
 78
     2
 47
0.0008202099737533
 47
0.0
 47
0.0
 47
0.0
 47
0.0
 47
0.0008202099737533
 47
0.0
 47
0.0
 47
0.0
 47
0.0
 47
1.0
 47
0.0
 47
0.0
 47
0.0
 47
0.0
 47
1.0
171
     0
172
     2
 49
0.0008202099737533
 49
0.0
 49
0.0
 49
0.0
 49
0.0
 49
0.0008202099737533
 49
0.0
 49
0.0
 49
0.0
 49
0.0
 49
1.0
 49
0.0
 49
0.0
 49
0.0
 49
0.0
 49
1.0
175
     0
176
     2
142
0.0008202099737533
142
0.0
142
0.0
142
0.0
142
0.0
142
0.0008202099737533
142
0.0
142
0.0
142
0.0
142
0.0
142
1.0
142
0.0
142
0.0
142
0.0
142
0.0
142
1.0
179
     0
270
     2
144
0.0008202099737533
144
0.0
144
0.0
144
0.0
144
0.0
144
0.0008202099737533
144
0.0
144
0.0
144
0.0
144
0.0
144
1.0
144
0.0
144
0.0
144
0.0
144
0.0
144
1.0
274
     2
147
0.0008202099737533
147
0.0
147
0.0
147
0.0
147
0.0
147
0.0008202099737533
147
0.0
147
0.0
147
0.0
147
0.0
147
1.0
147
0.0
147
0.0
147
0.0
147
0.0
147
1.0
  0
MATERIAL
  5
2F3
102
{ACAD_REACTORS
330
2F2
102
}
330
2F2
100
AcDbMaterial
  1
ByLayer
  2

 72
     0
 73
     2
 43
0.0008202099737533
 43
0.0
 43
0.0
 43
0.0
 43
0.0
 43
0.0008202099737533
 43
0.0
 43
0.0
 43
0.0
 43
0.0
 43
1.0
 43
0.0
 43
0.0
 43
0.0
 43
0.0
 43
1.0
 77
     0
 78
     2
 47
0.0008202099737533
 47
0.0
 47
0.0
 47
0.0
 47
0.0
 47
0.0008202099737533
 47
0.0
 47
0.0
 47
0.0
 47
0.0
 47
1.0
 47
0.0
 47
0.0
 47
0.0
 47
0.0
 47
1.0
171
     0
172
     2
 49
0.0008202099737533
 49
0.0
 49
0.0
 49
0.0
 49
0.0
 49
0.0008202099737533
 49
0.0
 49
0.0
 49
0.0
 49
0.0
 49
1.0
 49
0.0
 49
0.0
 49
0.0
 49
0.0
 49
1.0
175
     0
176
     2
142
0.0008202099737533
142
0.0
142
0.0
142
0.0
142
0.0
142
0.0008202099737533
142
0.0
142
0.0
142
0.0
142
0.0
142
1.0
142
0.0
142
0.0
142
0.0
142
0.0
142
1.0
179
     0
270
     2
144
0.0008202099737533
144
0.0
144
0.0
144
0.0
144
0.0
144
0.0008202099737533
144
0.0
144
0.0
144
0.0
144
0.0
144
1.0
144
0.0
144
0.0
144
0.0
144
0.0
144
1.0
274
     2
147
0.0008202099737533
147
0.0
147
0.0
147
0.0
147
0.0
147
0.0008202099737533
147
0.0
147
0.0
147
0.0
147
0.0
147
1.0
147
0.0
147
0.0
147
0.0
147
0.0
147
1.0
  0
MATERIAL
  5
303
102
{ACAD_REACTORS
330
2F2
102
}
330
2F2
100
AcDbMaterial
  1
Global
  2

 72
     0
 73
     2
 43
0.0008202099737533
 43
0.0
 43
0.0
 43
0.0
 43
0.0
 43
0.0008202099737533
 43
0.0
 43
0.0
 43
0.0
 43
0.0
 43
1.0
 43
0.0
 43
0.0
 43
0.0
 43
0.0
 43
1.0
 77
     0
 78
     2
 47
0.0008202099737533
 47
0.0
 47
0.0
 47
0.0
 47
0.0
 47
0.0008202099737533
 47
0.0
 47
0.0
 47
0.0
 47
0.0
 47
1.0
 47
0.0
 47
0.0
 47
0.0
 47
0.0
 47
1.0
171
     0
172
     2
 49
0.0008202099737533
 49
0.0
 49
0.0
 49
0.0
 49
0.0
 49
0.0008202099737533
 49
0.0
 49
0.0
 49
0.0
 49
0.0
 49
1.0
 49
0.0
 49
0.0
 49
0.0
 49
0.0
 49
1.0
175
     0
176
     2
142
0.0008202099737533
142
0.0
142
0.0
142
0.0
142
0.0
142
0.0008202099737533
142
0.0
142
0.0
142
0.0
142
0.0
142
1.0
142
0.0
142
0.0
142
0.0
142
0.0
142
1.0
179
     0
270
     2
144
0.0008202099737533
144
0.0
144
0.0
144
0.0
144
0.0
144
0.0008202099737533
144
0.0
144
0.0
144
0.0
144
0.0
144
1.0
144
0.0
144
0.0
144
0.0
144
0.0
144
1.0
274
     2
147
0.0008202099737533
147
0.0
147
0.0
147
0.0
147
0.0
147
0.0008202099737533
147
0.0
147
0.0
147
0.0
147
0.0
147
1.0
147
0.0
147
0.0
147
0.0
147
0.0
147
1.0
  0
MLEADERSTYLE
  5
342
102
{ACAD_REACTORS
330
341
102
}
330
341
100
AcDbMLeaderStyle
170
     2
171
     1
172
     0
 90
        2
 40
0.0
 41
0.0
173
     1
 91
-1056964608
340
14
 92
       -2
290
     1
 42
2.0
291
     1
 43
0.36
  3
Standard
341
0
 44
4.0
300

342
11
174
     1
178
     6
175
     1
176
     0
 93
-1056964608
 45
4.0
292
     0
297
     0
 46
4.0
343
0
 94
-1056964608
 47
1.0
 49
1.0
140
1.0
293
     1
141
0.0
294
     1
177
     0
142
1.0
295
     0
296
     0
143
0.125
1001
ACAD_MLEADERVER
1070
     2
  0
MLINESTYLE
  5
18
102
{ACAD_REACTORS
330
17
102
}
330
17
100
AcDbMlineStyle
  2
STANDARD
 70
     0
  3

 62
   256
 51
90.0
 52
90.0
 71
     2
 49
0.5
 62
   256
  6
BYLAYER
 49
-0.5
 62
   256
  6
BYLAYER
  0
ACDBPLACEHOLDER
  5
F
102
{ACAD_REACTORS
330
E
102
}
330
E
  0
SCALE
  5
320
102
{ACAD_REACTORS
330
31F
102
}
330
31F
100
AcDbScale
 70
     0
300
1:1
140
1.0
141
1.0
290
     1
  0
SCALE
  5
321
102
{ACAD_REACTORS
330
31F
102
}
330
31F
100
AcDbScale
 70
     0
300
1:2
140
1.0
141
2.0
290
     0
  0
SCALE
  5
322
102
{ACAD_REACTORS
330
31F
102
}
330
31F
100
AcDbScale
 70
     0
300
1:4
140
1.0
141
4.0
290
     0
  0
SCALE
  5
323
102
{ACAD_REACTORS
330
31F
102
}
330
31F
100
AcDbScale
 70
     0
300
1:5
140
1.0
141
5.0
290
     0
  0
SCALE
  5
324
102
{ACAD_REACTORS
330
31F
102
}
330
31F
100
AcDbScale
 70
     0
300
1:8
140
1.0
141
8.0
290
     0
  0
SCALE
  5
325
102
{ACAD_REACTORS
330
31F
102
}
330
31F
100
AcDbScale
 70
     0
300
1:10
140
1.0
141
10.0
290
     0
  0
SCALE
  5
326
102
{ACAD_REACTORS
330
31F
102
}
330
31F
100
AcDbScale
 70
     0
300
1:16
140
1.0
141
16.0
290
     0
  0
SCALE
  5
327
102
{ACAD_REACTORS
330
31F
102
}
330
31F
100
AcDbScale
 70
     0
300
1:20
140
1.0
141
20.0
290
     0
  0
SCALE
  5
328
102
{ACAD_REACTORS
330
31F
102
}
330
31F
100
AcDbScale
 70
     0
300
1:30
140
1.0
141
30.0
290
     0
  0
SCALE
  5
329
102
{ACAD_REACTORS
330
31F
102
}
330
31F
100
AcDbScale
 70
     0
300
1:40
140
1.0
141
40.0
290
     0
  0
SCALE
  5
32A
102
{ACAD_REACTORS
330
31F
102
}
330
31F
100
AcDbScale
 70
     0
300
1:50
140
1.0
141
50.0
290
     0
  0
SCALE
  5
32B
102
{ACAD_REACTORS
330
31F
102
}
330
31F
100
AcDbScale
 70
     0
300
1:100
140
1.0
141
100.0
290
     0
  0
SCALE
  5
32C
102
{ACAD_REACTORS
330
31F
102
}
330
31F
100
AcDbScale
 70
     0
300
2:1
140
2.0
141
1.0
290
     0
  0
SCALE
  5
32D
102
{ACAD_REACTORS
330
31F
102
}
330
31F
100
AcDbScale
 70
     0
300
4:1
140
4.0
141
1.0
290
     0
  0
SCALE
  5
32E
102
{ACAD_REACTORS
330
31F
102
}
330
31F
100
AcDbScale
 70
     0
300
8:1
140
8.0
141
1.0
290
     0
  0
SCALE
  5
32F
102
{ACAD_REACTORS
330
31F
102
}
330
31F
100
AcDbScale
 70
     0
300
10:1
140
10.0
141
1.0
290
     0
  0
SCALE
  5
330
102
{ACAD_REACTORS
330
31F
102
}
330
31F
100
AcDbScale
 70
     0
300
100:1
140
100.0
141
1.0
290
     0
  0
SCALE
  5
331
102
{ACAD_REACTORS
330
31F
102
}
330
31F
100
AcDbScale
 70
     0
300
1/128" = 1'-0"
140
0.0078125
141
12.0
290
     0
  0
SCALE
  5
332
102
{ACAD_REACTORS
330
31F
102
}
330
31F
100
AcDbScale
 70
     0
300
1/64" = 1'-0"
140
0.015625
141
12.0
290
     0
  0
SCALE
  5
333
102
{ACAD_REACTORS
330
31F
102
}
330
31F
100
AcDbScale
 70
     0
300
1/32" = 1'-0"
140
0.03125
141
12.0
290
     0
  0
SCALE
  5
334
102
{ACAD_REACTORS
330
31F
102
}
330
31F
100
AcDbScale
 70
     0
300
1/16" = 1'-0"
140
0.0625
141
12.0
290
     0
  0
SCALE
  5
335
102
{ACAD_REACTORS
330
31F
102
}
330
31F
100
AcDbScale
 70
     0
300
3/32" = 1'-0"
140
0.09375
141
12.0
290
     0
  0
SCALE
  5
336
102
{ACAD_REACTORS
330
31F
102
}
330
31F
100
AcDbScale
 70
     0
300
1/8" = 1'-0"
140
0.125
141
12.0
290
     0
  0
SCALE
  5
337
102
{ACAD_REACTORS
330
31F
102
}
330
31F
100
AcDbScale
 70
     0
300
3/16" = 1'-0"
140
0.1875
141
12.0
290
     0
  0
SCALE
  5
338
102
{ACAD_REACTORS
330
31F
102
}
330
31F
100
AcDbScale
 70
     0
300
1/4" = 1'-0"
140
0.25
141
12.0
290
     0
  0
SCALE
  5
339
102
{ACAD_REACTORS
330
31F
102
}
330
31F
100
AcDbScale
 70
     0
300
3/8" = 1'-0"
140
0.375
141
12.0
290
     0
  0
SCALE
  5
33A
102
{ACAD_REACTORS
330
31F
102
}
330
31F
100
AcDbScale
 70
     0
300
1/2" = 1'-0"
140
0.5
141
12.0
290
     0
  0
SCALE
  5
33B
102
{ACAD_REACTORS
330
31F
102
}
330
31F
100
AcDbScale
 70
     0
300
3/4" = 1'-0"
140
0.75
141
12.0
290
     0
  0
SCALE
  5
33C
102
{ACAD_REACTORS
330
31F
102
}
330
31F
100
AcDbScale
 70
     0
300
1" = 1'-0"
140
1.0
141
12.0
290
     0
  0
SCALE
  5
33D
102
{ACAD_REACTORS
330
31F
102
}
330
31F
100
AcDbScale
 70
     0
300
1-1/2" = 1'-0"
140
1.5
141
12.0
290
     0
  0
SCALE
  5
33E
102
{ACAD_REACTORS
330
31F
102
}
330
31F
100
AcDbScale
 70
     0
300
3" = 1'-0"
140
3.0
141
12.0
290
     0
  0
SCALE
  5
33F
102
{ACAD_REACTORS
330
31F
102
}
330
31F
100
AcDbScale
 70
     0
300
6" = 1'-0"
140
6.0
141
12.0
290
     0
  0
SCALE
  5
340
102
{ACAD_REACTORS
330
31F
102
}
330
31F
100
AcDbScale
 70
     0
300
1'-0" = 1'-0"
140
12.0
141
12.0
290
     0
  0
TABLESTYLE
  5
31E
102
{ACAD_XDICTIONARY
360
3A8
102
}
102
{ACAD_REACTORS
330
31D
102
}
330
31D
100
AcDbTableStyle
  3
Standard
 70
     0
 71
     0
 40
1.5
 41
1.5
280
     0
281
     0
  7
STANDARD
140
4.5
170
     2
 62
     0
 63
   257
283
     1
274
    -2
284
     1
 64
     0
275
    -2
285
     1
 65
     0
276
    -2
286
     1
 66
     0
277
    -2
287
     1
 67
     0
278
    -2
288
     1
 68
     0
279
    -2
289
     1
 69
     0
  7
STANDARD
140
6.0
170
     5
 62
     0
 63
   257
283
     1
274
    -2
284
     1
 64
     0
275
    -2
285
     1
 65
     0
276
    -2
286
     1
 66
     0
277
    -2
287
     1
 67
     0
278
    -2
288
     1
 68
     0
279
    -2
289
     1
 69
     0
  7
STANDARD
140
4.5
170
     5
 62
     0
 63
   257
283
     1
274
    -2
284
     1
 64
     0
275
    -2
285
     1
 65
     0
276
    -2
286
     1
 66
     0
277
    -2
287
     1
 67
     0
278
    -2
288
     1
 68
     0
279
    -2
289
     1
 69
     0
  0
VISUALSTYLE
  5
311
102
{ACAD_XDICTIONARY
360
3AA
102
}
102
{ACAD_REACTORS
330
30B
102
}
330
30B
100
AcDbVisualStyle
  2
2dWireframe
 70
     4
 71
     0
 72
     2
 73
     0
 90
        0
 40
-0.6
 41
-30.0
 62
     5
 63
     7
421
 16777215
 74
     1
 91
        4
 64
     7
 65
   257
 75
     1
175
     1
 42
1.0
 92
        0
 66
   257
 43
1.0
 76
     1
 77
     6
 78
     2
 67
     7
 79
     5
170
     0
171
     0
290
     0
174
     0
 93
        1
 44
0.0
173
     0
291
     0
 45
0.0
1001
ACAD
1000
AcDbSavedByObjectVersion
1070
     0
  0
VISUALSTYLE
  5
313
102
{ACAD_XDICTIONARY
360
3AC
102
}
102
{ACAD_REACTORS
330
30B
102
}
330
30B
100
AcDbVisualStyle
  2
3D Hidden
 70
     6
 71
     1
 72
     2
 73
     2
 90
        0
 40
-0.6
 41
-30.0
 62
     5
 63
     7
421
 16777215
 74
     2
 91
        2
 64
     7
 65
   257
 75
     2
175
     1
 42
40.0
 92
        0
 66
   257
 43
1.0
 76
     1
 77
     6
 78
     2
 67
     7
 79
     3
170
     0
171
     0
290
     0
174
     0
 93
        1
 44
0.0
173
     0
291
     0
 45
0.0
1001
ACAD
1000
AcDbSavedByObjectVersion
1070
     0
  0
VISUALSTYLE
  5
312
102
{ACAD_XDICTIONARY
360
3AE
102
}
102
{ACAD_REACTORS
330
30B
102
}
330
30B
100
AcDbVisualStyle
  2
3dWireframe
 70
     5
 71
     0
 72
     2
 73
     0
 90
        0
 40
-0.6
 41
-30.0
 62
     5
 63
     7
421
 16777215
 74
     1
 91
        4
 64
     7
 65
   257
 75
     1
175
     1
 42
1.0
 92
        0
 66
   257
 43
1.0
 76
     1
 77
     6
 78
     2
 67
     7
 79
     5
170
     0
171
     0
290
     0
174
     0
 93
        1
 44
0.0
173
     0
291
     0
 45
0.0
1001
ACAD
1000
AcDbSavedByObjectVersion
1070
     0
  0
VISUALSTYLE
  5
310
102
{ACAD_XDICTIONARY
360
3B0
102
}
102
{ACAD_REACTORS
330
30B
102
}
330
30B
100
AcDbVisualStyle
  2
Basic
 70
     7
 71
     1
 72
     0
 73
     1
 90
        0
 40
-0.6
 41
-30.0
 62
     5
 63
     7
421
 16777215
 74
     0
 91
        4
 64
     7
 65
   257
 75
     1
175
     1
 42
1.0
 92
        8
 66
     7
 43
1.0
 76
     1
 77
     6
 78
     2
 67
     7
 79
     5
170
     0
171
     0
290
     0
174
     0
 93
        1
 44
0.0
173
     0
291
     1
 45
0.0
1001
ACAD
1000
AcDbSavedByObjectVersion
1070
     0
  0
VISUALSTYLE
  5
317
102
{ACAD_XDICTIONARY
360
3B2
102
}
102
{ACAD_REACTORS
330
30B
102
}
330
30B
100
AcDbVisualStyle
  2
Brighten
 70
    12
 71
     2
 72
     2
 73
     0
 90
        0
 40
-0.6
 41
-30.0
 62
     5
 63
     7
421
 16777215
 74
     1
 91
        4
 64
     7
 65
   257
 75
     1
175
     1
 42
1.0
 92
        8
 66
     7
 43
1.0
 76
     1
 77
     6
 78
     2
 67
     7
 79
     5
170
     0
171
     0
290
     0
174
     0
 93
        1
 44
50.0
173
     0
291
     1
 45
0.0
1001
ACAD
1000
AcDbSavedByObjectVersion
1070
     0
  0
VISUALSTYLE
  5
31B
102
{ACAD_XDICTIONARY
360
3B4
102
}
102
{ACAD_REACTORS
330
30B
102
}
330
30B
100
AcDbVisualStyle
  2
ColorChange
 70
    16
 71
     2
 72
     2
 73
     3
 90
        0
 40
-0.6
 41
-30.0
 62
     5
 63
     8
421
  8421504
 74
     1
 91
        4
 64
     7
 65
   257
 75
     1
175
     1
 42
1.0
 92
        8
 66
     8
424
  8421504
 43
1.0
 76
     1
 77
     6
 78
     2
 67
     7
 79
     5
170
     0
171
     0
290
     0
174
     0
 93
        1
 44
0.0
173
     0
291
     1
 45
0.0
1001
ACAD
1000
AcDbSavedByObjectVersion
1070
     0
  0
VISUALSTYLE
  5
314
102
{ACAD_XDICTIONARY
360
3B6
102
}
102
{ACAD_REACTORS
330
30B
102
}
330
30B
100
AcDbVisualStyle
  2
Conceptual
 70
     9
 71
     3
 72
     2
 73
     0
 90
        0
 40
-0.6
 41
-30.0
 62
     5
 63
     7
421
 16777215
 74
     2
 91
        2
 64
     7
 65
   257
 75
     1
175
     1
 42
40.0
 92
        8
 66
     7
 43
1.0
 76
     1
 77
     6
 78
     2
 67
     7
 79
     3
170
     0
171
     0
290
     0
174
     0
 93
        1
 44
0.0
173
     0
291
     0
 45
0.0
1001
ACAD
1000
AcDbSavedByObjectVersion
1070
     0
  0
VISUALSTYLE
  5
316
102
{ACAD_XDICTIONARY
360
3B8
102
}
102
{ACAD_REACTORS
330
30B
102
}
330
30B
100
AcDbVisualStyle
  2
Dim
 70
    11
 71
     2
 72
     2
 73
     0
 90
        0
 40
-0.6
 41
-30.0
 62
     5
 63
     7
421
 16777215
 74
     1
 91
        4
 64
     7
 65
   257
 75
     1
175
     1
 42
1.0
 92
        8
 66
     7
 43
1.0
 76
     1
 77
     6
 78
     2
 67
     7
 79
     5
170
     0
171
     0
290
     0
174
     0
 93
        1
 44
-50.0
173
     0
291
     1
 45
0.0
1001
ACAD
1000
AcDbSavedByObjectVersion
1070
     0
  0
VISUALSTYLE
  5
39F
102
{ACAD_XDICTIONARY
360
3D2
102
}
102
{ACAD_REACTORS
330
30B
102
}
330
30B
100
AcDbVisualStyle
  2
EdgeColorOff
 70
    22
 71
     2
 72
     2
 73
     0
 90
        0
 40
-0.6
 41
-30.0
 62
     5
 63
     7
421
 16777215
 74
     1
 91
        4
 64
     7
 65
   257
 75
     1
175
     1
 42
1.0
 92
        8
 66
     7
 43
1.0
 76
     1
 77
     6
 78
     2
 67
     7
 79
     5
170
     0
171
     0
290
     0
174
     0
 93
        1
 44
0.0
173
     0
291
     1
 45
0.0
1001
ACAD
1000
AcDbSavedByObjectVersion
1070
     0
  0
VISUALSTYLE
  5
31A
102
{ACAD_XDICTIONARY
360
3BA
102
}
102
{ACAD_REACTORS
330
30B
102
}
330
30B
100
AcDbVisualStyle
  2
Facepattern
 70
    15
 71
     2
 72
     2
 73
     0
 90
        0
 40
-0.6
 41
-30.0
 62
     5
 63
     7
421
 16777215
 74
     1
 91
        4
 64
     7
 65
   257
 75
     1
175
     1
 42
1.0
 92
        8
 66
     7
 43
1.0
 76
     1
 77
     6
 78
     2
 67
     7
 79
     5
170
     0
171
     0
290
     0
174
     0
 93
        1
 44
0.0
173
     0
291
     1
 45
0.0
1001
ACAD
1000
AcDbSavedByObjectVersion
1070
     0
  0
VISUALSTYLE
  5
30C
102
{ACAD_XDICTIONARY
360
3BC
102
}
102
{ACAD_REACTORS
330
30B
102
}
330
30B
100
AcDbVisualStyle
  2
Flat
 70
     0
 71
     2
 72
     1
 73
     1
 90
        2
 40
-0.6
 41
30.0
 62
     5
 63
     7
421
 16777215
 74
     0
 91
        4
 64
     7
 65
   257
 75
     1
175
     1
 42
1.0
 92
        8
 66
     7
 43
1.0
 76
     1
 77
     6
 78
     2
 67
     7
 79
     5
170
     0
171
     0
290
     0
174
     0
 93
       13
 44
0.0
173
     0
291
     1
 45
0.0
1001
ACAD
1000
AcDbSavedByObjectVersion
1070
     0
  0
VISUALSTYLE
  5
30D
102
{ACAD_XDICTIONARY
360
3BE
102
}
102
{ACAD_REACTORS
330
30B
102
}
330
30B
100
AcDbVisualStyle
  2
FlatWithEdges
 70
     1
 71
     2
 72
     1
 73
     1
 90
        2
 40
-0.6
 41
30.0
 62
     5
 63
     7
421
 16777215
 74
     1
 91
        4
 64
     7
 65
   257
 75
     1
175
     1
 42
1.0
 92
        0
 66
   257
 43
1.0
 76
     1
 77
     6
 78
     2
 67
     7
 79
     5
170
     0
171
     0
290
     0
174
     0
 93
       13
 44
0.0
173
     0
291
     1
 45
0.0
1001
ACAD
1000
AcDbSavedByObjectVersion
1070
     0
  0
VISUALSTYLE
  5
30E
102
{ACAD_XDICTIONARY
360
3C0
102
}
102
{ACAD_REACTORS
330
30B
102
}
330
30B
100
AcDbVisualStyle
  2
Gouraud
 70
     2
 71
     2
 72
     2
 73
     1
 90
        2
 40
-0.6
 41
30.0
 62
     5
 63
     7
421
 16777215
 74
     0
 91
        4
 64
     7
 65
   257
 75
     1
175
     1
 42
1.0
 92
        0
 66
     7
 43
1.0
 76
     1
 77
     6
 78
     2
 67
     7
 79
     5
170
     0
171
     0
290
     0
174
     0
 93
       13
 44
0.0
173
     0
291
     1
 45
0.0
1001
ACAD
1000
AcDbSavedByObjectVersion
1070
     0
  0
VISUALSTYLE
  5
30F
102
{ACAD_XDICTIONARY
360
3C2
102
}
102
{ACAD_REACTORS
330
30B
102
}
330
30B
100
AcDbVisualStyle
  2
GouraudWithEdges
 70
     3
 71
     2
 72
     2
 73
     1
 90
        2
 40
-0.6
 41
30.0
 62
     5
 63
     7
421
 16777215
 74
     1
 91
        4
 64
     7
 65
   257
 75
     1
175
     1
 42
1.0
 92
        0
 66
   257
 43
1.0
 76
     1
 77
     6
 78
     2
 67
     7
 79
     5
170
     0
171
     0
290
     0
174
     0
 93
       13
 44
0.0
173
     0
291
     1
 45
0.0
1001
ACAD
1000
AcDbSavedByObjectVersion
1070
     0
  0
VISUALSTYLE
  5
39C
102
{ACAD_XDICTIONARY
360
3CC
102
}
102
{ACAD_REACTORS
330
30B
102
}
330
30B
100
AcDbVisualStyle
  2
Hidden
 70
     6
 71
     1
 72
     2
 73
     2
 90
        0
 40
-0.6
 41
-30.0
 62
     5
 63
     7
421
 16777215
 74
     2
 91
        2
 64
     7
 65
   257
 75
     2
175
     1
 42
40.0
 92
        0
 66
   257
 43
1.0
 76
     1
 77
     6
 78
     2
 67
     7
 79
     3
170
     0
171
     0
290
     0
174
     0
 93
        1
 44
0.0
173
     0
291
     0
 45
0.0
1001
ACAD
1000
AcDbSavedByObjectVersion
1070
     0
  0
VISUALSTYLE
  5
39D
102
{ACAD_XDICTIONARY
360
3CE
102
}
102
{ACAD_REACTORS
330
30B
102
}
330
30B
100
AcDbVisualStyle
  2
JitterOff
 70
    20
 71
     2
 72
     2
 73
     0
 90
        0
 40
-0.6
 41
-30.0
 62
     5
 63
     7
421
 16777215
 74
     1
 91
        4
 64
     7
 65
   257
 75
     1
175
     1
 42
1.0
 92
       10
 66
     7
 43
1.0
 76
     1
 77
     6
 78
     2
 67
     7
 79
     5
170
     0
171
     0
290
     0
174
     0
 93
        1
 44
0.0
173
     0
291
     1
 45
0.0
1001
ACAD
1000
AcDbSavedByObjectVersion
1070
     0
  0
VISUALSTYLE
  5
319
102
{ACAD_XDICTIONARY
360
3C4
102
}
102
{ACAD_REACTORS
330
30B
102
}
330
30B
100
AcDbVisualStyle
  2
Linepattern
 70
    14
 71
     2
 72
     2
 73
     0
 90
        0
 40
-0.6
 41
-30.0
 62
     5
 63
     7
421
 16777215
 74
     1
 91
        4
 64
     7
 65
   257
 75
     7
175
     7
 42
1.0
 92
        8
 66
     7
 43
1.0
 76
     1
 77
     6
 78
     2
 67
     7
 79
     5
170
     0
171
     0
290
     0
174
     0
 93
        1
 44
0.0
173
     0
291
     1
 45
0.0
1001
ACAD
1000
AcDbSavedByObjectVersion
1070
     0
  0
VISUALSTYLE
  5
39E
102
{ACAD_XDICTIONARY
360
3D0
102
}
102
{ACAD_REACTORS
330
30B
102
}
330
30B
100
AcDbVisualStyle
  2
OverhangOff
 70
    21
 71
     2
 72
     2
 73
     0
 90
        0
 40
-0.6
 41
-30.0
 62
     5
 63
     7
421
 16777215
 74
     1
 91
        4
 64
     7
 65
   257
 75
     1
175
     1
 42
1.0
 92
        9
 66
     7
 43
1.0
 76
     1
 77
     6
 78
     2
 67
     7
 79
     5
170
     0
171
     0
290
     0
174
     0
 93
        1
 44
0.0
173
     0
291
     1
 45
0.0
1001
ACAD
1000
AcDbSavedByObjectVersion
1070
     0
  0
VISUALSTYLE
  5
315
102
{ACAD_XDICTIONARY
360
3C6
102
}
102
{ACAD_REACTORS
330
30B
102
}
330
30B
100
AcDbVisualStyle
  2
Realistic
 70
     8
 71
     2
 72
     2
 73
     0
 90
        0
 40
-0.6
 41
-30.0
 62
     5
 63
     7
421
 16777215
 74
     1
 91
        0
 64
     7
 65
   257
 75
     1
175
     1
 42
1.0
 92
        8
 66
     8
424
  7895160
 43
1.0
 76
     1
 77
     6
 78
     2
 67
     7
 79
     5
170
     0
171
     0
290
     0
174
     0
 93
       13
 44
0.0
173
     0
291
     0
 45
0.0
1001
ACAD
1000
AcDbSavedByObjectVersion
1070
     0
  0
VISUALSTYLE
  5
3A4
102
{ACAD_XDICTIONARY
360
3DC
102
}
102
{ACAD_REACTORS
330
30B
102
}
330
30B
100
AcDbVisualStyle
  2
Shaded
 70
    27
 71
     2
 72
     2
 73
     1
 90
        2
 40
-0.6
 41
30.0
 62
     5
 63
     7
421
 16777215
 74
     0
 91
        4
 64
     7
 65
   257
 75
     1
175
     1
 42
1.0
 92
        8
 66
   257
 43
1.0
 76
     1
 77
     6
 78
     2
 67
     8
425
  7895160
 79
     3
170
     0
171
     0
290
     0
174
     0
 93
        5
 44
0.0
173
     0
291
     0
 45
0.0
1001
ACAD
1000
AcDbSavedByObjectVersion
1070
     0
  0
VISUALSTYLE
  5
3A3
102
{ACAD_XDICTIONARY
360
3DA
102
}
102
{ACAD_REACTORS
330
30B
102
}
330
30B
100
AcDbVisualStyle
  2
Shaded with edges
 70
    26
 71
     2
 72
     2
 73
     1
 90
        2
 40
-0.6
 41
30.0
 62
     5
 63
     7
421
 16777215
 74
     1
 91
       10
 64
     7
 65
   257
 75
     2
175
     1
 42
1.0
 92
        8
 66
   257
 43
1.0
 76
     1
 77
     6
 78
     2
 67
     7
 79
     3
170
     0
171
     0
290
     0
174
     0
 93
        5
 44
0.0
173
     0
291
     0
 45
0.0
1001
ACAD
1000
AcDbSavedByObjectVersion
1070
     0
  0
VISUALSTYLE
  5
3A0
102
{ACAD_XDICTIONARY
360
3D4
102
}
102
{ACAD_REACTORS
330
30B
102
}
330
30B
100
AcDbVisualStyle
  2
Shades of Gray
 70
    23
 71
     2
 72
     2
 73
     3
 90
        0
 40
-0.6
 41
-30.0
 62
     5
 63
     7
421
 16777215
 74
     2
 91
        2
 64
     7
 65
     7
 75
     1
175
     1
 42
40.0
 92
        8
 66
     7
 43
1.0
 76
     1
 77
     6
 78
     2
 67
     7
 79
     3
170
     0
171
     0
290
     0
174
     0
 93
        1
 44
0.0
173
     0
291
     0
 45
0.0
1001
ACAD
1000
AcDbSavedByObjectVersion
1070
     0
  0
VISUALSTYLE
  5
3A1
102
{ACAD_XDICTIONARY
360
3D6
102
}
102
{ACAD_REACTORS
330
30B
102
}
330
30B
100
AcDbVisualStyle
  2
Sketchy
 70
    24
 71
     1
 72
     2
 73
     2
 90
        0
 40
-0.6
 41
-30.0
 62
     5
 63
     7
421
 16777215
 74
     2
 91
        2
 64
     7
 65
     7
 75
     1
175
     1
 42
40.0
 92
       11
 66
     7
 43
1.0
 76
     1
 77
     6
 78
     2
 67
     7
 79
     6
170
     0
171
     0
290
     0
174
     0
 93
        1
 44
0.0
173
     0
291
     0
 45
0.0
1001
ACAD
1000
AcDbSavedByObjectVersion
1070
     0
  0
VISUALSTYLE
  5
318
102
{ACAD_XDICTIONARY
360
3C8
102
}
102
{ACAD_REACTORS
330
30B
102
}
330
30B
100
AcDbVisualStyle
  2
Thicken
 70
    13
 71
     2
 72
     2
 73
     0
 90
        0
 40
-0.6
 41
-30.0
 62
     5
 63
     7
421
 16777215
 74
     1
 91
        4
 64
     7
 65
   257
 75
     1
175
     1
 42
1.0
 92
       12
 66
     7
 43
1.0
 76
     1
 77
     6
 78
     2
 67
     7
 79
     5
170
     0
171
     0
290
     0
174
     0
 93
        1
 44
0.0
173
     0
291
     1
 45
0.0
1001
ACAD
1000
AcDbSavedByObjectVersion
1070
     0
  0
VISUALSTYLE
  5
39B
102
{ACAD_XDICTIONARY
360
3CA
102
}
102
{ACAD_REACTORS
330
30B
102
}
330
30B
100
AcDbVisualStyle
  2
Wireframe
 70
     5
 71
     0
 72
     2
 73
     0
 90
        0
 40
-0.6
 41
-30.0
 62
     5
 63
     7
421
 16777215
 74
     1
 91
        4
 64
     7
 65
   257
 75
     1
175
     1
 42
1.0
 92
        0
 66
   257
 43
1.0
 76
     1
 77
     6
 78
     2
 67
     7
 79
     3
170
     0
171
     0
290
     0
174
     0
 93
        1
 44
0.0
173
     0
291
     0
 45
0.0
1001
ACAD
1000
AcDbSavedByObjectVersion
1070
     0
  0
VISUALSTYLE
  5
3A2
102
{ACAD_XDICTIONARY
360
3D8
102
}
102
{ACAD_REACTORS
330
30B
102
}
330
30B
100
AcDbVisualStyle
  2
X-Ray
 70
    25
 71
     2
 72
     2
 73
     1
 90
        1
 40
0.5
 41
-30.0
 62
     5
 63
     7
421
 16777215
 74
     1
 91
        0
 64
     7
 65
   257
 75
     1
175
     1
 42
1.0
 92
        8
 66
     7
 43
1.0
 76
     1
 77
     6
 78
     2
 67
     7
 79
     3
170
     0
171
     0
290
     0
174
     0
 93
       13
 44
0.0
173
     0
291
     0
 45
0.0
1001
ACAD
1000
AcDbSavedByObjectVersion
1070
     0
  0
DICTIONARYVAR
  5
34A
102
{ACAD_REACTORS
330
347
102
}
330
347
100
DictionaryVariables
280
     0
  1
1:1
  0
DICTIONARYVAR
  5
349
102
{ACAD_REACTORS
330
347
102
}
330
347
100
DictionaryVariables
280
     0
  1
STANDARD
  0
DICTIONARYVAR
  5
348
102
{ACAD_REACTORS
330
347
102
}
330
347
100
DictionaryVariables
280
     0
  1
STANDARD
  0
DICTIONARYVAR
  5
3DF
102
{ACAD_REACTORS
330
347
102
}
330
347
100
DictionaryVariables
280
     0
  1
0
  0
DICTIONARY
  5
3A8
330
31E
100
AcDbDictionary
280
     1
281
     1
  3
ACAD_ROUNDTRIP_2008_TABLESTYLE_CELLSTYLEMAP
360
554C
  3
ACAD_XREC_ROUNDTRIP
360
554B
  0
DICTIONARY
  5
3AA
330
311
100
AcDbDictionary
280
     1
281
     1
  3
ACAD_XREC_ROUNDTRIP
360
3AB
  0
DICTIONARY
  5
3AC
330
313
100
AcDbDictionary
280
     1
281
     1
  3
ACAD_XREC_ROUNDTRIP
360
3AD
  0
DICTIONARY
  5
3AE
330
312
100
AcDbDictionary
280
     1
281
     1
  3
ACAD_XREC_ROUNDTRIP
360
3AF
  0
DICTIONARY
  5
3B0
330
310
100
AcDbDictionary
280
     1
281
     1
  3
ACAD_XREC_ROUNDTRIP
360
3B1
  0
DICTIONARY
  5
3B2
330
317
100
AcDbDictionary
280
     1
281
     1
  3
ACAD_XREC_ROUNDTRIP
360
3B3
  0
DICTIONARY
  5
3B4
330
31B
100
AcDbDictionary
280
     1
281
     1
  3
ACAD_XREC_ROUNDTRIP
360
3B5
  0
DICTIONARY
  5
3B6
330
314
100
AcDbDictionary
280
     1
281
     1
  3
ACAD_XREC_ROUNDTRIP
360
3B7
  0
DICTIONARY
  5
3B8
330
316
100
AcDbDictionary
280
     1
281
     1
  3
ACAD_XREC_ROUNDTRIP
360
3B9
  0
DICTIONARY
  5
3D2
330
39F
100
AcDbDictionary
280
     1
281
     1
  3
ACAD_XREC_ROUNDTRIP
360
3D3
  0
DICTIONARY
  5
3BA
330
31A
100
AcDbDictionary
280
     1
281
     1
  3
ACAD_XREC_ROUNDTRIP
360
3BB
  0
DICTIONARY
  5
3BC
330
30C
100
AcDbDictionary
280
     1
281
     1
  3
ACAD_XREC_ROUNDTRIP
360
3BD
  0
DICTIONARY
  5
3BE
330
30D
100
AcDbDictionary
280
     1
281
     1
  3
ACAD_XREC_ROUNDTRIP
360
3BF
  0
DICTIONARY
  5
3C0
330
30E
100
AcDbDictionary
280
     1
281
     1
  3
ACAD_XREC_ROUNDTRIP
360
3C1
  0
DICTIONARY
  5
3C2
330
30F
100
AcDbDictionary
280
     1
281
     1
  3
ACAD_XREC_ROUNDTRIP
360
3C3
  0
DICTIONARY
  5
3CC
330
39C
100
AcDbDictionary
280
     1
281
     1
  3
ACAD_XREC_ROUNDTRIP
360
3CD
  0
DICTIONARY
  5
3CE
330
39D
100
AcDbDictionary
280
     1
281
     1
  3
ACAD_XREC_ROUNDTRIP
360
3CF
  0
DICTIONARY
  5
3C4
330
319
100
AcDbDictionary
280
     1
281
     1
  3
ACAD_XREC_ROUNDTRIP
360
3C5
  0
DICTIONARY
  5
3D0
330
39E
100
AcDbDictionary
280
     1
281
     1
  3
ACAD_XREC_ROUNDTRIP
360
3D1
  0
DICTIONARY
  5
3C6
330
315
100
AcDbDictionary
280
     1
281
     1
  3
ACAD_XREC_ROUNDTRIP
360
3C7
  0
DICTIONARY
  5
3DC
330
3A4
100
AcDbDictionary
280
     1
281
     1
  3
ACAD_XREC_ROUNDTRIP
360
3DD
  0
DICTIONARY
  5
3DA
330
3A3
100
AcDbDictionary
280
     1
281
     1
  3
ACAD_XREC_ROUNDTRIP
360
3DB
  0
DICTIONARY
  5
3D4
330
3A0
100
AcDbDictionary
280
     1
281
     1
  3
ACAD_XREC_ROUNDTRIP
360
3D5
  0
DICTIONARY
  5
3D6
330
3A1
100
AcDbDictionary
280
     1
281
     1
  3
ACAD_XREC_ROUNDTRIP
360
3D7
  0
DICTIONARY
  5
3C8
330
318
100
AcDbDictionary
280
     1
281
     1
  3
ACAD_XREC_ROUNDTRIP
360
3C9
  0
DICTIONARY
  5
3CA
330
39B
100
AcDbDictionary
280
     1
281
     1
  3
ACAD_XREC_ROUNDTRIP
360
3CB
  0
DICTIONARY
  5
3D8
330
3A2
100
AcDbDictionary
280
     1
281
     1
  3
ACAD_XREC_ROUNDTRIP
360
3D9
  0
CELLSTYLEMAP
  5
554C
102
{ACAD_REACTORS
330
3A8
102
}
330
3A8
100
AcDbCellStyleMap
 90
        3
300
CELLSTYLE
  1
TABLEFORMAT_BEGIN
 90
        5
170
     1
 91
        0
 92
        0
 62
   257
 93
        1
300
CONTENTFORMAT
  1
CONTENTFORMAT_BEGIN
 90
        0
 91
        0
 92
      512
 93
        0
300

 40
0.0
140
1.0
 94
        5
 62
     0
340
11
144
6.0
309
CONTENTFORMAT_END
171
     1
301
MARGIN
  1
CELLMARGIN_BEGIN
 40
1.5
 40
1.5
 40
1.5
 40
1.5
 40
4.5
 40
4.5
309
CELLMARGIN_END
 94
        6
 95
        1
302
GRIDFORMAT
  1
GRIDFORMAT_BEGIN
 90
        0
 91
        1
 62
     0
 92
       -2
340
0
 93
        0
 40
1.125
309
GRIDFORMAT_END
 95
        2
302
GRIDFORMAT
  1
GRIDFORMAT_BEGIN
 90
        0
 91
        1
 62
     0
 92
       -2
340
0
 93
        0
 40
1.125
309
GRIDFORMAT_END
 95
        4
302
GRIDFORMAT
  1
GRIDFORMAT_BEGIN
 90
        0
 91
        1
 62
     0
 92
       -2
340
0
 93
        0
 40
1.125
309
GRIDFORMAT_END
 95
        8
302
GRIDFORMAT
  1
GRIDFORMAT_BEGIN
 90
        0
 91
        1
 62
     0
 92
       -2
340
0
 93
        0
 40
1.125
309
GRIDFORMAT_END
 95
       16
302
GRIDFORMAT
  1
GRIDFORMAT_BEGIN
 90
        0
 91
        1
 62
     0
 92
       -2
340
0
 93
        0
 40
1.125
309
GRIDFORMAT_END
 95
       32
302
GRIDFORMAT
  1
GRIDFORMAT_BEGIN
 90
        0
 91
        1
 62
     0
 92
       -2
340
0
 93
        0
 40
1.125
309
GRIDFORMAT_END
309
TABLEFORMAT_END
  1
CELLSTYLE_BEGIN
 90
        1
 91
        1
300
_TITLE
309
CELLSTYLE_END
300
CELLSTYLE
  1
TABLEFORMAT_BEGIN
 90
        5
170
     1
 91
        0
 92
        0
 62
   257
 93
        1
300
CONTENTFORMAT
  1
CONTENTFORMAT_BEGIN
 90
        0
 91
        0
 92
      512
 93
        0
300

 40
0.0
140
1.0
 94
        5
 62
     0
340
11
144
4.5
309
CONTENTFORMAT_END
171
     1
301
MARGIN
  1
CELLMARGIN_BEGIN
 40
1.5
 40
1.5
 40
1.5
 40
1.5
 40
4.5
 40
4.5
309
CELLMARGIN_END
 94
        6
 95
        1
302
GRIDFORMAT
  1
GRIDFORMAT_BEGIN
 90
        0
 91
        1
 62
     0
 92
       -2
340
0
 93
        0
 40
1.125
309
GRIDFORMAT_END
 95
        2
302
GRIDFORMAT
  1
GRIDFORMAT_BEGIN
 90
        0
 91
        1
 62
     0
 92
       -2
340
0
 93
        0
 40
1.125
309
GRIDFORMAT_END
 95
        4
302
GRIDFORMAT
  1
GRIDFORMAT_BEGIN
 90
        0
 91
        1
 62
     0
 92
       -2
340
0
 93
        0
 40
1.125
309
GRIDFORMAT_END
 95
        8
302
GRIDFORMAT
  1
GRIDFORMAT_BEGIN
 90
        0
 91
        1
 62
     0
 92
       -2
340
0
 93
        0
 40
1.125
309
GRIDFORMAT_END
 95
       16
302
GRIDFORMAT
  1
GRIDFORMAT_BEGIN
 90
        0
 91
        1
 62
     0
 92
       -2
340
0
 93
        0
 40
1.125
309
GRIDFORMAT_END
 95
       32
302
GRIDFORMAT
  1
GRIDFORMAT_BEGIN
 90
        0
 91
        1
 62
     0
 92
       -2
340
0
 93
        0
 40
1.125
309
GRIDFORMAT_END
309
TABLEFORMAT_END
  1
CELLSTYLE_BEGIN
 90
        2
 91
        1
300
_HEADER
309
CELLSTYLE_END
300
CELLSTYLE
  1
TABLEFORMAT_BEGIN
 90
        5
170
     1
 91
        0
 92
        0
 62
   257
 93
        1
300
CONTENTFORMAT
  1
CONTENTFORMAT_BEGIN
 90
        0
 91
        0
 92
      512
 93
        0
300

 40
0.0
140
1.0
 94
        2
 62
     0
340
11
144
4.5
309
CONTENTFORMAT_END
171
     1
301
MARGIN
  1
CELLMARGIN_BEGIN
 40
1.5
 40
1.5
 40
1.5
 40
1.5
 40
4.5
 40
4.5
309
CELLMARGIN_END
 94
        6
 95
        1
302
GRIDFORMAT
  1
GRIDFORMAT_BEGIN
 90
        0
 91
        1
 62
     0
 92
       -2
340
0
 93
        0
 40
1.125
309
GRIDFORMAT_END
 95
        2
302
GRIDFORMAT
  1
GRIDFORMAT_BEGIN
 90
        0
 91
        1
 62
     0
 92
       -2
340
0
 93
        0
 40
1.125
309
GRIDFORMAT_END
 95
        4
302
GRIDFORMAT
  1
GRIDFORMAT_BEGIN
 90
        0
 91
        1
 62
     0
 92
       -2
340
0
 93
        0
 40
1.125
309
GRIDFORMAT_END
 95
        8
302
GRIDFORMAT
  1
GRIDFORMAT_BEGIN
 90
        0
 91
        1
 62
     0
 92
       -2
340
0
 93
        0
 40
1.125
309
GRIDFORMAT_END
 95
       16
302
GRIDFORMAT
  1
GRIDFORMAT_BEGIN
 90
        0
 91
        1
 62
     0
 92
       -2
340
0
 93
        0
 40
1.125
309
GRIDFORMAT_END
 95
       32
302
GRIDFORMAT
  1
GRIDFORMAT_BEGIN
 90
        0
 91
        1
 62
     0
 92
       -2
340
0
 93
        0
 40
1.125
309
GRIDFORMAT_END
309
TABLEFORMAT_END
  1
CELLSTYLE_BEGIN
 90
        3
 91
        2
300
_DATA
309
CELLSTYLE_END
  0
XRECORD
  5
554B
102
{ACAD_REACTORS
330
3A8
102
}
330
3A8
100
AcDbXrecord
280
     1
102
ACAD_ROUNDTRIP_PRE2007_TABLESTYLE
 90
      512
 91
        0
  1

 92
      512
 93
        0
  2

 94
      512
 95
        0
  3

  0
XRECORD
  5
3AB
102
{ACAD_REACTORS
330
3AA
102
}
330
3AA
100
AcDbXrecord
280
     1
102
RTVSPropertyOp0
 70
     1
102
RTVSPropertyOp1
 70
     1
102
RTVSPropertyOp2
 70
     1
102
RTVSPropertyOp3
 70
     1
102
RTVSPropertyOp4
 70
     1
102
RTVSPropertyOp5
 70
     1
102
RTVSPropertyOp6
 70
     1
102
RTVSPropertyOp7
 70
     1
102
RTVSPropertyOp8
 70
     1
102
RTVSPropertyOp9
 70
     1
102
RTVSPropertyOp10
 70
     1
102
RTVSPropertyOp11
 70
     1
102
RTVSPropertyOp12
 70
     1
102
RTVSPropertyOp13
 70
     1
102
RTVSPropertyOp14
 70
     1
102
RTVSPropertyOp15
 70
     1
102
RTVSPropertyOp16
 70
     1
102
RTVSPropertyOp17
 70
     1
102
RTVSPropertyOp18
 70
     1
102
RTVSPropertyOp19
 70
     1
102
RTVSPropertyOp20
 70
     1
102
RTVSPropertyOp21
 70
     1
102
RTVSPropertyOp22
 70
     1
102
RTVSPropertyOp23
 70
     1
102
RTVSPropertyOp24
 70
     1
102
RTVSPropertyOp25
 70
     1
102
RTVSPropertyOp26
 70
     1
102
RTVSPropertyOp27
 70
     1
  0
XRECORD
  5
3AD
102
{ACAD_REACTORS
330
3AC
102
}
330
3AC
100
AcDbXrecord
280
     1
102
RTVSPropertyOp0
 70
     1
102
RTVSPropertyOp1
 70
     1
102
RTVSPropertyOp2
 70
     1
102
RTVSPropertyOp3
 70
     1
102
RTVSPropertyOp4
 70
     1
102
RTVSPropertyOp5
 70
     1
102
RTVSPropertyOp6
 70
     1
102
RTVSPropertyOp7
 70
     1
102
RTVSPropertyOp8
 70
     1
102
RTVSPropertyOp9
 70
     1
102
RTVSPropertyOp10
 70
     1
102
RTVSPropertyOp11
 70
     1
102
RTVSPropertyOp12
 70
     1
102
RTVSPropertyOp13
 70
     1
102
RTVSPropertyOp14
 70
     1
102
RTVSPropertyOp15
 70
     1
102
RTVSPropertyOp16
 70
     1
102
RTVSPropertyOp17
 70
     1
102
RTVSPropertyOp18
 70
     1
102
RTVSPropertyOp19
 70
     1
102
RTVSPropertyOp20
 70
     1
102
RTVSPropertyOp21
 70
     1
102
RTVSPropertyOp22
 70
     1
102
RTVSPropertyOp23
 70
     1
102
RTVSPropertyOp24
 70
     1
102
RTVSPropertyOp25
 70
     1
102
RTVSPropertyOp26
 70
     1
102
RTVSPropertyOp27
 70
     1
  0
XRECORD
  5
3AF
102
{ACAD_REACTORS
330
3AE
102
}
330
3AE
100
AcDbXrecord
280
     1
102
RTVSPropertyOp0
 70
     1
102
RTVSPropertyOp1
 70
     1
102
RTVSPropertyOp2
 70
     1
102
RTVSPropertyOp3
 70
     1
102
RTVSPropertyOp4
 70
     1
102
RTVSPropertyOp5
 70
     1
102
RTVSPropertyOp6
 70
     1
102
RTVSPropertyOp7
 70
     1
102
RTVSPropertyOp8
 70
     1
102
RTVSPropertyOp9
 70
     1
102
RTVSPropertyOp10
 70
     1
102
RTVSPropertyOp11
 70
     1
102
RTVSPropertyOp12
 70
     1
102
RTVSPropertyOp13
 70
     1
102
RTVSPropertyOp14
 70
     1
102
RTVSPropertyOp15
 70
     1
102
RTVSPropertyOp16
 70
     1
102
RTVSPropertyOp17
 70
     1
102
RTVSPropertyOp18
 70
     1
102
RTVSPropertyOp19
 70
     1
102
RTVSPropertyOp20
 70
     1
102
RTVSPropertyOp21
 70
     1
102
RTVSPropertyOp22
 70
     1
102
RTVSPropertyOp23
 70
     1
102
RTVSPropertyOp24
 70
     1
102
RTVSPropertyOp25
 70
     1
102
RTVSPropertyOp26
 70
     1
102
RTVSPropertyOp27
 70
     1
  0
XRECORD
  5
3B1
102
{ACAD_REACTORS
330
3B0
102
}
330
3B0
100
AcDbXrecord
280
     1
102
RTVSPropertyOp0
 70
     1
102
RTVSPropertyOp1
 70
     1
102
RTVSPropertyOp2
 70
     1
102
RTVSPropertyOp3
 70
     1
102
RTVSPropertyOp4
 70
     1
102
RTVSPropertyOp5
 70
     1
102
RTVSPropertyOp6
 70
     1
102
RTVSPropertyOp7
 70
     1
102
RTVSPropertyOp8
 70
     1
102
RTVSPropertyOp9
 70
     1
102
RTVSPropertyOp10
 70
     1
102
RTVSPropertyOp11
 70
     1
102
RTVSPropertyOp12
 70
     1
102
RTVSPropertyOp13
 70
     1
102
RTVSPropertyOp14
 70
     1
102
RTVSPropertyOp15
 70
     1
102
RTVSPropertyOp16
 70
     1
102
RTVSPropertyOp17
 70
     1
102
RTVSPropertyOp18
 70
     1
102
RTVSPropertyOp19
 70
     1
102
RTVSPropertyOp20
 70
     1
102
RTVSPropertyOp21
 70
     1
102
RTVSPropertyOp22
 70
     1
102
RTVSPropertyOp23
 70
     1
102
RTVSPropertyOp24
 70
     1
102
RTVSPropertyOp25
 70
     1
102
RTVSPropertyOp26
 70
     1
102
RTVSPropertyOp27
 70
     1
  0
XRECORD
  5
3B3
102
{ACAD_REACTORS
330
3B2
102
}
330
3B2
100
AcDbXrecord
280
     1
102
RTVSPropertyOp0
 70
     1
102
RTVSPropertyOp1
 70
     1
102
RTVSPropertyOp2
 70
     1
102
RTVSPropertyOp3
 70
     1
102
RTVSPropertyOp4
 70
     1
102
RTVSPropertyOp5
 70
     1
102
RTVSPropertyOp6
 70
     1
102
RTVSPropertyOp7
 70
     1
102
RTVSPropertyOp8
 70
     1
102
RTVSPropertyOp9
 70
     1
102
RTVSPropertyOp10
 70
     1
102
RTVSPropertyOp11
 70
     1
102
RTVSPropertyOp12
 70
     1
102
RTVSPropertyOp13
 70
     1
102
RTVSPropertyOp14
 70
     1
102
RTVSPropertyOp15
 70
     1
102
RTVSPropertyOp16
 70
     1
102
RTVSPropertyOp17
 70
     1
102
RTVSPropertyOp18
 70
     1
102
RTVSPropertyOp19
 70
     1
102
RTVSPropertyOp20
 70
     1
102
RTVSPropertyOp21
 70
     1
102
RTVSPropertyOp22
 70
     1
102
RTVSPropertyOp23
 70
     1
102
RTVSPropertyOp24
 70
     1
102
RTVSPropertyOp25
 70
     1
102
RTVSPropertyOp26
 70
     1
102
RTVSPropertyOp27
 70
     1
  0
XRECORD
  5
3B5
102
{ACAD_REACTORS
330
3B4
102
}
330
3B4
100
AcDbXrecord
280
     1
102
RTVSPropertyOp0
 70
     1
102
RTVSPropertyOp1
 70
     1
102
RTVSPropertyOp2
 70
     1
102
RTVSPropertyOp3
 70
     1
102
RTVSPropertyOp4
 70
     1
102
RTVSPropertyOp5
 70
     1
102
RTVSPropertyOp6
 70
     1
102
RTVSPropertyOp7
 70
     1
102
RTVSPropertyOp8
 70
     1
102
RTVSPropertyOp9
 70
     1
102
RTVSPropertyOp10
 70
     1
102
RTVSPropertyOp11
 70
     1
102
RTVSPropertyOp12
 70
     1
102
RTVSPropertyOp13
 70
     1
102
RTVSPropertyOp14
 70
     1
102
RTVSPropertyOp15
 70
     1
102
RTVSPropertyOp16
 70
     1
102
RTVSPropertyOp17
 70
     1
102
RTVSPropertyOp18
 70
     1
102
RTVSPropertyOp19
 70
     1
102
RTVSPropertyOp20
 70
     1
102
RTVSPropertyOp21
 70
     1
102
RTVSPropertyOp22
 70
     1
102
RTVSPropertyOp23
 70
     1
102
RTVSPropertyOp24
 70
     1
102
RTVSPropertyOp25
 70
     1
102
RTVSPropertyOp26
 70
     1
102
RTVSPropertyOp27
 70
     1
  0
XRECORD
  5
3B7
102
{ACAD_REACTORS
330
3B6
102
}
330
3B6
100
AcDbXrecord
280
     1
102
RTVSPropertyOp0
 70
     1
102
RTVSPropertyOp1
 70
     1
102
RTVSPropertyOp2
 70
     1
102
RTVSPropertyOp3
 70
     1
102
RTVSPropertyOp4
 70
     1
102
RTVSPropertyOp5
 70
     1
102
RTVSPropertyOp6
 70
     1
102
RTVSPropertyOp7
 70
     1
102
RTVSPropertyOp8
 70
     1
102
RTVSPropertyOp9
 70
     1
102
RTVSPropertyOp10
 70
     1
102
RTVSPropertyOp11
 70
     1
102
RTVSPropertyOp12
 70
     1
102
RTVSPropertyOp13
 70
     1
102
RTVSPropertyOp14
 70
     1
102
RTVSPropertyOp15
 70
     1
102
RTVSPropertyOp16
 70
     1
102
RTVSPropertyOp17
 70
     1
102
RTVSPropertyOp18
 70
     1
102
RTVSPropertyOp19
 70
     1
102
RTVSPropertyOp20
 70
     1
102
RTVSPropertyOp21
 70
     1
102
RTVSPropertyOp22
 70
     1
102
RTVSPropertyOp23
 70
     1
102
RTVSPropertyOp24
 70
     1
102
RTVSPropertyOp25
 70
     1
102
RTVSPropertyOp26
 70
     1
102
RTVSPropertyOp27
 70
     1
  0
XRECORD
  5
3B9
102
{ACAD_REACTORS
330
3B8
102
}
330
3B8
100
AcDbXrecord
280
     1
102
RTVSPropertyOp0
 70
     1
102
RTVSPropertyOp1
 70
     1
102
RTVSPropertyOp2
 70
     1
102
RTVSPropertyOp3
 70
     1
102
RTVSPropertyOp4
 70
     1
102
RTVSPropertyOp5
 70
     1
102
RTVSPropertyOp6
 70
     1
102
RTVSPropertyOp7
 70
     1
102
RTVSPropertyOp8
 70
     1
102
RTVSPropertyOp9
 70
     1
102
RTVSPropertyOp10
 70
     1
102
RTVSPropertyOp11
 70
     1
102
RTVSPropertyOp12
 70
     1
102
RTVSPropertyOp13
 70
     1
102
RTVSPropertyOp14
 70
     1
102
RTVSPropertyOp15
 70
     1
102
RTVSPropertyOp16
 70
     1
102
RTVSPropertyOp17
 70
     1
102
RTVSPropertyOp18
 70
     1
102
RTVSPropertyOp19
 70
     1
102
RTVSPropertyOp20
 70
     1
102
RTVSPropertyOp21
 70
     1
102
RTVSPropertyOp22
 70
     1
102
RTVSPropertyOp23
 70
     1
102
RTVSPropertyOp24
 70
     1
102
RTVSPropertyOp25
 70
     1
102
RTVSPropertyOp26
 70
     1
102
RTVSPropertyOp27
 70
     1
  0
XRECORD
  5
3D3
102
{ACAD_REACTORS
330
3D2
102
}
330
3D2
100
AcDbXrecord
280
     1
102
RTVSPropertyOp0
 70
     0
102
RTVSPropertyOp1
 70
     0
102
RTVSPropertyOp2
 70
     0
102
RTVSPropertyOp3
 70
     0
102
RTVSPropertyOp4
 70
     0
102
RTVSPropertyOp5
 70
     0
102
RTVSPropertyOp6
 70
     0
102
RTVSPropertyOp7
 70
     0
102
RTVSPropertyOp8
 70
     0
102
RTVSPropertyOp9
 70
     0
102
RTVSPropertyOp10
 70
     0
102
RTVSPropertyOp11
 70
     0
102
RTVSPropertyOp12
 70
     0
102
RTVSPropertyOp13
 70
     0
102
RTVSPropertyOp14
 70
     2
102
RTVSPropertyOp15
 70
     0
102
RTVSPropertyOp16
 70
     0
102
RTVSPropertyOp17
 70
     0
102
RTVSPropertyOp18
 70
     0
102
RTVSPropertyOp19
 70
     0
102
RTVSPropertyOp20
 70
     0
102
RTVSPropertyOp21
 70
     0
102
RTVSPropertyOp22
 70
     0
102
RTVSPropertyOp23
 70
     0
102
RTVSPropertyOp24
 70
     0
102
RTVSPropertyOp25
 70
     0
102
RTVSPropertyOp26
 70
     0
102
RTVSPropertyOp27
 70
     0
  0
XRECORD
  5
3BB
102
{ACAD_REACTORS
330
3BA
102
}
330
3BA
100
AcDbXrecord
280
     1
102
RTVSPropertyOp0
 70
     1
102
RTVSPropertyOp1
 70
     1
102
RTVSPropertyOp2
 70
     1
102
RTVSPropertyOp3
 70
     1
102
RTVSPropertyOp4
 70
     1
102
RTVSPropertyOp5
 70
     1
102
RTVSPropertyOp6
 70
     1
102
RTVSPropertyOp7
 70
     1
102
RTVSPropertyOp8
 70
     1
102
RTVSPropertyOp9
 70
     1
102
RTVSPropertyOp10
 70
     1
102
RTVSPropertyOp11
 70
     1
102
RTVSPropertyOp12
 70
     1
102
RTVSPropertyOp13
 70
     1
102
RTVSPropertyOp14
 70
     1
102
RTVSPropertyOp15
 70
     1
102
RTVSPropertyOp16
 70
     1
102
RTVSPropertyOp17
 70
     1
102
RTVSPropertyOp18
 70
     1
102
RTVSPropertyOp19
 70
     1
102
RTVSPropertyOp20
 70
     1
102
RTVSPropertyOp21
 70
     1
102
RTVSPropertyOp22
 70
     1
102
RTVSPropertyOp23
 70
     1
102
RTVSPropertyOp24
 70
     1
102
RTVSPropertyOp25
 70
     1
102
RTVSPropertyOp26
 70
     1
102
RTVSPropertyOp27
 70
     1
  0
XRECORD
  5
3BD
102
{ACAD_REACTORS
330
3BC
102
}
330
3BC
100
AcDbXrecord
280
     1
102
RTVSPropertyOp0
 70
     1
102
RTVSPropertyOp1
 70
     1
102
RTVSPropertyOp2
 70
     1
102
RTVSPropertyOp3
 70
     1
102
RTVSPropertyOp4
 70
     1
102
RTVSPropertyOp5
 70
     1
102
RTVSPropertyOp6
 70
     1
102
RTVSPropertyOp7
 70
     1
102
RTVSPropertyOp8
 70
     1
102
RTVSPropertyOp9
 70
     1
102
RTVSPropertyOp10
 70
     1
102
RTVSPropertyOp11
 70
     1
102
RTVSPropertyOp12
 70
     1
102
RTVSPropertyOp13
 70
     1
102
RTVSPropertyOp14
 70
     1
102
RTVSPropertyOp15
 70
     1
102
RTVSPropertyOp16
 70
     1
102
RTVSPropertyOp17
 70
     1
102
RTVSPropertyOp18
 70
     1
102
RTVSPropertyOp19
 70
     1
102
RTVSPropertyOp20
 70
     1
102
RTVSPropertyOp21
 70
     1
102
RTVSPropertyOp22
 70
     1
102
RTVSPropertyOp23
 70
     1
102
RTVSPropertyOp24
 70
     1
102
RTVSPropertyOp25
 70
     1
102
RTVSPropertyOp26
 70
     1
102
RTVSPropertyOp27
 70
     1
  0
XRECORD
  5
3BF
102
{ACAD_REACTORS
330
3BE
102
}
330
3BE
100
AcDbXrecord
280
     1
102
RTVSPropertyOp0
 70
     1
102
RTVSPropertyOp1
 70
     1
102
RTVSPropertyOp2
 70
     1
102
RTVSPropertyOp3
 70
     1
102
RTVSPropertyOp4
 70
     1
102
RTVSPropertyOp5
 70
     1
102
RTVSPropertyOp6
 70
     1
102
RTVSPropertyOp7
 70
     1
102
RTVSPropertyOp8
 70
     1
102
RTVSPropertyOp9
 70
     1
102
RTVSPropertyOp10
 70
     1
102
RTVSPropertyOp11
 70
     1
102
RTVSPropertyOp12
 70
     1
102
RTVSPropertyOp13
 70
     1
102
RTVSPropertyOp14
 70
     1
102
RTVSPropertyOp15
 70
     1
102
RTVSPropertyOp16
 70
     1
102
RTVSPropertyOp17
 70
     1
102
RTVSPropertyOp18
 70
     1
102
RTVSPropertyOp19
 70
     1
102
RTVSPropertyOp20
 70
     1
102
RTVSPropertyOp21
 70
     1
102
RTVSPropertyOp22
 70
     1
102
RTVSPropertyOp23
 70
     1
102
RTVSPropertyOp24
 70
     1
102
RTVSPropertyOp25
 70
     1
102
RTVSPropertyOp26
 70
     1
102
RTVSPropertyOp27
 70
     1
  0
XRECORD
  5
3C1
102
{ACAD_REACTORS
330
3C0
102
}
330
3C0
100
AcDbXrecord
280
     1
102
RTVSPropertyOp0
 70
     1
102
RTVSPropertyOp1
 70
     1
102
RTVSPropertyOp2
 70
     1
102
RTVSPropertyOp3
 70
     1
102
RTVSPropertyOp4
 70
     1
102
RTVSPropertyOp5
 70
     1
102
RTVSPropertyOp6
 70
     1
102
RTVSPropertyOp7
 70
     1
102
RTVSPropertyOp8
 70
     1
102
RTVSPropertyOp9
 70
     1
102
RTVSPropertyOp10
 70
     1
102
RTVSPropertyOp11
 70
     1
102
RTVSPropertyOp12
 70
     1
102
RTVSPropertyOp13
 70
     1
102
RTVSPropertyOp14
 70
     1
102
RTVSPropertyOp15
 70
     1
102
RTVSPropertyOp16
 70
     1
102
RTVSPropertyOp17
 70
     1
102
RTVSPropertyOp18
 70
     1
102
RTVSPropertyOp19
 70
     1
102
RTVSPropertyOp20
 70
     1
102
RTVSPropertyOp21
 70
     1
102
RTVSPropertyOp22
 70
     1
102
RTVSPropertyOp23
 70
     1
102
RTVSPropertyOp24
 70
     1
102
RTVSPropertyOp25
 70
     1
102
RTVSPropertyOp26
 70
     1
102
RTVSPropertyOp27
 70
     1
  0
XRECORD
  5
3C3
102
{ACAD_REACTORS
330
3C2
102
}
330
3C2
100
AcDbXrecord
280
     1
102
RTVSPropertyOp0
 70
     1
102
RTVSPropertyOp1
 70
     1
102
RTVSPropertyOp2
 70
     1
102
RTVSPropertyOp3
 70
     1
102
RTVSPropertyOp4
 70
     1
102
RTVSPropertyOp5
 70
     1
102
RTVSPropertyOp6
 70
     1
102
RTVSPropertyOp7
 70
     1
102
RTVSPropertyOp8
 70
     1
102
RTVSPropertyOp9
 70
     1
102
RTVSPropertyOp10
 70
     1
102
RTVSPropertyOp11
 70
     1
102
RTVSPropertyOp12
 70
     1
102
RTVSPropertyOp13
 70
     1
102
RTVSPropertyOp14
 70
     1
102
RTVSPropertyOp15
 70
     1
102
RTVSPropertyOp16
 70
     1
102
RTVSPropertyOp17
 70
     1
102
RTVSPropertyOp18
 70
     1
102
RTVSPropertyOp19
 70
     1
102
RTVSPropertyOp20
 70
     1
102
RTVSPropertyOp21
 70
     1
102
RTVSPropertyOp22
 70
     1
102
RTVSPropertyOp23
 70
     1
102
RTVSPropertyOp24
 70
     1
102
RTVSPropertyOp25
 70
     1
102
RTVSPropertyOp26
 70
     1
102
RTVSPropertyOp27
 70
     1
  0
XRECORD
  5
3CD
102
{ACAD_REACTORS
330
3CC
102
}
330
3CC
100
AcDbXrecord
280
     1
102
RTVSPropertyOp0
 70
     1
102
RTVSPropertyOp1
 70
     1
102
RTVSPropertyOp2
 70
     1
102
RTVSPropertyOp3
 70
     1
102
RTVSPropertyOp4
 70
     1
102
RTVSPropertyOp5
 70
     1
102
RTVSPropertyOp6
 70
     1
102
RTVSPropertyOp7
 70
     1
102
RTVSPropertyOp8
 70
     1
102
RTVSPropertyOp9
 70
     1
102
RTVSPropertyOp10
 70
     1
102
RTVSPropertyOp11
 70
     1
102
RTVSPropertyOp12
 70
     1
102
RTVSPropertyOp13
 70
     1
102
RTVSPropertyOp14
 70
     1
102
RTVSPropertyOp15
 70
     1
102
RTVSPropertyOp16
 70
     1
102
RTVSPropertyOp17
 70
     1
102
RTVSPropertyOp18
 70
     1
102
RTVSPropertyOp19
 70
     1
102
RTVSPropertyOp20
 70
     1
102
RTVSPropertyOp21
 70
     1
102
RTVSPropertyOp22
 70
     1
102
RTVSPropertyOp23
 70
     1
102
RTVSPropertyOp24
 70
     1
102
RTVSPropertyOp25
 70
     1
102
RTVSPropertyOp26
 70
     1
102
RTVSPropertyOp27
 70
     1
  0
XRECORD
  5
3CF
102
{ACAD_REACTORS
330
3CE
102
}
330
3CE
100
AcDbXrecord
280
     1
102
RTVSPropertyOp0
 70
     0
102
RTVSPropertyOp1
 70
     0
102
RTVSPropertyOp2
 70
     0
102
RTVSPropertyOp3
 70
     0
102
RTVSPropertyOp4
 70
     0
102
RTVSPropertyOp5
 70
     0
102
RTVSPropertyOp6
 70
     0
102
RTVSPropertyOp7
 70
     0
102
RTVSPropertyOp8
 70
     0
102
RTVSPropertyOp9
 70
     0
102
RTVSPropertyOp10
 70
     0
102
RTVSPropertyOp11
 70
     0
102
RTVSPropertyOp12
 70
     0
102
RTVSPropertyOp13
 70
     0
102
RTVSPropertyOp14
 70
     2
102
RTVSPropertyOp15
 70
     0
102
RTVSPropertyOp16
 70
     0
102
RTVSPropertyOp17
 70
     0
102
RTVSPropertyOp18
 70
     0
102
RTVSPropertyOp19
 70
     0
102
RTVSPropertyOp20
 70
     0
102
RTVSPropertyOp21
 70
     0
102
RTVSPropertyOp22
 70
     0
102
RTVSPropertyOp23
 70
     0
102
RTVSPropertyOp24
 70
     0
102
RTVSPropertyOp25
 70
     0
102
RTVSPropertyOp26
 70
     0
102
RTVSPropertyOp27
 70
     0
  0
XRECORD
  5
3C5
102
{ACAD_REACTORS
330
3C4
102
}
330
3C4
100
AcDbXrecord
280
     1
102
RTVSPropertyOp0
 70
     1
102
RTVSPropertyOp1
 70
     1
102
RTVSPropertyOp2
 70
     1
102
RTVSPropertyOp3
 70
     1
102
RTVSPropertyOp4
 70
     1
102
RTVSPropertyOp5
 70
     1
102
RTVSPropertyOp6
 70
     1
102
RTVSPropertyOp7
 70
     1
102
RTVSPropertyOp8
 70
     1
102
RTVSPropertyOp9
 70
     1
102
RTVSPropertyOp10
 70
     1
102
RTVSPropertyOp11
 70
     1
102
RTVSPropertyOp12
 70
     1
102
RTVSPropertyOp13
 70
     1
102
RTVSPropertyOp14
 70
     1
102
RTVSPropertyOp15
 70
     1
102
RTVSPropertyOp16
 70
     1
102
RTVSPropertyOp17
 70
     1
102
RTVSPropertyOp18
 70
     1
102
RTVSPropertyOp19
 70
     1
102
RTVSPropertyOp20
 70
     1
102
RTVSPropertyOp21
 70
     1
102
RTVSPropertyOp22
 70
     1
102
RTVSPropertyOp23
 70
     1
102
RTVSPropertyOp24
 70
     1
102
RTVSPropertyOp25
 70
     1
102
RTVSPropertyOp26
 70
     1
102
RTVSPropertyOp27
 70
     1
  0
XRECORD
  5
3D1
102
{ACAD_REACTORS
330
3D0
102
}
330
3D0
100
AcDbXrecord
280
     1
102
RTVSPropertyOp0
 70
     0
102
RTVSPropertyOp1
 70
     0
102
RTVSPropertyOp2
 70
     0
102
RTVSPropertyOp3
 70
     0
102
RTVSPropertyOp4
 70
     0
102
RTVSPropertyOp5
 70
     0
102
RTVSPropertyOp6
 70
     0
102
RTVSPropertyOp7
 70
     0
102
RTVSPropertyOp8
 70
     0
102
RTVSPropertyOp9
 70
     0
102
RTVSPropertyOp10
 70
     0
102
RTVSPropertyOp11
 70
     0
102
RTVSPropertyOp12
 70
     0
102
RTVSPropertyOp13
 70
     0
102
RTVSPropertyOp14
 70
     2
102
RTVSPropertyOp15
 70
     0
102
RTVSPropertyOp16
 70
     0
102
RTVSPropertyOp17
 70
     0
102
RTVSPropertyOp18
 70
     0
102
RTVSPropertyOp19
 70
     0
102
RTVSPropertyOp20
 70
     0
102
RTVSPropertyOp21
 70
     0
102
RTVSPropertyOp22
 70
     0
102
RTVSPropertyOp23
 70
     0
102
RTVSPropertyOp24
 70
     0
102
RTVSPropertyOp25
 70
     0
102
RTVSPropertyOp26
 70
     0
102
RTVSPropertyOp27
 70
     0
  0
XRECORD
  5
3C7
102
{ACAD_REACTORS
330
3C6
102
}
330
3C6
100
AcDbXrecord
280
     1
102
RTVSPropertyOp0
 70
     1
102
RTVSPropertyOp1
 70
     1
102
RTVSPropertyOp2
 70
     1
102
RTVSPropertyOp3
 70
     1
102
RTVSPropertyOp4
 70
     1
102
RTVSPropertyOp5
 70
     1
102
RTVSPropertyOp6
 70
     1
102
RTVSPropertyOp7
 70
     1
102
RTVSPropertyOp8
 70
     1
102
RTVSPropertyOp9
 70
     1
102
RTVSPropertyOp10
 70
     1
102
RTVSPropertyOp11
 70
     1
102
RTVSPropertyOp12
 70
     1
102
RTVSPropertyOp13
 70
     1
102
RTVSPropertyOp14
 70
     1
102
RTVSPropertyOp15
 70
     1
102
RTVSPropertyOp16
 70
     1
102
RTVSPropertyOp17
 70
     1
102
RTVSPropertyOp18
 70
     1
102
RTVSPropertyOp19
 70
     1
102
RTVSPropertyOp20
 70
     1
102
RTVSPropertyOp21
 70
     1
102
RTVSPropertyOp22
 70
     1
102
RTVSPropertyOp23
 70
     1
102
RTVSPropertyOp24
 70
     1
102
RTVSPropertyOp25
 70
     1
102
RTVSPropertyOp26
 70
     1
102
RTVSPropertyOp27
 70
     1
  0
XRECORD
  5
3DD
102
{ACAD_REACTORS
330
3DC
102
}
330
3DC
100
AcDbXrecord
280
     1
102
RTVSPropertyOp0
 70
     1
102
RTVSPropertyOp1
 70
     1
102
RTVSPropertyOp2
 70
     1
102
RTVSPropertyOp3
 70
     1
102
RTVSPropertyOp4
 70
     1
102
RTVSPropertyOp5
 70
     1
102
RTVSPropertyOp6
 70
     1
102
RTVSPropertyOp7
 70
     1
102
RTVSPropertyOp8
 70
     1
102
RTVSPropertyOp9
 70
     1
102
RTVSPropertyOp10
 70
     1
102
RTVSPropertyOp11
 70
     1
102
RTVSPropertyOp12
 70
     1
102
RTVSPropertyOp13
 70
     1
102
RTVSPropertyOp14
 70
     1
102
RTVSPropertyOp15
 70
     1
102
RTVSPropertyOp16
 70
     1
102
RTVSPropertyOp17
 70
     1
102
RTVSPropertyOp18
 70
     1
102
RTVSPropertyOp19
 70
     1
102
RTVSPropertyOp20
 70
     1
102
RTVSPropertyOp21
 70
     1
102
RTVSPropertyOp22
 70
     1
102
RTVSPropertyOp23
 70
     1
102
RTVSPropertyOp24
 70
     1
102
RTVSPropertyOp25
 70
     1
102
RTVSPropertyOp26
 70
     1
102
RTVSPropertyOp27
 70
     1
  0
XRECORD
  5
3DB
102
{ACAD_REACTORS
330
3DA
102
}
330
3DA
100
AcDbXrecord
280
     1
102
RTVSPropertyOp0
 70
     1
102
RTVSPropertyOp1
 70
     1
102
RTVSPropertyOp2
 70
     1
102
RTVSPropertyOp3
 70
     1
102
RTVSPropertyOp4
 70
     1
102
RTVSPropertyOp5
 70
     1
102
RTVSPropertyOp6
 70
     1
102
RTVSPropertyOp7
 70
     1
102
RTVSPropertyOp8
 70
     1
102
RTVSPropertyOp9
 70
     1
102
RTVSPropertyOp10
 70
     1
102
RTVSPropertyOp11
 70
     1
102
RTVSPropertyOp12
 70
     1
102
RTVSPropertyOp13
 70
     1
102
RTVSPropertyOp14
 70
     1
102
RTVSPropertyOp15
 70
     1
102
RTVSPropertyOp16
 70
     1
102
RTVSPropertyOp17
 70
     1
102
RTVSPropertyOp18
 70
     1
102
RTVSPropertyOp19
 70
     1
102
RTVSPropertyOp20
 70
     1
102
RTVSPropertyOp21
 70
     1
102
RTVSPropertyOp22
 70
     1
102
RTVSPropertyOp23
 70
     1
102
RTVSPropertyOp24
 70
     1
102
RTVSPropertyOp25
 70
     1
102
RTVSPropertyOp26
 70
     1
102
RTVSPropertyOp27
 70
     1
  0
XRECORD
  5
3D5
102
{ACAD_REACTORS
330
3D4
102
}
330
3D4
100
AcDbXrecord
280
     1
102
RTVSPropertyOp0
 70
     1
102
RTVSPropertyOp1
 70
     1
102
RTVSPropertyOp2
 70
     1
102
RTVSPropertyOp3
 70
     1
102
RTVSPropertyOp4
 70
     1
102
RTVSPropertyOp5
 70
     1
102
RTVSPropertyOp6
 70
     1
102
RTVSPropertyOp7
 70
     1
102
RTVSPropertyOp8
 70
     1
102
RTVSPropertyOp9
 70
     1
102
RTVSPropertyOp10
 70
     1
102
RTVSPropertyOp11
 70
     1
102
RTVSPropertyOp12
 70
     1
102
RTVSPropertyOp13
 70
     1
102
RTVSPropertyOp14
 70
     1
102
RTVSPropertyOp15
 70
     1
102
RTVSPropertyOp16
 70
     1
102
RTVSPropertyOp17
 70
     1
102
RTVSPropertyOp18
 70
     1
102
RTVSPropertyOp19
 70
     1
102
RTVSPropertyOp20
 70
     1
102
RTVSPropertyOp21
 70
     1
102
RTVSPropertyOp22
 70
     1
102
RTVSPropertyOp23
 70
     1
102
RTVSPropertyOp24
 70
     1
102
RTVSPropertyOp25
 70
     1
102
RTVSPropertyOp26
 70
     1
102
RTVSPropertyOp27
 70
     1
  0
XRECORD
  5
3D7
102
{ACAD_REACTORS
330
3D6
102
}
330
3D6
100
AcDbXrecord
280
     1
102
RTVSPropertyOp0
 70
     1
102
RTVSPropertyOp1
 70
     1
102
RTVSPropertyOp2
 70
     1
102
RTVSPropertyOp3
 70
     1
102
RTVSPropertyOp4
 70
     1
102
RTVSPropertyOp5
 70
     1
102
RTVSPropertyOp6
 70
     1
102
RTVSPropertyOp7
 70
     1
102
RTVSPropertyOp8
 70
     1
102
RTVSPropertyOp9
 70
     1
102
RTVSPropertyOp10
 70
     1
102
RTVSPropertyOp11
 70
     1
102
RTVSPropertyOp12
 70
     1
102
RTVSPropertyOp13
 70
     1
102
RTVSPropertyOp14
 70
     1
102
RTVSPropertyOp15
 70
     1
102
RTVSPropertyOp16
 70
     1
102
RTVSPropertyOp17
 70
     1
102
RTVSPropertyOp18
 70
     1
102
RTVSPropertyOp19
 70
     1
102
RTVSPropertyOp20
 70
     1
102
RTVSPropertyOp21
 70
     1
102
RTVSPropertyOp22
 70
     1
102
RTVSPropertyOp23
 70
     1
102
RTVSPropertyOp24
 70
     1
102
RTVSPropertyOp25
 70
     1
102
RTVSPropertyOp26
 70
     1
102
RTVSPropertyOp27
 70
     1
  0
XRECORD
  5
3C9
102
{ACAD_REACTORS
330
3C8
102
}
330
3C8
100
AcDbXrecord
280
     1
102
RTVSPropertyOp0
 70
     1
102
RTVSPropertyOp1
 70
     1
102
RTVSPropertyOp2
 70
     1
102
RTVSPropertyOp3
 70
     1
102
RTVSPropertyOp4
 70
     1
102
RTVSPropertyOp5
 70
     1
102
RTVSPropertyOp6
 70
     1
102
RTVSPropertyOp7
 70
     1
102
RTVSPropertyOp8
 70
     1
102
RTVSPropertyOp9
 70
     1
102
RTVSPropertyOp10
 70
     1
102
RTVSPropertyOp11
 70
     1
102
RTVSPropertyOp12
 70
     1
102
RTVSPropertyOp13
 70
     1
102
RTVSPropertyOp14
 70
     1
102
RTVSPropertyOp15
 70
     1
102
RTVSPropertyOp16
 70
     1
102
RTVSPropertyOp17
 70
     1
102
RTVSPropertyOp18
 70
     1
102
RTVSPropertyOp19
 70
     1
102
RTVSPropertyOp20
 70
     1
102
RTVSPropertyOp21
 70
     1
102
RTVSPropertyOp22
 70
     1
102
RTVSPropertyOp23
 70
     1
102
RTVSPropertyOp24
 70
     1
102
RTVSPropertyOp25
 70
     1
102
RTVSPropertyOp26
 70
     1
102
RTVSPropertyOp27
 70
     1
  0
XRECORD
  5
3CB
102
{ACAD_REACTORS
330
3CA
102
}
330
3CA
100
AcDbXrecord
280
     1
102
RTVSPropertyOp0
 70
     1
102
RTVSPropertyOp1
 70
     1
102
RTVSPropertyOp2
 70
     1
102
RTVSPropertyOp3
 70
     1
102
RTVSPropertyOp4
 70
     1
102
RTVSPropertyOp5
 70
     1
102
RTVSPropertyOp6
 70
     1
102
RTVSPropertyOp7
 70
     1
102
RTVSPropertyOp8
 70
     1
102
RTVSPropertyOp9
 70
     1
102
RTVSPropertyOp10
 70
     1
102
RTVSPropertyOp11
 70
     1
102
RTVSPropertyOp12
 70
     1
102
RTVSPropertyOp13
 70
     1
102
RTVSPropertyOp14
 70
     1
102
RTVSPropertyOp15
 70
     1
102
RTVSPropertyOp16
 70
     1
102
RTVSPropertyOp17
 70
     1
102
RTVSPropertyOp18
 70
     1
102
RTVSPropertyOp19
 70
     1
102
RTVSPropertyOp20
 70
     1
102
RTVSPropertyOp21
 70
     1
102
RTVSPropertyOp22
 70
     1
102
RTVSPropertyOp23
 70
     1
102
RTVSPropertyOp24
 70
     1
102
RTVSPropertyOp25
 70
     1
102
RTVSPropertyOp26
 70
     1
102
RTVSPropertyOp27
 70
     1
  0
XRECORD
  5
3D9
102
{ACAD_REACTORS
330
3D8
102
}
330
3D8
100
AcDbXrecord
280
     1
102
RTVSPropertyOp0
 70
     1
102
RTVSPropertyOp1
 70
     1
102
RTVSPropertyOp2
 70
     1
102
RTVSPropertyOp3
 70
     1
102
RTVSPropertyOp4
 70
     1
102
RTVSPropertyOp5
 70
     1
102
RTVSPropertyOp6
 70
     1
102
RTVSPropertyOp7
 70
     1
102
RTVSPropertyOp8
 70
     1
102
RTVSPropertyOp9
 70
     1
102
RTVSPropertyOp10
 70
     1
102
RTVSPropertyOp11
 70
     1
102
RTVSPropertyOp12
 70
     1
102
RTVSPropertyOp13
 70
     1
102
RTVSPropertyOp14
 70
     1
102
RTVSPropertyOp15
 70
     1
102
RTVSPropertyOp16
 70
     1
102
RTVSPropertyOp17
 70
     1
102
RTVSPropertyOp18
 70
     1
102
RTVSPropertyOp19
 70
     1
102
RTVSPropertyOp20
 70
     1
102
RTVSPropertyOp21
 70
     1
102
RTVSPropertyOp22
 70
     1
102
RTVSPropertyOp23
 70
     1
102
RTVSPropertyOp24
 70
     1
102
RTVSPropertyOp25
 70
     1
102
RTVSPropertyOp26
 70
     1
102
RTVSPropertyOp27
 70
     1
  0
ENDSEC
  0
EOF
