999
The file was created in CADSoftTools software
999

  0
SECTION
  2
HEADER
  9
$ACADVER
  1
AC1018
  9
$DWGCODEPAGE
  3
ANSI_1252
  9
$CLAYER
  8
0
  9
$CELTYPE
  6
BYLAYER
  9
$CELTSCALE
 40
1
  9
$CELWEIGHT
370
-1
  9
$DIMALT
 70
0
  9
$DIMALTF
 40
1
  9
$DIMPOST
  1

  9
$DIMAPOST
  1

  9
$DIMSCALE
 40
1
  9
$DIMASZ
 40
0.18
  9
$DIMCLRD
 70
0
  9
$DIMCLRE
 70
0
  9
$DIMCLRT
 70
0
  9
$DIMEXE
 40
0.18
  9
$DIMEXO
 40
0.0625
  9
$DIMGAP
 40
0.0625
  9
$DIMLFAC
 40
1
  9
$DIMDEC
 70
4
  9
$DIMTAD
 70
0
  9
$DIMCEN
 40
0.09
  9
$DIMTIH
 70
1
  9
$DIMTIX
 70
0
  9
$DIMTOH
 70
1
  9
$DIMSE1
 70
0
  9
$DIMSE2
 70
0
  9
$DIMSD1
 70
0
  9
$DIMSD2
 70
0
  9
$DIMLWD
 70
-1
  9
$DIMLWE
 70
-1
  9
$DIMSAH
 70
0
  9
$DIMBLK
  1

  9
$DIMBLK1
  1

  9
$DIMBLK2
  1

  9
$DIMLDRBLK
  1

  9
$DIMSTYLE
  2
STANDARD
  9
$DIMTP
 40
0
  9
$DIMTM
 40
0
  9
$DIMTXT
 40
0.18
  9
$DIMLUNIT
 70
2
  9
$DIMDSEP
 70
46
  9
$DIMTXSTY
  7
STANDARD
  9
$TEXTSIZE
 40
0.18
  9
$TEXTSTYLE
  7
STANDARD
  9
$HANDSEED
  5
0000000000001135
  9
$FILLETRAD
 40
0.5
  9
$INSUNITS
 70
4
  9
$LIMMIN
 10
-15.1871789304922
 20
-10.5285616343305
  9
$LIMMAX
 10
50.2817144822973
 20
1.16984018159228
  9
$FILLMODE
 70
1
  9
$LTSCALE
 40
1
  9
$MEASUREMENT
 70
0
  9
$ATTMODE
 70
1
  9
$PDMODE
 70
0
  9
$PDSIZE
 40
0
  9
$TILEMODE
 70
1
  9
$UCSORG
 10
0
 20
0
 30
0
  9
$UCSXDIR
 10
1
 20
0
 30
0
  9
$UCSYDIR
 10
0
 20
1
 30
0
  9
$INSBASE
 10
0
 20
0
 30
0
  9
$XCLIPFRAME
290
1
  9
$DIMASSOC
280
2
  9
$TDCREATE
 40
2460019.60243863
  9
$TDINDWG
 40
2.43055555555556E-7
  9
$TDUPDATE
 40
2460019.60243888
  0
ENDSEC
  0
SECTION
  2
CLASSES
  0
CLASS
  1
IMAGE
  2
AcDbRasterImage
  3
ISM
 90
2175
 91
1
280
0
281
1
  0
CLASS
  1
IMAGEDEF
  2
AcDbRasterImageDef
  3
ISM
 90
0
 91
1
280
0
281
0
  0
CLASS
  1
WIPEOUT
  2
AcDbWipeout
  3
"WipeOut"
 90
2175
 91
1
280
0
281
1
  0
CLASS
  1
WIPEOUTVARIABLES
  2
AcDbWipeoutVariables
  3
"WipeOut"
 90
0
 91
1
280
0
281
0
  0
CLASS
  1
MPOLYGON
  2
AcDbMPolygon
  3
"AcMPolygonObj15"
 90
3071
 91
1
280
0
281
1
  0
ENDSEC
  0
SECTION
  2
TABLES
  0
TABLE
  2
APPID
  5
111C
100
AcDbSymbolTable
  0
APPID
  5
111D
100
AcDbSymbolTableRecord
100
AcDbRegAppTableRecord
  2
ACAD
 70
0
  0
APPID
  5
12
100
AcDbSymbolTableRecord
100
AcDbRegAppTableRecord
  2
CSTINVENTORY
 70
0
  0
APPID
  5
111E
100
AcDbSymbolTableRecord
100
AcDbRegAppTableRecord
  2
AcDbAttr
 70
0
  0
APPID
  5
111F
100
AcDbSymbolTableRecord
100
AcDbRegAppTableRecord
  2
PE_URL
 70
0
  0
ENDTAB
  0
TABLE
  2
BLOCK_RECORD
  5
1120
100
AcDbSymbolTable
  0
BLOCK_RECORD
  5
14
100
AcDbSymbolTableRecord
100
AcDbBlockTableRecord
  2
*MODEL_SPACE
  0
BLOCK_RECORD
  5
1121
100
AcDbSymbolTableRecord
100
AcDbBlockTableRecord
  2
*PAPER_SPACE
  0
BLOCK_RECORD
  5
10
100
AcDbSymbolTableRecord
100
AcDbBlockTableRecord
  2
_CLOSEDFILLED
  0
ENDTAB
  0
TABLE
  2
STYLE
  5
3
100
AcDbSymbolTable
  0
STYLE
  5
A
100
AcDbSymbolTableRecord
100
AcDbTextStyleTableRecord
  2
STANDARD
 70
0
 40
0
 41
1
 50
0
 71
0
 42
2.5
  3
txt
  4

1001
ACAD
1000

1071
0
  0
STYLE
  5
C55
100
AcDbSymbolTableRecord
100
AcDbTextStyleTableRecord
  2
Arial$001
 70
0
 40
0.0454897853860874
 41
1
 50
0
 71
0
 42
2.5
  3
arial.ttf
  4

1001
ACAD
1000
Arial
1071
0
  0
STYLE
  5
D0A
100
AcDbSymbolTableRecord
100
AcDbTextStyleTableRecord
  2
SimSun$001
 70
0
 40
0.053232727579464
 41
1
 50
0
 71
0
 42
2.5
  3
simsun.ttc
  4

1001
ACAD
1000
NSimSun
1071
0
  0
ENDTAB
  0
TABLE
  2
LTYPE
  5
1
100
AcDbSymbolTable
  0
LTYPE
  5
9
100
AcDbSymbolTableRecord
100
AcDbLinetypeTableRecord
  2
CONTINUOUS
 70
0
  3

 72
65
 73
0
 40
0
  0
LTYPE
  5
7
100
AcDbSymbolTableRecord
100
AcDbLinetypeTableRecord
  2
BYLAYER
 70
0
  3

 72
65
 73
0
 40
0
  0
LTYPE
  5
8
100
AcDbSymbolTableRecord
100
AcDbLinetypeTableRecord
  2
BYBLOCK
 70
0
  3

 72
65
 73
0
 40
0
  0
ENDTAB
  0
TABLE
  2
LAYER
  5
2
100
AcDbSymbolTable
  0
LAYER
  5
E
100
AcDbSymbolTableRecord
100
AcDbLayerTableRecord
  2
0
 70
0
 62
7
  6
CONTINUOUS
290
1
370
-3
390
0
  0
ENDTAB
  0
TABLE
  2
VPORT
  5
1122
100
AcDbSymbolTable
  0
VPORT
  5
1124
100
AcDbSymbolTableRecord
100
AcDbViewportTableRecord
  2
*ACTIVE
 70
0
 10
0
 20
0
 11
1
 21
1
 12
17.5472677759025
 22
-4.67936072636911
 32
0
 13
0
 23
0
 14
1
 24
1
 15
1
 25
1
 16
0
 26
0
 36
1
 17
0
 27
0
 37
0
 40
9.35872145273822
 41
5.59639636618392
 42
50
 43
0
 44
0
 50
0
 51
0
 71
0
 72
100
 73
1
 74
1
 75
0
 76
0
 77
0
 78
0
  0
ENDTAB
  0
TABLE
  2
VIEW
  5
1125
100
AcDbSymbolTable
  0
ENDTAB
  0
TABLE
  2
UCS
  5
1126
100
AcDbSymbolTable
  0
ENDTAB
  0
TABLE
  2
DIMSTYLE
  5
4
100
AcDbSymbolTable
 70
1
100
AcDbDimStyleTable
 71
0
  0
DIMSTYLE
105
B
100
AcDbSymbolTableRecord
100
AcDbDimStyleTableRecord
  2
STANDARD
 70
0
  3

 40
1
 41
0.18
 42
0.0625
 44
0.18
 47
0
 48
0
 73
1
 74
1
 75
0
 76
0
 77
0
140
0.18
141
0.09
144
1
147
0.0625
173
0
174
0
176
0
177
0
178
0
277
2
278
46
281
0
282
0
271
4
340
A
371
-1
372
-1
  0
ENDTAB
  0
ENDSEC
  0
SECTION
  2
BLOCKS
  0
BLOCK
  5
1127
100
AcDbEntity
  8
0
100
AcDbBlockBegin
  2
*MODEL_SPACE
 70
0
 10
0
 20
0
  0
ENDBLK
  5
1128
100
AcDbEntity
  8
0
100
AcDbBlockEnd
  0
BLOCK
  5
1129
100
AcDbEntity
  8
0
100
AcDbBlockBegin
  2
*PAPER_SPACE
 70
0
 10
0
 20
0
  0
ENDBLK
  5
112A
100
AcDbEntity
  8
0
100
AcDbBlockEnd
  0
BLOCK
  5
F
100
AcDbEntity
  8
0
100
AcDbBlockBegin
  2
_CLOSEDFILLED
 70
0
 10
0
 20
0
 30
0
  3
_CLOSEDFILLED
  1

  0
SOLID
  5
C
100
AcDbEntity
  8
0
100
AcDbTrace
370
-2
 62
0
 10
-1
 20
0.166666666666667
 30
0
 11
0
 21
0
 31
0
 12
-1
 22
0.166666666666667
 32
0
 13
-1
 23
-0.166666666666667
 33
0
  0
LINE
  5
D
100
AcDbEntity
  8
0
100
AcDbLine
370
-2
 62
0
 10
-1
 20
0
 30
0
 11
-2
 21
0
 31
0
  0
ENDBLK
  5
112B
100
AcDbEntity
  8
0
100
AcDbBlockEnd
  0
ENDSEC
  0
SECTION
  2
ENTITIES
  0
LWPOLYLINE
  5
15
100
AcDbEntity
  8
0
100
AcDbPolyline
370
-2
 62
7
  6
CONTINUOUS
 38
0
 90
3
 70
0
 10
43.7348251410184
 20
-9.35872145273822
 10
43.7348251410184
 20
0
 10
43.7348251410184
 20
-0.00159978144491252
  0
LWPOLYLINE
  5
19
100
AcDbEntity
  8
0
100
AcDbPolyline
370
-2
 62
7
  6
CONTINUOUS
 38
0
 90
3
 70
0
 10
43.576446777972
 20
-9.20034308969188
 10
43.576446777972
 20
-0.158378363046339
 10
43.576446777972
 20
-0.159978144491252
  0
LWPOLYLINE
  5
1D
100
AcDbEntity
  8
0
100
AcDbPolyline
370
-2
 62
7
  6
CONTINUOUS
 38
0
 90
3
 70
0
 10
43.7348251410184
 20
-9.35872145273822
 10
43.7348251410184
 20
0
 10
43.7348251410184
 20
-0.00159978144491252
  0
LWPOLYLINE
  5
21
100
AcDbEntity
  8
0
100
AcDbPolyline
370
-2
 62
7
  6
CONTINUOUS
 38
0
 90
3
 70
0
 10
0.865481761697672
 20
-6.13196227834968
 10
0.593518916062544
 20
-6.13196227834968
 10
0.593518916062544
 20
-6.13356205979459
  0
LWPOLYLINE
  5
25
100
AcDbEntity
  8
0
100
AcDbPolyline
370
-2
 62
7
  6
CONTINUOUS
 38
0
 90
3
 70
0
 10
0.865481761697672
 20
-6.11436468245564
 10
0.593518916062544
 20
-6.11436468245564
 10
0.593518916062544
 20
-6.11596446390055
  0
LWPOLYLINE
  5
29
100
AcDbEntity
  8
0
100
AcDbPolyline
370
-2
 62
7
  6
CONTINUOUS
 38
0
 90
3
 70
0
 10
0.593518916062544
 20
-6.10156643089634
 10
0.865481761697672
 20
-6.10156643089634
 10
0.865481761697672
 20
-6.10316621234125
  0
LWPOLYLINE
  5
2D
100
AcDbEntity
  8
0
100
AcDbPolyline
370
-2
 62
7
  6
CONTINUOUS
 38
0
 90
4
 70
0
 10
0.655910392414132
 20
-5.44085669414747
 10
0.652710829524307
 20
-5.44245647559238
 10
0.651111048079394
 20
-5.44405625703729
 10
0.651111048079394
 20
-5.44565603848221
  0
LWPOLYLINE
  5
32
100
AcDbEntity
  8
0
100
AcDbPolyline
370
-2
 62
7
  6
CONTINUOUS
 38
0
 90
3
 70
0
 10
0.593518916062544
 20
-5.48725035604993
 10
0.593518916062544
 20
-5.49204970038467
 10
0.593518916062544
 20
-5.49364948182958
  0
LWPOLYLINE
  5
36
100
AcDbEntity
  8
0
100
AcDbPolyline
370
-2
 62
7
  6
CONTINUOUS
 38
0
 90
3
 70
0
 10
0.593518916062544
 20
-6.08716839789213
 10
0.593518916062544
 20
-6.08236905355739
 10
0.593518916062544
 20
-6.0839688350023
  0
LWPOLYLINE
  5
3A
100
AcDbEntity
  8
0
100
AcDbPolyline
370
-2
 62
7
  6
CONTINUOUS
 38
0
 90
3
 70
0
 10
0.863881980252759
 20
-6.08716839789213
 10
0.863881980252759
 20
-6.08236905355739
 10
0.863881980252759
 20
-6.0839688350023
  0
LWPOLYLINE
  5
3E
100
AcDbEntity
  8
0
100
AcDbPolyline
370
-2
 62
7
  6
CONTINUOUS
 38
0
 90
3
 70
0
 10
0.863881980252759
 20
-5.48725035604993
 10
0.863881980252759
 20
-5.49204970038467
 10
0.863881980252759
 20
-5.49364948182958
  0
LWPOLYLINE
  5
42
100
AcDbEntity
  8
0
100
AcDbPolyline
370
-2
 62
7
  6
CONTINUOUS
 38
0
 90
3
 70
0
 10
0.865481761697672
 20
-5.47445210449063
 10
0.593518916062544
 20
-5.47445210449063
 10
0.593518916062544
 20
-5.47605188593554
  0
LWPOLYLINE
  5
46
100
AcDbEntity
  8
0
100
AcDbPolyline
370
-2
 62
7
  6
CONTINUOUS
 38
0
 90
6
 70
0
 10
0.801490503901171
 20
-5.44085669414747
 10
0.799890722456258
 20
-5.43925691270256
 10
0.796691159566433
 20
-5.43605734981273
 10
0.793491596676608
 20
-5.43605734981273
 10
0.791891815231696
 20
-5.43605734981273
 10
0.791891815231696
 20
-5.43765713125764
  0
LWPOLYLINE
  5
4D
100
AcDbEntity
  8
0
100
AcDbPolyline
370
-2
 62
7
  6
CONTINUOUS
 38
0
 90
6
 70
0
 10
0.66710886252852
 20
-5.43605734981273
 10
0.663909299638695
 20
-5.43605734981273
 10
0.66070973674887
 20
-5.43605734981273
 10
0.657510173859044
 20
-5.43925691270256
 10
0.655910392414132
 20
-5.44085669414747
 10
0.655910392414132
 20
-5.44245647559238
  0
POINT
  5
54
100
AcDbEntity
  8
0
100
AcDbPoint
370
-2
 62
7
  6
CONTINUOUS
 10
0.649511266634482
 20
-5.44405625703729
 30
0
  0
LWPOLYLINE
  5
55
100
AcDbEntity
  8
0
100
AcDbPolyline
370
-2
 62
7
  6
CONTINUOUS
 38
0
 90
3
 70
0
 10
0.593518916062544
 20
-5.46165385293133
 10
0.865481761697672
 20
-5.46165385293133
 10
0.865481761697672
 20
-5.46325363437624
  0
LWPOLYLINE
  5
59
100
AcDbEntity
  8
0
100
AcDbPolyline
370
-2
 62
7
  6
CONTINUOUS
 38
0
 90
3
 70
0
 10
0.593518916062544
 20
-5.44405625703729
 10
0.649511266634482
 20
-5.44405625703729
 10
0.649511266634482
 20
-5.44565603848221
  0
LWPOLYLINE
  5
5D
100
AcDbEntity
  8
0
100
AcDbPolyline
370
-2
 62
7
  6
CONTINUOUS
 38
0
 90
3
 70
0
 10
0.807889629680821
 20
-5.44405625703729
 10
0.865481761697672
 20
-5.44405625703729
 10
0.865481761697672
 20
-5.44565603848221
  0
LWPOLYLINE
  5
61
100
AcDbEntity
  8
0
100
AcDbPolyline
370
-2
 62
7
  6
CONTINUOUS
 38
0
 90
3
 70
0
 10
0.66710886252852
 20
-5.43605734981273
 10
0.791891815231696
 20
-5.43605734981273
 10
0.791891815231696
 20
-5.43765713125764
  0
POINT
  5
65
100
AcDbEntity
  8
0
100
AcDbPoint
370
-2
 62
7
  6
CONTINUOUS
 10
0.806289848235908
 20
-5.44405625703729
 30
0
  0
LWPOLYLINE
  5
66
100
AcDbEntity
  8
0
100
AcDbPolyline
370
-2
 62
7
  6
CONTINUOUS
 38
0
 90
4
 70
0
 10
0.806289848235908
 20
-5.44405625703729
 10
0.804690066790996
 20
-5.44245647559238
 10
0.801490503901171
 20
-5.44085669414747
 10
0.801490503901171
 20
-5.44245647559238
  0
LWPOLYLINE
  5
6B
100
AcDbEntity
  8
0
100
AcDbPolyline
370
-2
 62
7
  6
CONTINUOUS
 38
0
 90
3
 70
0
 10
3.34994234564681
 20
-2.86520856783832
 10
3.34994234564681
 20
-2.87960660084253
 10
3.34994234564681
 20
-2.88120638228744
  0
LWPOLYLINE
  5
6F
100
AcDbEntity
  8
0
100
AcDbPolyline
370
-2
 62
7
  6
CONTINUOUS
 38
0
 90
8
 70
0
 10
3.30834802807908
 20
-2.95639611019833
 10
3.30354868374435
 20
-2.98679195765167
 10
3.29554977651978
 20
-3.01398824221518
 10
3.28755086929522
 20
-3.03958474533378
 10
3.27635239918083
 20
-3.06198168556256
 10
3.26195436617662
 20
-3.07957928145659
 10
3.24435677028258
 20
-3.0923775330159
 10
3.24435677028258
 20
-3.09397731446081
  0
LWPOLYLINE
  5
78
100
AcDbEntity
  8
0
100
AcDbPolyline
370
-2
 62
7
  6
CONTINUOUS
 38
0
 90
3
 70
0
 10
3.31314737241382
 20
-2.91320201118569
 10
3.31634693530365
 20
-2.89080507095692
 10
3.31634693530365
 20
-2.89240485240183
  0
LWPOLYLINE
  5
7C
100
AcDbEntity
  8
0
100
AcDbPolyline
370
-2
 62
7
  6
CONTINUOUS
 38
0
 90
3
 70
0
 10
3.31634693530365
 20
-2.89080507095692
 10
3.31314737241382
 20
-2.91320201118569
 10
3.31314737241382
 20
-2.91480179263061
  0
POINT
  5
80
100
AcDbEntity
  8
0
100
AcDbPoint
370
-2
 62
7
  6
CONTINUOUS
 10
3.31314737241382
 20
-2.91320201118569
 30
0
  0
LWPOLYLINE
  5
81
100
AcDbEntity
  8
0
100
AcDbPolyline
370
-2
 62
7
  6
CONTINUOUS
 38
0
 90
3
 70
0
 10
3.31314737241382
 20
-2.91320201118569
 10
3.30834802807908
 20
-2.95639611019833
 10
3.30834802807908
 20
-2.95799589164324
  0
LWPOLYLINE
  5
85
100
AcDbEntity
  8
0
100
AcDbPolyline
370
-2
 62
7
  6
CONTINUOUS
 38
0
 90
3
 70
0
 10
3.31794671674856
 20
-2.88760550806709
 10
3.31634693530365
 20
-2.89080507095692
 10
3.31634693530365
 20
-2.89240485240183
  0
POINT
  5
89
100
AcDbEntity
  8
0
100
AcDbPoint
370
-2
 62
7
  6
CONTINUOUS
 10
3.24435677028258
 20
-3.0923775330159
 30
0
  0
LWPOLYLINE
  5
8A
100
AcDbEntity
  8
0
100
AcDbPolyline
370
-2
 62
7
  6
CONTINUOUS
 38
0
 90
3
 70
0
 10
3.24435677028258
 20
-3.0923775330159
 10
3.22195983005381
 20
-3.10357600313028
 10
3.22195983005381
 20
-3.10517578457519
  0
POINT
  5
8E
100
AcDbEntity
  8
0
100
AcDbPoint
370
-2
 62
7
  6
CONTINUOUS
 10
3.31794671674856
 20
-2.88600572662218
 30
0
  0
LWPOLYLINE
  5
8F
100
AcDbEntity
  8
0
100
AcDbPolyline
370
-2
 62
7
  6
CONTINUOUS
 38
0
 90
3
 70
0
 10
3.06038190411764
 20
-3.17556616815135
 10
2.95159676586359
 20
-3.17556616815135
 10
2.95159676586359
 20
-3.17716594959626
  0
LWPOLYLINE
  5
93
100
AcDbEntity
  8
0
100
AcDbPolyline
370
-2
 62
7
  6
CONTINUOUS
 38
0
 90
3
 70
0
 10
3.22195983005381
 20
-3.10357600313028
 10
3.19636332693521
 20
-3.10997512890993
 10
3.19636332693521
 20
-3.11157491035484
  0
LWPOLYLINE
  5
97
100
AcDbEntity
  8
0
100
AcDbPolyline
370
-2
 62
7
  6
CONTINUOUS
 38
0
 90
3
 70
0
 10
3.06038190411764
 20
-3.17556616815135
 10
3.06518124845238
 20
-3.12597294335906
 10
3.06518124845238
 20
-3.12757272480397
  0
LWPOLYLINE
  5
9B
100
AcDbEntity
  8
0
100
AcDbPolyline
370
-2
 62
7
  6
CONTINUOUS
 38
0
 90
3
 70
0
 10
3.19636332693521
 20
-3.10997512890993
 10
3.1691670423717
 20
-3.11317469179976
 10
3.1691670423717
 20
-3.11477447324467
  0
LWPOLYLINE
  5
9F
100
AcDbEntity
  8
0
100
AcDbPolyline
370
-2
 62
7
  6
CONTINUOUS
 38
0
 90
3
 70
0
 10
3.10677556602011
 20
-3.1179740361345
 10
3.07318015567694
 20
-3.11957381757941
 10
3.07318015567694
 20
-3.12117359902432
  0
LWPOLYLINE
  5
A3
100
AcDbEntity
  8
0
100
AcDbPolyline
370
-2
 62
7
  6
CONTINUOUS
 38
0
 90
3
 70
0
 10
3.13877119491836
 20
-3.11637425468958
 10
3.10677556602011
 20
-3.1179740361345
 10
3.10677556602011
 20
-3.11957381757941
  0
LWPOLYLINE
  5
A7
100
AcDbEntity
  8
0
100
AcDbPolyline
370
-2
 62
7
  6
CONTINUOUS
 38
0
 90
3
 70
0
 10
3.1691670423717
 20
-3.11317469179976
 10
3.13877119491836
 20
-3.11637425468958
 10
3.13877119491836
 20
-3.1179740361345
  0
LWPOLYLINE
  5
AB
100
AcDbEntity
  8
0
100
AcDbPolyline
370
-2
 62
7
  6
CONTINUOUS
 38
0
 90
3
 70
0
 10
3.3227460610833
 20
-2.88440594517727
 10
3.31954649819347
 20
-2.88600572662218
 10
3.31954649819347
 20
-2.88760550806709
  0
LWPOLYLINE
  5
AF
100
AcDbEntity
  8
0
100
AcDbPolyline
370
-2
 62
7
  6
CONTINUOUS
 38
0
 90
3
 70
0
 10
2.95159676586359
 20
-3.17556616815135
 10
2.95159676586359
 20
-3.17236660526152
 10
2.95159676586359
 20
-3.17396638670643
  0
POINT
  5
B3
100
AcDbEntity
  8
0
100
AcDbPoint
370
-2
 62
7
  6
CONTINUOUS
 10
3.3227460610833
 20
-2.88440594517727
 30
0
  0
LWPOLYLINE
  5
B4
100
AcDbEntity
  8
0
100
AcDbPolyline
370
-2
 62
7
  6
CONTINUOUS
 38
0
 90
3
 70
0
 10
3.34514300131207
 20
-2.88440594517727
 10
2.66683566866917
 20
-2.88440594517727
 10
2.66683566866917
 20
-2.88600572662218
  0
LWPOLYLINE
  5
B8
100
AcDbEntity
  8
0
100
AcDbPolyline
370
-2
 62
7
  6
CONTINUOUS
 38
0
 90
3
 70
0
 10
2.6588367614446
 20
-2.86040922350358
 10
3.34514300131207
 20
-2.86040922350358
 10
3.34514300131207
 20
-2.86200900494849
  0
LWPOLYLINE
  5
BC
100
AcDbEntity
  8
0
100
AcDbPolyline
370
-2
 62
7
  6
CONTINUOUS
 38
0
 90
3
 70
0
 10
2.66203632433443
 20
-2.86520856783832
 10
2.66203632433443
 20
-2.87960660084253
 10
2.66203632433443
 20
-2.88120638228744
  0
LWPOLYLINE
  5
C0
100
AcDbEntity
  8
0
100
AcDbPolyline
370
-2
 62
7
  6
CONTINUOUS
 38
0
 90
3
 70
0
 10
0.249565905406353
 20
-2.87960660084253
 10
0.249565905406353
 20
-2.86520856783832
 10
0.249565905406353
 20
-2.86680834928323
  0
LWPOLYLINE
  5
C4
100
AcDbEntity
  8
0
100
AcDbPolyline
370
-2
 62
7
  6
CONTINUOUS
 38
0
 90
17
 70
0
 10
0.305558255978291
 20
-3.01878758654992
 10
0.307158037423203
 20
-3.02518671232957
 10
0.316756726092678
 20
-3.04598387111343
 10
0.329554977651978
 20
-3.06518124845238
 10
0.345552792101104
 20
-3.07957928145659
 10
0.364750169440054
 20
-3.09077775157098
 10
0.385547328223917
 20
-3.09877665879554
 10
0.409544049897604
 20
-3.10357600313028
 10
0.433540771571292
 20
-3.10677556602011
 10
0.460737056134805
 20
-3.10997512890993
 10
0.48953312214323
 20
-3.11317469179976
 10
0.518329188151655
 20
-3.11477447324467
 10
0.550324817049906
 20
-3.11637425468958
 10
0.585520008837981
 20
-3.1179740361345
 10
0.622314982070969
 20
-3.1179740361345
 10
0.662309518193782
 20
-3.11957381757941
 10
0.662309518193782
 20
-3.12117359902432
  0
LWPOLYLINE
  5
D6
100
AcDbEntity
  8
0
100
AcDbPolyline
370
-2
 62
7
  6
CONTINUOUS
 38
0
 90
3
 70
0
 10
0.675107769753082
 20
-3.17556616815135
 10
0.783892908007133
 20
-3.17556616815135
 10
0.783892908007133
 20
-3.17716594959626
  0
LWPOLYLINE
  5
DA
100
AcDbEntity
  8
0
100
AcDbPolyline
370
-2
 62
7
  6
CONTINUOUS
 38
0
 90
3
 70
0
 10
0.675107769753082
 20
-3.17556616815135
 10
0.670308425418345
 20
-3.12597294335906
 10
0.670308425418345
 20
-3.12757272480397
  0
LWPOLYLINE
  5
DE
100
AcDbEntity
  8
0
100
AcDbPolyline
370
-2
 62
7
  6
CONTINUOUS
 38
0
 90
17
 70
0
 10
0.795091378121521
 20
-3.11957381757941
 10
0.835085914244334
 20
-3.1179740361345
 10
0.871880887477322
 20
-3.1179740361345
 10
0.907076079265397
 20
-3.11637425468958
 10
0.939071708163647
 20
-3.11477447324467
 10
0.969467555616985
 20
-3.11317469179976
 10
0.996663840180498
 20
-3.10997512890993
 10
1.02386012474401
 20
-3.10677556602011
 10
1.0478568464177
 20
-3.10357600313028
 10
1.07185356809139
 20
-3.09877665879554
 10
1.09265072687525
 20
-3.09077775157098
 10
1.1118481042142
 20
-3.07957928145659
 10
1.12784591866332
 20
-3.06518124845238
 10
1.14064417022262
 20
-3.04598387111343
 10
1.1502428588921
 20
-3.02518671232957
 10
1.15344242178192
 20
-3.01878758654992
 10
1.15344242178192
 20
-3.02038736799483
  0
POINT
  5
F0
100
AcDbEntity
  8
0
100
AcDbPoint
370
-2
 62
7
  6
CONTINUOUS
 10
0.795091378121521
 20
-3.11957381757941
 30
0
  0
POINT
  5
F1
100
AcDbEntity
  8
0
100
AcDbPoint
370
-2
 62
7
  6
CONTINUOUS
 10
0.662309518193782
 20
-3.11957381757941
 30
0
  0
LWPOLYLINE
  5
F2
100
AcDbEntity
  8
0
100
AcDbPolyline
370
-2
 62
7
  6
CONTINUOUS
 38
0
 90
3
 70
0
 10
0.783892908007133
 20
-3.17556616815135
 10
0.787092470896958
 20
-3.12597294335906
 10
0.787092470896958
 20
-3.12757272480397
  0
LWPOLYLINE
  5
F6
100
AcDbEntity
  8
0
100
AcDbPolyline
370
-2
 62
7
  6
CONTINUOUS
 38
0
 90
3
 70
0
 10
0.25436524974109
 20
-2.88440594517727
 10
1.20463542801913
 20
-2.88440594517727
 10
1.20463542801913
 20
-2.88600572662218
  0
LWPOLYLINE
  5
FA
100
AcDbEntity
  8
0
100
AcDbPolyline
370
-2
 62
7
  6
CONTINUOUS
 38
0
 90
3
 70
0
 10
1.20463542801913
 20
-2.86040922350358
 10
0.25436524974109
 20
-2.86040922350358
 10
0.25436524974109
 20
-2.86200900494849
  0
LWPOLYLINE
  5
FE
100
AcDbEntity
  8
0
100
AcDbPolyline
370
-2
 62
7
  6
CONTINUOUS
 38
0
 90
3
 70
0
 10
1.20943477235386
 20
-2.87960660084253
 10
1.20943477235386
 20
-2.86520856783832
 10
1.20943477235386
 20
-2.86680834928323
  0
ELLIPSE
  5
102
100
AcDbEntity
  8
0
100
AcDbEllipse
370
-2
 62
7
  6
CONTINUOUS
 10
21.8914092921829
 20
-7.42538557656145
 30
0
 11
43.7348251410184
 21
0
 31
0
 40
0.0885088618719789
 41
2.33716551634354
 42
2.34355007936979
  0
ELLIPSE
  5
103
100
AcDbEntity
  8
0
100
AcDbEllipse
370
-2
 62
7
  6
CONTINUOUS
 10
21.8914092921829
 20
-7.42298590439408
 30
0
 11
43.7348251410184
 21
0
 31
0
 40
0.0886187197890728
 41
2.33716551634354
 42
2.34355007936979
  0
ARC
  5
104
100
AcDbEntity
  8
0
100
AcDbCircle
370
-2
 62
7
  6
CONTINUOUS
 10
0.592719025340087
 20
-5.78720937697103
 30
0
 40
0.343153119933735
100
AcDbArc
 50
89.8664436462941
 51
-89.867063395126
  0
ARC
  5
105
100
AcDbEntity
  8
0
100
AcDbCircle
370
-2
 62
7
  6
CONTINUOUS
 10
0.592719025340087
 20
-5.78720937697103
 30
0
 40
0.325555524039697
100
AcDbArc
 50
89.8592244122409
 51
-89.8599127986729
  0
ARC
  5
106
100
AcDbEntity
  8
0
100
AcDbCircle
370
-2
 62
7
  6
CONTINUOUS
 10
0.592719025340087
 20
-5.78720937697103
 30
0
 40
0.312757272480397
100
AcDbArc
 50
-179.853463799005
 51
-89.8542095270808
  0
ARC
  5
107
100
AcDbEntity
  8
0
100
AcDbCircle
370
-2
 62
7
  6
CONTINUOUS
 10
0.592719025340087
 20
-5.78720937697103
 30
0
 40
0.312757272480397
100
AcDbArc
 50
89.8534637990051
 51
-179.853463799005
  0
ARC
  5
108
100
AcDbEntity
  8
0
100
AcDbCircle
370
-2
 62
7
  6
CONTINUOUS
 10
0.864681870975215
 20
-5.78720937697103
 30
0
 40
0.343153119933735
100
AcDbArc
 50
-89.867063395126
 51
89.8664436462941
  0
ARC
  5
109
100
AcDbEntity
  8
0
100
AcDbCircle
370
-2
 62
7
  6
CONTINUOUS
 10
0.864681870975215
 20
-5.78720937697103
 30
0
 40
0.325555524039697
100
AcDbArc
 50
-89.8599127986729
 51
89.8592244122409
  0
ARC
  5
10A
100
AcDbEntity
  8
0
100
AcDbCircle
370
-2
 62
7
  6
CONTINUOUS
 10
0.864681870975215
 20
-5.78720937697103
 30
0
 40
0.312757272480397
100
AcDbArc
 50
-0.145790472919258
 51
89.8534637990051
  0
ARC
  5
10B
100
AcDbEntity
  8
0
100
AcDbCircle
370
-2
 62
7
  6
CONTINUOUS
 10
0.864681870975215
 20
-5.78720937697103
 30
0
 40
0.312757272480397
100
AcDbArc
 50
-89.8542095270808
 51
-0.145790472919258
  0
ARC
  5
10C
100
AcDbEntity
  8
0
100
AcDbCircle
370
-2
 62
7
  6
CONTINUOUS
 10
3.12837261552643
 20
-2.70123096973478
 30
0
 40
0.411943722064973
100
AcDbArc
 50
-85.0254770517595
 51
-84.1242263297954
  0
ARC
  5
10D
100
AcDbEntity
  8
0
100
AcDbCircle
370
-2
 62
7
  6
CONTINUOUS
 10
3.1691670423717
 20
-2.94999698441868
 30
0
 40
0.159978144491252
100
AcDbArc
 50
-72.1038670749607
 51
-70.3079787612635
  0
ARC
  5
10E
100
AcDbEntity
  8
0
100
AcDbCircle
370
-2
 62
7
  6
CONTINUOUS
 10
2.68843271817548
 20
-2.89160496167937
 30
0
 40
0.0479934433473755
100
AcDbArc
 50
5.19442890773324
 51
71.5650511770801
  0
ARC
  5
10F
100
AcDbEntity
  8
0
100
AcDbCircle
370
-2
 62
7
  6
CONTINUOUS
 10
2.94279796791657
 20
-3.17156671453906
 30
0
 40
0.0479934433473755
100
AcDbArc
 50
-5.19442890773324
 51
71.565051177078
  0
ARC
  5
110
100
AcDbEntity
  8
0
100
AcDbCircle
370
-2
 62
7
  6
CONTINUOUS
 10
3.07238026495449
 20
-3.12677283408151
 30
0
 40
0.0479934433473755
100
AcDbArc
 50
83.659808254092
 51
173.659808254092
  0
ARC
  5
111
100
AcDbEntity
  8
0
100
AcDbCircle
370
-2
 62
7
  6
CONTINUOUS
 10
2.66603577794671
 20
-2.86440867711586
 30
0
 40
0.0479934433473755
100
AcDbArc
 50
78.6900675259834
 51
-168.690067525977
  0
ARC
  5
112
100
AcDbEntity
  8
0
100
AcDbCircle
370
-2
 62
7
  6
CONTINUOUS
 10
2.65803687072215
 20
-2.86440867711586
 30
0
 40
0.0479934433473755
100
AcDbArc
 50
78.6900675259834
 51
-168.690067525977
  0
ARC
  5
113
100
AcDbEntity
  8
0
100
AcDbCircle
370
-2
 62
7
  6
CONTINUOUS
 10
3.34434311058962
 20
-2.86440867711586
 30
0
 40
0.0479934433473755
100
AcDbArc
 50
-8.13010235415725
 51
78.6900675259773
  0
ARC
  5
114
100
AcDbEntity
  8
0
100
AcDbCircle
370
-2
 62
7
  6
CONTINUOUS
 10
2.66603577794671
 20
-2.87880671012007
 30
0
 40
0.0479934433473755
100
AcDbArc
 50
-168.690067525977
 51
-81.8698976458466
  0
ARC
  5
115
100
AcDbEntity
  8
0
100
AcDbCircle
370
-2
 62
7
  6
CONTINUOUS
 10
3.34434311058962
 20
-2.87880671012007
 30
0
 40
0.0479934433473755
100
AcDbArc
 50
-81.8698976458421
 51
-8.13010235415725
  0
ARC
  5
116
100
AcDbEntity
  8
0
100
AcDbCircle
370
-2
 62
7
  6
CONTINUOUS
 10
1.18303837851281
 20
-2.89160496167937
 30
0
 40
0.0479934433473755
100
AcDbArc
 50
83.6598082540903
 51
173.659808254092
  0
ARC
  5
117
100
AcDbEntity
  8
0
100
AcDbCircle
370
-2
 62
7
  6
CONTINUOUS
 10
0.272762736357584
 20
-2.89160496167937
 30
0
 40
0.0479934433473755
100
AcDbArc
 50
5.19442890773318
 51
83.6598082540899
  0
ARC
  5
118
100
AcDbEntity
  8
0
100
AcDbCircle
370
-2
 62
7
  6
CONTINUOUS
 10
0.794291487399065
 20
-3.12677283408151
 30
0
 40
0.0479934433473755
100
AcDbArc
 50
83.6598082540894
 51
173.659808254092
  0
ARC
  5
119
100
AcDbEntity
  8
0
100
AcDbCircle
370
-2
 62
7
  6
CONTINUOUS
 10
0.661509627471326
 20
-3.12677283408151
 30
0
 40
0.0479934433473755
100
AcDbArc
 50
5.19442890773318
 51
83.6598082540903
  0
ARC
  5
11A
100
AcDbEntity
  8
0
100
AcDbCircle
370
-2
 62
7
  6
CONTINUOUS
 10
1.20383553729667
 20
-2.86440867711586
 30
0
 40
0.0479934433473755
100
AcDbArc
 50
-8.13010235415757
 51
78.6900675259773
  0
ARC
  5
11B
100
AcDbEntity
  8
0
100
AcDbCircle
370
-2
 62
7
  6
CONTINUOUS
 10
0.253565359018634
 20
-2.86440867711586
 30
0
 40
0.0479934433473755
100
AcDbArc
 50
78.6900675259804
 51
-168.690067525977
  0
ARC
  5
11C
100
AcDbEntity
  8
0
100
AcDbCircle
370
-2
 62
7
  6
CONTINUOUS
 10
0.253565359018634
 20
-2.87880671012007
 30
0
 40
0.0479934433473755
100
AcDbArc
 50
-168.690067525977
 51
-81.8698976458444
  0
ARC
  5
11D
100
AcDbEntity
  8
0
100
AcDbCircle
370
-2
 62
7
  6
CONTINUOUS
 10
1.20383553729667
 20
-2.87880671012007
 30
0
 40
0.0479934433473755
100
AcDbArc
 50
-81.8698976458421
 51
-8.13010235415757
  0
LWPOLYLINE
  5
11E
100
AcDbEntity
  8
0
100
AcDbPolyline
370
-2
 62
7
  6
CONTINUOUS
 38
0
 90
61
 70
0
 10
0.710302961541158
 20
-5.50004860760923
 10
0.71190274298607
 20
-5.50004860760923
 10
0.71190274298607
 20
-5.49844882616432
 10
0.71190274298607
 20
-5.49844882616432
 10
0.713502524430983
 20
-5.49844882616432
 10
0.713502524430983
 20
-5.49844882616432
 10
0.713502524430983
 20
-5.49844882616432
 10
0.715102305875895
 20
-5.49844882616432
 10
0.715102305875895
 20
-5.49844882616432
 10
0.715102305875895
 20
-5.49844882616432
 10
0.716702087320808
 20
-5.49844882616432
 10
0.716702087320808
 20
-5.49844882616432
 10
0.716702087320808
 20
-5.49844882616432
 10
0.71830186876572
 20
-5.49844882616432
 10
0.71830186876572
 20
-5.49844882616432
 10
0.719901650210633
 20
-5.49844882616432
 10
0.719901650210633
 20
-5.49844882616432
 10
0.719901650210633
 20
-5.49844882616432
 10
0.721501431655545
 20
-5.49684904471941
 10
0.721501431655545
 20
-5.49684904471941
 10
0.721501431655545
 20
-5.49684904471941
 10
0.723101213100458
 20
-5.49684904471941
 10
0.723101213100458
 20
-5.49684904471941
 10
0.72470099454537
 20
-5.49684904471941
 10
0.72470099454537
 20
-5.49684904471941
 10
0.726300775990283
 20
-5.49684904471941
 10
0.726300775990283
 20
-5.49684904471941
 10
0.726300775990283
 20
-5.49684904471941
 10
0.727900557435195
 20
-5.49684904471941
 10
0.727900557435195
 20
-5.49684904471941
 10
0.727900557435195
 20
-5.49684904471941
 10
0.729500338880108
 20
-5.49684904471941
 10
0.729500338880108
 20
-5.49684904471941
 10
0.729500338880108
 20
-5.49684904471941
 10
0.73110012032502
 20
-5.49684904471941
 10
0.73110012032502
 20
-5.49684904471941
 10
0.732699901769933
 20
-5.49684904471941
 10
0.732699901769933
 20
-5.49684904471941
 10
0.734299683214845
 20
-5.49684904471941
 10
0.734299683214845
 20
-5.49684904471941
 10
0.735899464659758
 20
-5.49684904471941
 10
0.735899464659758
 20
-5.49684904471941
 10
0.735899464659758
 20
-5.49684904471941
 10
0.73749924610467
 20
-5.49844882616432
 10
0.73749924610467
 20
-5.49844882616432
 10
0.739099027549583
 20
-5.49844882616432
 10
0.739099027549583
 20
-5.49844882616432
 10
0.739099027549583
 20
-5.49844882616432
 10
0.740698808994495
 20
-5.49844882616432
 10
0.740698808994495
 20
-5.49844882616432
 10
0.742298590439408
 20
-5.49844882616432
 10
0.742298590439408
 20
-5.49844882616432
 10
0.74389837188432
 20
-5.49844882616432
 10
0.74389837188432
 20
-5.49844882616432
 10
0.74389837188432
 20
-5.49844882616432
 10
0.745498153329233
 20
-5.49844882616432
 10
0.745498153329233
 20
-5.49844882616432
 10
0.745498153329233
 20
-5.49844882616432
 10
0.747097934774145
 20
-5.50004860760923
 10
0.747097934774145
 20
-5.50004860760923
 10
0.747097934774145
 20
-5.50164838905414
  0
LWPOLYLINE
  5
15C
100
AcDbEntity
  8
0
100
AcDbPolyline
370
-2
 62
7
  6
CONTINUOUS
 38
0
 90
194
 70
0
 10
0.863881980252759
 20
-5.48725035604993
 10
0.867081543142584
 20
-5.48725035604993
 10
0.870281106032409
 20
-5.48725035604993
 10
0.871880887477322
 20
-5.48725035604993
 10
0.875080450367147
 20
-5.48725035604993
 10
0.876680231812059
 20
-5.48725035604993
 10
0.879879794701884
 20
-5.48725035604993
 10
0.881479576146797
 20
-5.48885013749484
 10
0.884679139036622
 20
-5.48885013749484
 10
0.886278920481534
 20
-5.48885013749484
 10
0.889478483371359
 20
-5.48885013749484
 10
0.891078264816272
 20
-5.48885013749484
 10
0.894277827706097
 20
-5.48885013749484
 10
0.895877609151009
 20
-5.48885013749484
 10
0.899077172040834
 20
-5.48885013749484
 10
0.900676953485747
 20
-5.49044991893976
 10
0.903876516375572
 20
-5.49044991893976
 10
0.905476297820484
 20
-5.49044991893976
 10
0.90867586071031
 20
-5.49044991893976
 10
0.910275642155222
 20
-5.49044991893976
 10
0.913475205045047
 20
-5.49204970038467
 10
0.916674767934872
 20
-5.49204970038467
 10
0.918274549379785
 20
-5.49204970038467
 10
0.92147411226961
 20
-5.49364948182958
 10
0.923073893714522
 20
-5.49364948182958
 10
0.926273456604347
 20
-5.49364948182958
 10
0.92787323804926
 20
-5.49364948182958
 10
0.931072800939085
 20
-5.49524926327449
 10
0.932672582383997
 20
-5.49524926327449
 10
0.935872145273822
 20
-5.49524926327449
 10
0.937471926718735
 20
-5.49684904471941
 10
0.939071708163647
 20
-5.49684904471941
 10
0.942271271053472
 20
-5.49844882616432
 10
0.943871052498385
 20
-5.49844882616432
 10
0.94707061538821
 20
-5.49844882616432
 10
0.948670396833122
 20
-5.50004860760923
 10
0.951869959722948
 20
-5.50004860760923
 10
0.95346974116786
 20
-5.50164838905414
 10
0.956669304057685
 20
-5.50164838905414
 10
0.958269085502598
 20
-5.50324817049906
 10
0.961468648392423
 20
-5.50324817049906
 10
0.963068429837335
 20
-5.50484795194397
 10
0.96626799272716
 20
-5.50484795194397
 10
0.967867774172073
 20
-5.50644773338888
 10
0.971067337061898
 20
-5.50644773338888
 10
0.97266711850681
 20
-5.5080475148338
 10
0.974266899951723
 20
-5.5080475148338
 10
0.977466462841548
 20
-5.50964729627871
 10
0.97906624428646
 20
-5.51124707772362
 10
0.982265807176285
 20
-5.51124707772362
 10
0.983865588621198
 20
-5.51284685916853
 10
0.98546537006611
 20
-5.51284685916853
 10
0.988664932955935
 20
-5.51444664061345
 10
0.990264714400848
 20
-5.51604642205836
 10
0.993464277290673
 20
-5.51604642205836
 10
0.995064058735585
 20
-5.51764620350327
 10
0.996663840180498
 20
-5.51924598494818
 10
0.999863403070323
 20
-5.51924598494818
 10
1.00146318451524
 20
-5.5208457663931
 10
1.00306296596015
 20
-5.52244554783801
 10
1.00626252884997
 20
-5.52244554783801
 10
1.00786231029489
 20
-5.52404532928292
 10
1.01106187318471
 20
-5.52564511072783
 10
1.01266165462962
 20
-5.52724489217274
 10
1.01426143607454
 20
-5.52724489217274
 10
1.01746099896436
 20
-5.52884467361766
 10
1.01906078040927
 20
-5.53044445506257
 10
1.02066056185419
 20
-5.53204423650748
 10
1.0222603432991
 20
-5.53204423650748
 10
1.02545990618892
 20
-5.5336440179524
 10
1.02705968763384
 20
-5.53524379939731
 10
1.02865946907875
 20
-5.53684358084222
 10
1.03185903196857
 20
-5.53844336228713
 10
1.03345881341349
 20
-5.54004314373205
 10
1.0350585948584
 20
-5.54164292517696
 10
1.03665837630331
 20
-5.54164292517696
 10
1.03985793919314
 20
-5.54324270662187
 10
1.04145772063805
 20
-5.54484248806678
 10
1.04305750208296
 20
-5.5464422695117
 10
1.04465728352787
 20
-5.54804205095661
 10
1.0478568464177
 20
-5.54964183240152
 10
1.04945662786261
 20
-5.55124161384643
 10
1.05105640930752
 20
-5.55284139529135
 10
1.05265619075244
 20
-5.55444117673626
 10
1.05425597219735
 20
-5.55604095818117
 10
1.05745553508717
 20
-5.55764073962608
 10
1.05905531653209
 20
-5.559240521071
 10
1.060655097977
 20
-5.56084030251591
 10
1.06225487942191
 20
-5.56244008396082
 10
1.06385466086682
 20
-5.56403986540573
 10
1.06545444231174
 20
-5.56563964685065
 10
1.06865400520156
 20
-5.56723942829556
 10
1.07025378664647
 20
-5.56883920974047
 10
1.07185356809139
 20
-5.57043899118538
 10
1.0734533495363
 20
-5.5720387726303
 10
1.07505313098121
 20
-5.57363855407521
 10
1.07665291242612
 20
-5.57523833552012
 10
1.07825269387104
 20
-5.57683811696503
 10
1.07985247531595
 20
-5.57843789840995
 10
1.08145225676086
 20
-5.58003767985486
 10
1.08305203820577
 20
-5.58323724274468
 10
1.08465181965069
 20
-5.5848370241896
 10
1.0862516010956
 20
-5.58643680563451
 10
1.08785138254051
 20
-5.58803658707942
 10
1.08945116398542
 20
-5.58963636852433
 10
1.09105094543034
 20
-5.59123614996925
 10
1.09265072687525
 20
-5.59283593141416
 10
1.09425050832016
 20
-5.59603549430398
 10
1.09585028976507
 20
-5.5976352757489
 10
1.09745007120999
 20
-5.59923505719381
 10
1.0990498526549
 20
-5.60083483863872
 10
1.10064963409981
 20
-5.60243462008363
 10
1.10224941554472
 20
-5.60563418297346
 10
1.10384919698964
 20
-5.60723396441837
 10
1.10544897843455
 20
-5.60883374586328
 10
1.10704875987946
 20
-5.6104335273082
 10
1.10864854132437
 20
-5.61203330875311
 10
1.11024832276929
 20
-5.61523287164293
 10
1.1118481042142
 20
-5.61683265308785
 10
1.11344788565911
 20
-5.61843243453276
 10
1.11344788565911
 20
-5.62003221597767
 10
1.11504766710402
 20
-5.6232317788675
 10
1.11664744854894
 20
-5.62483156031241
 10
1.11824722999385
 20
-5.62643134175732
 10
1.11984701143876
 20
-5.62963090464715
 10
1.12144679288367
 20
-5.63123068609206
 10
1.12144679288367
 20
-5.63283046753697
 10
1.12304657432859
 20
-5.6360300304268
 10
1.1246463557735
 20
-5.63762981187171
 10
1.12624613721841
 20
-5.63922959331662
 10
1.12624613721841
 20
-5.64242915620645
 10
1.12784591866332
 20
-5.64402893765136
 10
1.12944570010824
 20
-5.64562871909627
 10
1.13104548155315
 20
-5.6488282819861
 10
1.13104548155315
 20
-5.65042806343101
 10
1.13264526299806
 20
-5.65202784487592
 10
1.13424504444297
 20
-5.65522740776575
 10
1.13424504444297
 20
-5.65682718921066
 10
1.13584482588789
 20
-5.65842697065557
 10
1.1374446073328
 20
-5.6616265335454
 10
1.1374446073328
 20
-5.66322631499031
 10
1.13904438877771
 20
-5.66642587788013
 10
1.14064417022262
 20
-5.66802565932505
 10
1.14064417022262
 20
-5.66962544076996
 10
1.14224395166754
 20
-5.67282500365978
 10
1.14224395166754
 20
-5.6744247851047
 10
1.14384373311245
 20
-5.67762434799452
 10
1.14544351455736
 20
-5.67922412943943
 10
1.14544351455736
 20
-5.68242369232926
 10
1.14704329600227
 20
-5.68402347377417
 10
1.14704329600227
 20
-5.68562325521908
 10
1.14864307744719
 20
-5.68882281810891
 10
1.14864307744719
 20
-5.69042259955382
 10
1.1502428588921
 20
-5.69362216244365
 10
1.1502428588921
 20
-5.69522194388856
 10
1.15184264033701
 20
-5.69842150677838
 10
1.15184264033701
 20
-5.7000212882233
 10
1.15184264033701
 20
-5.70322085111312
 10
1.15344242178192
 20
-5.70482063255804
 10
1.15344242178192
 20
-5.70802019544786
 10
1.15504220322684
 20
-5.70961997689277
 10
1.15504220322684
 20
-5.7128195397826
 10
1.15504220322684
 20
-5.71441932122751
 10
1.15664198467175
 20
-5.71761888411734
 10
1.15664198467175
 20
-5.71921866556225
 10
1.15824176611666
 20
-5.72241822845207
 10
1.15824176611666
 20
-5.72401800989698
 10
1.15824176611666
 20
-5.72721757278681
 10
1.15984154756157
 20
-5.72881735423172
 10
1.15984154756157
 20
-5.73201691712155
 10
1.15984154756157
 20
-5.73361669856646
 10
1.15984154756157
 20
-5.73681626145629
 10
1.16144132900649
 20
-5.7384160429012
 10
1.16144132900649
 20
-5.74161560579102
 10
1.16144132900649
 20
-5.74321538723594
 10
1.16144132900649
 20
-5.74641495012576
 10
1.1630411104514
 20
-5.74801473157067
 10
1.1630411104514
 20
-5.7512142944605
 10
1.1630411104514
 20
-5.75281407590541
 10
1.1630411104514
 20
-5.75601363879524
 10
1.1630411104514
 20
-5.75761342024015
 10
1.1630411104514
 20
-5.76081298312997
 10
1.16464089189631
 20
-5.76241276457489
 10
1.16464089189631
 20
-5.76561232746471
 10
1.16464089189631
 20
-5.76721210890962
 10
1.16464089189631
 20
-5.77041167179945
 10
1.16464089189631
 20
-5.77201145324436
 10
1.16464089189631
 20
-5.77521101613418
 10
1.16464089189631
 20
-5.77841057902401
 10
1.16464089189631
 20
-5.78001036046892
 10
1.16464089189631
 20
-5.78320992335875
 10
1.16464089189631
 20
-5.78480970480366
 10
1.16464089189631
 20
-5.78800926769349
 10
1.16464089189631
 20
-5.7896090491384
  0
LWPOLYLINE
  5
21F
100
AcDbEntity
  8
0
100
AcDbPolyline
370
-2
 62
7
  6
CONTINUOUS
 38
0
 90
194
 70
0
 10
0.292760004418991
 20
-5.78800926769349
 10
0.292760004418991
 20
-5.78480970480366
 10
0.292760004418991
 20
-5.78320992335875
 10
0.292760004418991
 20
-5.78001036046892
 10
0.292760004418991
 20
-5.77841057902401
 10
0.292760004418991
 20
-5.77521101613418
 10
0.292760004418991
 20
-5.77201145324436
 10
0.292760004418991
 20
-5.77041167179945
 10
0.292760004418991
 20
-5.76721210890962
 10
0.292760004418991
 20
-5.76561232746471
 10
0.294359785863903
 20
-5.76241276457489
 10
0.294359785863903
 20
-5.76081298312997
 10
0.294359785863903
 20
-5.75761342024015
 10
0.294359785863903
 20
-5.75601363879524
 10
0.294359785863903
 20
-5.75281407590541
 10
0.294359785863903
 20
-5.7512142944605
 10
0.295959567308816
 20
-5.74801473157067
 10
0.295959567308816
 20
-5.74641495012576
 10
0.295959567308816
 20
-5.74321538723594
 10
0.295959567308816
 20
-5.74161560579102
 10
0.295959567308816
 20
-5.7384160429012
 10
0.297559348753728
 20
-5.73681626145629
 10
0.297559348753728
 20
-5.73361669856646
 10
0.297559348753728
 20
-5.73201691712155
 10
0.299159130198641
 20
-5.72881735423172
 10
0.299159130198641
 20
-5.72721757278681
 10
0.299159130198641
 20
-5.72401800989698
 10
0.300758911643553
 20
-5.72241822845207
 10
0.300758911643553
 20
-5.71921866556225
 10
0.300758911643553
 20
-5.71761888411734
 10
0.302358693088466
 20
-5.71441932122751
 10
0.302358693088466
 20
-5.7128195397826
 10
0.302358693088466
 20
-5.70961997689277
 10
0.303958474533378
 20
-5.70802019544786
 10
0.303958474533378
 20
-5.70482063255804
 10
0.305558255978291
 20
-5.70322085111312
 10
0.305558255978291
 20
-5.7000212882233
 10
0.305558255978291
 20
-5.69842150677838
 10
0.307158037423203
 20
-5.69522194388856
 10
0.307158037423203
 20
-5.69362216244365
 10
0.308757818868116
 20
-5.69042259955382
 10
0.308757818868116
 20
-5.68882281810891
 10
0.310357600313028
 20
-5.68562325521908
 10
0.310357600313028
 20
-5.68402347377417
 10
0.311957381757941
 20
-5.68242369232926
 10
0.313557163202853
 20
-5.67922412943943
 10
0.313557163202853
 20
-5.67762434799452
 10
0.315156944647766
 20
-5.6744247851047
 10
0.315156944647766
 20
-5.67282500365978
 10
0.316756726092678
 20
-5.66962544076996
 10
0.316756726092678
 20
-5.66802565932505
 10
0.318356507537591
 20
-5.66642587788013
 10
0.319956288982503
 20
-5.66322631499031
 10
0.319956288982503
 20
-5.6616265335454
 10
0.321556070427416
 20
-5.65842697065557
 10
0.323155851872328
 20
-5.65682718921066
 10
0.323155851872328
 20
-5.65522740776575
 10
0.324755633317241
 20
-5.65202784487592
 10
0.326355414762153
 20
-5.65042806343101
 10
0.326355414762153
 20
-5.6488282819861
 10
0.327955196207066
 20
-5.64562871909627
 10
0.329554977651978
 20
-5.64402893765136
 10
0.331154759096891
 20
-5.64242915620645
 10
0.331154759096891
 20
-5.63922959331662
 10
0.332754540541803
 20
-5.63762981187171
 10
0.334354321986716
 20
-5.6360300304268
 10
0.335954103431629
 20
-5.63283046753697
 10
0.335954103431629
 20
-5.63123068609206
 10
0.337553884876541
 20
-5.62963090464715
 10
0.339153666321454
 20
-5.62643134175732
 10
0.340753447766366
 20
-5.62483156031241
 10
0.342353229211279
 20
-5.6232317788675
 10
0.343953010656191
 20
-5.62003221597767
 10
0.343953010656191
 20
-5.61843243453276
 10
0.345552792101104
 20
-5.61683265308785
 10
0.347152573546016
 20
-5.61523287164293
 10
0.348752354990929
 20
-5.61203330875311
 10
0.350352136435841
 20
-5.6104335273082
 10
0.351951917880754
 20
-5.60883374586328
 10
0.353551699325666
 20
-5.60723396441837
 10
0.355151480770579
 20
-5.60563418297346
 10
0.356751262215491
 20
-5.60243462008363
 10
0.358351043660404
 20
-5.60083483863872
 10
0.359950825105316
 20
-5.59923505719381
 10
0.361550606550229
 20
-5.5976352757489
 10
0.363150387995141
 20
-5.59603549430398
 10
0.364750169440054
 20
-5.59283593141416
 10
0.366349950884966
 20
-5.59123614996925
 10
0.367949732329879
 20
-5.58963636852433
 10
0.369549513774791
 20
-5.58803658707942
 10
0.371149295219704
 20
-5.58643680563451
 10
0.372749076664616
 20
-5.5848370241896
 10
0.374348858109529
 20
-5.58163746129977
 10
0.375948639554441
 20
-5.58003767985486
 10
0.377548420999354
 20
-5.57843789840995
 10
0.379148202444266
 20
-5.57683811696503
 10
0.380747983889179
 20
-5.57523833552012
 10
0.382347765334091
 20
-5.57363855407521
 10
0.383947546779004
 20
-5.5720387726303
 10
0.385547328223917
 20
-5.57043899118538
 10
0.387147109668829
 20
-5.56883920974047
 10
0.390346672558654
 20
-5.56723942829556
 10
0.391946454003567
 20
-5.56563964685065
 10
0.393546235448479
 20
-5.56403986540573
 10
0.395146016893392
 20
-5.56244008396082
 10
0.396745798338304
 20
-5.56084030251591
 10
0.398345579783217
 20
-5.559240521071
 10
0.399945361228129
 20
-5.55764073962608
 10
0.403144924117954
 20
-5.55604095818117
 10
0.404744705562867
 20
-5.55444117673626
 10
0.406344487007779
 20
-5.55284139529135
 10
0.407944268452692
 20
-5.55124161384643
 10
0.409544049897604
 20
-5.54964183240152
 10
0.412743612787429
 20
-5.54804205095661
 10
0.414343394232342
 20
-5.5464422695117
 10
0.415943175677254
 20
-5.54484248806678
 10
0.417542957122167
 20
-5.54324270662187
 10
0.420742520011992
 20
-5.54164292517696
 10
0.422342301456904
 20
-5.54164292517696
 10
0.423942082901817
 20
-5.54004314373205
 10
0.425541864346729
 20
-5.53844336228713
 10
0.428741427236554
 20
-5.53684358084222
 10
0.430341208681467
 20
-5.53524379939731
 10
0.43194099012638
 20
-5.5336440179524
 10
0.435140553016205
 20
-5.53204423650748
 10
0.436740334461117
 20
-5.53204423650748
 10
0.43834011590603
 20
-5.53044445506257
 10
0.441539678795855
 20
-5.52884467361766
 10
0.443139460240767
 20
-5.52724489217274
 10
0.44473924168568
 20
-5.52724489217274
 10
0.447938804575505
 20
-5.52564511072783
 10
0.449538586020417
 20
-5.52404532928292
 10
0.45113836746533
 20
-5.52244554783801
 10
0.454337930355155
 20
-5.52244554783801
 10
0.455937711800067
 20
-5.5208457663931
 10
0.45753749324498
 20
-5.51924598494818
 10
0.460737056134805
 20
-5.51924598494818
 10
0.462336837579717
 20
-5.51764620350327
 10
0.46393661902463
 20
-5.51604642205836
 10
0.467136181914455
 20
-5.51604642205836
 10
0.468735963359367
 20
-5.51444664061345
 10
0.471935526249192
 20
-5.51284685916853
 10
0.473535307694105
 20
-5.51284685916853
 10
0.475135089139017
 20
-5.51124707772362
 10
0.478334652028842
 20
-5.50964729627871
 10
0.479934433473755
 20
-5.50964729627871
 10
0.48313399636358
 20
-5.5080475148338
 10
0.484733777808493
 20
-5.5080475148338
 10
0.487933340698318
 20
-5.50644773338888
 10
0.48953312214323
 20
-5.50644773338888
 10
0.491132903588143
 20
-5.50484795194397
 10
0.494332466477968
 20
-5.50484795194397
 10
0.49593224792288
 20
-5.50324817049906
 10
0.499131810812705
 20
-5.50324817049906
 10
0.500731592257618
 20
-5.50164838905414
 10
0.503931155147443
 20
-5.50164838905414
 10
0.505530936592355
 20
-5.50004860760923
 10
0.50873049948218
 20
-5.50004860760923
 10
0.510330280927093
 20
-5.49844882616432
 10
0.513529843816918
 20
-5.49844882616432
 10
0.51512962526183
 20
-5.49844882616432
 10
0.518329188151655
 20
-5.49684904471941
 10
0.519928969596568
 20
-5.49684904471941
 10
0.523128532486393
 20
-5.49524926327449
 10
0.524728313931305
 20
-5.49524926327449
 10
0.52792787682113
 20
-5.49524926327449
 10
0.529527658266043
 20
-5.49364948182958
 10
0.532727221155868
 20
-5.49364948182958
 10
0.534327002600781
 20
-5.49364948182958
 10
0.537526565490606
 20
-5.49364948182958
 10
0.539126346935518
 20
-5.49204970038467
 10
0.542325909825343
 20
-5.49204970038467
 10
0.543925691270256
 20
-5.49204970038467
 10
0.547125254160081
 20
-5.49044991893976
 10
0.548725035604993
 20
-5.49044991893976
 10
0.551924598494818
 20
-5.49044991893976
 10
0.553524379939731
 20
-5.49044991893976
 10
0.556723942829556
 20
-5.49044991893976
 10
0.558323724274468
 20
-5.48885013749484
 10
0.561523287164293
 20
-5.48885013749484
 10
0.563123068609206
 20
-5.48885013749484
 10
0.566322631499031
 20
-5.48885013749484
 10
0.567922412943943
 20
-5.48885013749484
 10
0.571121975833768
 20
-5.48885013749484
 10
0.572721757278681
 20
-5.48885013749484
 10
0.575921320168506
 20
-5.48885013749484
 10
0.577521101613418
 20
-5.48725035604993
 10
0.580720664503244
 20
-5.48725035604993
 10
0.582320445948156
 20
-5.48725035604993
 10
0.585520008837981
 20
-5.48725035604993
 10
0.588719571727806
 20
-5.48725035604993
 10
0.590319353172719
 20
-5.48725035604993
 10
0.593518916062544
 20
-5.48725035604993
 10
0.593518916062544
 20
-5.48885013749484
  0
LWPOLYLINE
  5
2E2
100
AcDbEntity
  8
0
100
AcDbPolyline
370
-2
 62
7
  6
CONTINUOUS
 38
0
 90
194
 70
0
 10
0.593518916062544
 20
-6.08716839789213
 10
0.590319353172719
 20
-6.08716839789213
 10
0.588719571727806
 20
-6.08716839789213
 10
0.585520008837981
 20
-6.08716839789213
 10
0.582320445948156
 20
-6.08716839789213
 10
0.580720664503244
 20
-6.08716839789213
 10
0.577521101613418
 20
-6.08716839789213
 10
0.575921320168506
 20
-6.08716839789213
 10
0.572721757278681
 20
-6.08716839789213
 10
0.571121975833768
 20
-6.08716839789213
 10
0.567922412943943
 20
-6.08556861644721
 10
0.566322631499031
 20
-6.08556861644721
 10
0.563123068609206
 20
-6.08556861644721
 10
0.561523287164293
 20
-6.08556861644721
 10
0.558323724274468
 20
-6.08556861644721
 10
0.556723942829556
 20
-6.08556861644721
 10
0.553524379939731
 20
-6.0839688350023
 10
0.551924598494818
 20
-6.0839688350023
 10
0.548725035604993
 20
-6.0839688350023
 10
0.547125254160081
 20
-6.0839688350023
 10
0.543925691270256
 20
-6.0839688350023
 10
0.542325909825343
 20
-6.08236905355739
 10
0.539126346935518
 20
-6.08236905355739
 10
0.537526565490606
 20
-6.08236905355739
 10
0.534327002600781
 20
-6.08076927211248
 10
0.532727221155868
 20
-6.08076927211248
 10
0.529527658266043
 20
-6.08076927211248
 10
0.52792787682113
 20
-6.07916949066756
 10
0.524728313931305
 20
-6.07916949066756
 10
0.523128532486393
 20
-6.07916949066756
 10
0.519928969596568
 20
-6.07756970922265
 10
0.518329188151655
 20
-6.07756970922265
 10
0.51512962526183
 20
-6.07756970922265
 10
0.513529843816918
 20
-6.07596992777774
 10
0.510330280927093
 20
-6.07596992777774
 10
0.50873049948218
 20
-6.07437014633283
 10
0.505530936592355
 20
-6.07437014633283
 10
0.503931155147443
 20
-6.07437014633283
 10
0.500731592257618
 20
-6.07277036488791
 10
0.499131810812705
 20
-6.07277036488791
 10
0.49593224792288
 20
-6.071170583443
 10
0.494332466477968
 20
-6.071170583443
 10
0.491132903588143
 20
-6.06957080199809
 10
0.48953312214323
 20
-6.06957080199809
 10
0.487933340698318
 20
-6.06797102055318
 10
0.484733777808493
 20
-6.06637123910826
 10
0.48313399636358
 20
-6.06637123910826
 10
0.479934433473755
 20
-6.06477145766335
 10
0.478334652028842
 20
-6.06477145766335
 10
0.475135089139017
 20
-6.06317167621844
 10
0.473535307694105
 20
-6.06317167621844
 10
0.471935526249192
 20
-6.06157189477353
 10
0.468735963359367
 20
-6.05997211332861
 10
0.467136181914455
 20
-6.05997211332861
 10
0.46393661902463
 20
-6.0583723318837
 10
0.462336837579717
 20
-6.05677255043879
 10
0.460737056134805
 20
-6.05677255043879
 10
0.45753749324498
 20
-6.05517276899388
 10
0.455937711800067
 20
-6.05357298754896
 10
0.454337930355155
 20
-6.05357298754896
 10
0.45113836746533
 20
-6.05197320610405
 10
0.449538586020417
 20
-6.05037342465914
 10
0.447938804575505
 20
-6.04877364321423
 10
0.44473924168568
 20
-6.04877364321423
 10
0.443139460240767
 20
-6.04717386176931
 10
0.441539678795855
 20
-6.0455740803244
 10
0.43834011590603
 20
-6.04397429887949
 10
0.436740334461117
 20
-6.04397429887949
 10
0.435140553016205
 20
-6.04237451743458
 10
0.43194099012638
 20
-6.04077473598966
 10
0.430341208681467
 20
-6.03917495454475
 10
0.428741427236554
 20
-6.03757517309984
 10
0.425541864346729
 20
-6.03597539165493
 10
0.423942082901817
 20
-6.03597539165493
 10
0.422342301456904
 20
-6.03437561021001
 10
0.420742520011992
 20
-6.0327758287651
 10
0.417542957122167
 20
-6.03117604732019
 10
0.415943175677254
 20
-6.02957626587528
 10
0.414343394232342
 20
-6.02797648443036
 10
0.412743612787429
 20
-6.02637670298545
 10
0.409544049897604
 20
-6.02477692154054
 10
0.407944268452692
 20
-6.02317714009562
 10
0.406344487007779
 20
-6.02157735865071
 10
0.404744705562867
 20
-6.0199775772058
 10
0.403144924117954
 20
-6.0199775772058
 10
0.399945361228129
 20
-6.01837779576089
 10
0.398345579783217
 20
-6.01677801431598
 10
0.396745798338304
 20
-6.01517823287106
 10
0.395146016893392
 20
-6.01357845142615
 10
0.393546235448479
 20
-6.01197866998124
 10
0.391946454003567
 20
-6.01037888853633
 10
0.390346672558654
 20
-6.0071793256465
 10
0.387147109668829
 20
-6.00557954420159
 10
0.385547328223917
 20
-6.00397976275668
 10
0.383947546779004
 20
-6.00237998131176
 10
0.382347765334091
 20
-6.00078019986685
 10
0.380747983889179
 20
-5.99918041842194
 10
0.379148202444266
 20
-5.99758063697703
 10
0.377548420999354
 20
-5.99598085553211
 10
0.375948639554441
 20
-5.9943810740872
 10
0.374348858109529
 20
-5.99278129264229
 10
0.372749076664616
 20
-5.99118151119737
 10
0.371149295219704
 20
-5.98958172975246
 10
0.369549513774791
 20
-5.98638216686264
 10
0.367949732329879
 20
-5.98478238541773
 10
0.366349950884966
 20
-5.98318260397281
 10
0.364750169440054
 20
-5.9815828225279
 10
0.363150387995141
 20
-5.97998304108299
 10
0.361550606550229
 20
-5.97838325963807
 10
0.359950825105316
 20
-5.97518369674825
 10
0.358351043660404
 20
-5.97358391530334
 10
0.356751262215491
 20
-5.97198413385842
 10
0.355151480770579
 20
-5.97038435241351
 10
0.353551699325666
 20
-5.9687845709686
 10
0.351951917880754
 20
-5.96558500807878
 10
0.350352136435841
 20
-5.96398522663386
 10
0.348752354990929
 20
-5.96238544518895
 10
0.347152573546016
 20
-5.96078566374404
 10
0.345552792101104
 20
-5.95758610085421
 10
0.343953010656191
 20
-5.9559863194093
 10
0.343953010656191
 20
-5.95438653796439
 10
0.342353229211279
 20
-5.95118697507456
 10
0.340753447766366
 20
-5.94958719362965
 10
0.339153666321454
 20
-5.94798741218474
 10
0.337553884876541
 20
-5.94638763073982
 10
0.335954103431629
 20
-5.94318806785
 10
0.335954103431629
 20
-5.94158828640509
 10
0.334354321986716
 20
-5.93998850496017
 10
0.332754540541803
 20
-5.93678894207035
 10
0.331154759096891
 20
-5.93518916062544
 10
0.331154759096891
 20
-5.93358937918052
 10
0.329554977651978
 20
-5.9303898162907
 10
0.327955196207066
 20
-5.92879003484579
 10
0.326355414762153
 20
-5.92719025340088
 10
0.326355414762153
 20
-5.92399069051105
 10
0.324755633317241
 20
-5.92239090906614
 10
0.323155851872328
 20
-5.92079112762122
 10
0.323155851872328
 20
-5.9175915647314
 10
0.321556070427416
 20
-5.91599178328649
 10
0.319956288982503
 20
-5.91279222039666
 10
0.319956288982503
 20
-5.91119243895175
 10
0.318356507537591
 20
-5.90959265750684
 10
0.316756726092678
 20
-5.90639309461701
 10
0.316756726092678
 20
-5.9047933131721
 10
0.315156944647766
 20
-5.90159375028227
 10
0.315156944647766
 20
-5.89999396883736
 10
0.313557163202853
 20
-5.89839418739245
 10
0.313557163202853
 20
-5.89519462450262
 10
0.311957381757941
 20
-5.89359484305771
 10
0.310357600313028
 20
-5.89039528016789
 10
0.310357600313028
 20
-5.88879549872297
 10
0.308757818868116
 20
-5.88559593583315
 10
0.308757818868116
 20
-5.88399615438824
 10
0.307158037423203
 20
-5.88079659149841
 10
0.307158037423203
 20
-5.8791968100535
 10
0.305558255978291
 20
-5.87759702860859
 10
0.305558255978291
 20
-5.87439746571876
 10
0.305558255978291
 20
-5.87279768427385
 10
0.303958474533378
 20
-5.86959812138402
 10
0.303958474533378
 20
-5.86799833993911
 10
0.302358693088466
 20
-5.86479877704929
 10
0.302358693088466
 20
-5.86319899560437
 10
0.302358693088466
 20
-5.85999943271455
 10
0.300758911643553
 20
-5.85839965126964
 10
0.300758911643553
 20
-5.85520008837981
 10
0.300758911643553
 20
-5.8536003069349
 10
0.299159130198641
 20
-5.85040074404507
 10
0.299159130198641
 20
-5.84880096260016
 10
0.299159130198641
 20
-5.84560139971034
 10
0.297559348753728
 20
-5.84400161826542
 10
0.297559348753728
 20
-5.8408020553756
 10
0.297559348753728
 20
-5.83920227393069
 10
0.295959567308816
 20
-5.83600271104086
 10
0.295959567308816
 20
-5.83440292959595
 10
0.295959567308816
 20
-5.83120336670612
 10
0.295959567308816
 20
-5.82960358526121
 10
0.295959567308816
 20
-5.82640402237139
 10
0.294359785863903
 20
-5.82480424092647
 10
0.294359785863903
 20
-5.82160467803665
 10
0.294359785863903
 20
-5.82000489659174
 10
0.294359785863903
 20
-5.81680533370191
 10
0.294359785863903
 20
-5.81360577081209
 10
0.294359785863903
 20
-5.81200598936717
 10
0.292760004418991
 20
-5.80880642647735
 10
0.292760004418991
 20
-5.80720664503244
 10
0.292760004418991
 20
-5.80400708214261
 10
0.292760004418991
 20
-5.8024073006977
 10
0.292760004418991
 20
-5.79920773780787
 10
0.292760004418991
 20
-5.79760795636296
 10
0.292760004418991
 20
-5.79440839347314
 10
0.292760004418991
 20
-5.79280861202822
 10
0.292760004418991
 20
-5.7896090491384
 10
0.292760004418991
 20
-5.78800926769349
 10
0.292760004418991
 20
-5.7896090491384
  0
LWPOLYLINE
  5
3A5
100
AcDbEntity
  8
0
100
AcDbPolyline
370
-2
 62
7
  6
CONTINUOUS
 38
0
 90
26
 70
0
 10
0.729500338880108
 20
-6.08716839789213
 10
0.723101213100458
 20
-6.08716839789213
 10
0.716702087320808
 20
-6.08716839789213
 10
0.71190274298607
 20
-6.08716839789213
 10
0.70550361720642
 20
-6.08716839789213
 10
0.700704272871682
 20
-6.08716839789213
 10
0.694305147092032
 20
-6.08716839789213
 10
0.689505802757295
 20
-6.08716839789213
 10
0.683106676977645
 20
-6.08716839789213
 10
0.678307332642907
 20
-6.08716839789213
 10
0.671908206863257
 20
-6.08716839789213
 10
0.66710886252852
 20
-6.08716839789213
 10
0.66070973674887
 20
-6.08716839789213
 10
0.655910392414132
 20
-6.08716839789213
 10
0.649511266634482
 20
-6.08716839789213
 10
0.643112140854832
 20
-6.08716839789213
 10
0.638312796520094
 20
-6.08716839789213
 10
0.631913670740444
 20
-6.08716839789213
 10
0.627114326405706
 20
-6.08716839789213
 10
0.620715200626056
 20
-6.08716839789213
 10
0.615915856291319
 20
-6.08716839789213
 10
0.609516730511669
 20
-6.08716839789213
 10
0.604717386176931
 20
-6.08716839789213
 10
0.598318260397281
 20
-6.08716839789213
 10
0.593518916062544
 20
-6.08716839789213
 10
0.593518916062544
 20
-6.08876817933704
  0
LWPOLYLINE
  5
3C0
100
AcDbEntity
  8
0
100
AcDbPolyline
370
-2
 62
7
  6
CONTINUOUS
 38
0
 90
26
 70
0
 10
0.863881980252759
 20
-6.08716839789213
 10
0.859082635918022
 20
-6.08716839789213
 10
0.852683510138371
 20
-6.08716839789213
 10
0.847884165803634
 20
-6.08716839789213
 10
0.841485040023984
 20
-6.08716839789213
 10
0.836685695689246
 20
-6.08716839789213
 10
0.830286569909596
 20
-6.08716839789213
 10
0.825487225574859
 20
-6.08716839789213
 10
0.819088099795209
 20
-6.08716839789213
 10
0.814288755460471
 20
-6.08716839789213
 10
0.807889629680821
 20
-6.08716839789213
 10
0.803090285346083
 20
-6.08716839789213
 10
0.796691159566433
 20
-6.08716839789213
 10
0.790292033786783
 20
-6.08716839789213
 10
0.785492689452046
 20
-6.08716839789213
 10
0.779093563672396
 20
-6.08716839789213
 10
0.774294219337658
 20
-6.08716839789213
 10
0.767895093558008
 20
-6.08716839789213
 10
0.763095749223271
 20
-6.08716839789213
 10
0.75669662344362
 20
-6.08716839789213
 10
0.751897279108883
 20
-6.08716839789213
 10
0.745498153329233
 20
-6.08716839789213
 10
0.740698808994495
 20
-6.08716839789213
 10
0.734299683214845
 20
-6.08716839789213
 10
0.729500338880108
 20
-6.08716839789213
 10
0.729500338880108
 20
-6.08876817933704
  0
LWPOLYLINE
  5
3DB
100
AcDbEntity
  8
0
100
AcDbPolyline
370
-2
 62
7
  6
CONTINUOUS
 38
0
 90
26
 70
0
 10
0.729500338880108
 20
-6.08236905355739
 10
0.723101213100458
 20
-6.08236905355739
 10
0.716702087320808
 20
-6.08236905355739
 10
0.71190274298607
 20
-6.08236905355739
 10
0.70550361720642
 20
-6.08236905355739
 10
0.700704272871682
 20
-6.08236905355739
 10
0.694305147092032
 20
-6.08236905355739
 10
0.689505802757295
 20
-6.08236905355739
 10
0.683106676977645
 20
-6.08236905355739
 10
0.678307332642907
 20
-6.08236905355739
 10
0.671908206863257
 20
-6.08236905355739
 10
0.66710886252852
 20
-6.08236905355739
 10
0.66070973674887
 20
-6.08236905355739
 10
0.655910392414132
 20
-6.08236905355739
 10
0.649511266634482
 20
-6.08236905355739
 10
0.643112140854832
 20
-6.08236905355739
 10
0.638312796520094
 20
-6.08236905355739
 10
0.631913670740444
 20
-6.08236905355739
 10
0.627114326405706
 20
-6.08236905355739
 10
0.620715200626056
 20
-6.08236905355739
 10
0.615915856291319
 20
-6.08236905355739
 10
0.609516730511669
 20
-6.08236905355739
 10
0.604717386176931
 20
-6.08236905355739
 10
0.598318260397281
 20
-6.08236905355739
 10
0.593518916062544
 20
-6.08236905355739
 10
0.593518916062544
 20
-6.0839688350023
  0
LWPOLYLINE
  5
3F6
100
AcDbEntity
  8
0
100
AcDbPolyline
370
-2
 62
7
  6
CONTINUOUS
 38
0
 90
194
 70
0
 10
0.593518916062544
 20
-6.08236905355739
 10
0.590319353172719
 20
-6.08236905355739
 10
0.588719571727806
 20
-6.08236905355739
 10
0.585520008837981
 20
-6.08236905355739
 10
0.583920227393069
 20
-6.08236905355739
 10
0.580720664503244
 20
-6.08236905355739
 10
0.579120883058331
 20
-6.08236905355739
 10
0.575921320168506
 20
-6.08236905355739
 10
0.574321538723593
 20
-6.08236905355739
 10
0.571121975833768
 20
-6.08236905355739
 10
0.569522194388856
 20
-6.08236905355739
 10
0.566322631499031
 20
-6.08076927211248
 10
0.564722850054118
 20
-6.08076927211248
 10
0.561523287164293
 20
-6.08076927211248
 10
0.559923505719381
 20
-6.08076927211248
 10
0.556723942829556
 20
-6.08076927211248
 10
0.555124161384643
 20
-6.08076927211248
 10
0.551924598494818
 20
-6.07916949066756
 10
0.550324817049906
 20
-6.07916949066756
 10
0.547125254160081
 20
-6.07916949066756
 10
0.545525472715168
 20
-6.07916949066756
 10
0.542325909825343
 20
-6.07756970922265
 10
0.540726128380431
 20
-6.07756970922265
 10
0.537526565490606
 20
-6.07756970922265
 10
0.535926784045693
 20
-6.07756970922265
 10
0.532727221155868
 20
-6.07596992777774
 10
0.531127439710956
 20
-6.07596992777774
 10
0.52792787682113
 20
-6.07596992777774
 10
0.526328095376218
 20
-6.07437014633283
 10
0.523128532486393
 20
-6.07437014633283
 10
0.52152875104148
 20
-6.07437014633283
 10
0.518329188151655
 20
-6.07277036488791
 10
0.516729406706743
 20
-6.07277036488791
 10
0.513529843816918
 20
-6.071170583443
 10
0.511930062372005
 20
-6.071170583443
 10
0.50873049948218
 20
-6.071170583443
 10
0.507130718037268
 20
-6.06957080199809
 10
0.505530936592355
 20
-6.06957080199809
 10
0.50233137370253
 20
-6.06797102055318
 10
0.500731592257618
 20
-6.06797102055318
 10
0.497532029367793
 20
-6.06637123910826
 10
0.49593224792288
 20
-6.06637123910826
 10
0.492732685033055
 20
-6.06477145766335
 10
0.491132903588143
 20
-6.06477145766335
 10
0.48953312214323
 20
-6.06317167621844
 10
0.486333559253405
 20
-6.06317167621844
 10
0.484733777808493
 20
-6.06157189477353
 10
0.481534214918668
 20
-6.06157189477353
 10
0.479934433473755
 20
-6.05997211332861
 10
0.478334652028842
 20
-6.0583723318837
 10
0.475135089139017
 20
-6.0583723318837
 10
0.473535307694105
 20
-6.05677255043879
 10
0.47033574480428
 20
-6.05677255043879
 10
0.468735963359367
 20
-6.05517276899388
 10
0.467136181914455
 20
-6.05357298754896
 10
0.46393661902463
 20
-6.05357298754896
 10
0.462336837579717
 20
-6.05197320610405
 10
0.460737056134805
 20
-6.05037342465914
 10
0.45753749324498
 20
-6.05037342465914
 10
0.455937711800067
 20
-6.04877364321423
 10
0.454337930355155
 20
-6.04717386176931
 10
0.45113836746533
 20
-6.04717386176931
 10
0.449538586020417
 20
-6.0455740803244
 10
0.447938804575505
 20
-6.04397429887949
 10
0.44473924168568
 20
-6.04237451743458
 10
0.443139460240767
 20
-6.04237451743458
 10
0.441539678795855
 20
-6.04077473598966
 10
0.43834011590603
 20
-6.03917495454475
 10
0.436740334461117
 20
-6.03757517309984
 10
0.435140553016205
 20
-6.03597539165493
 10
0.433540771571292
 20
-6.03597539165493
 10
0.430341208681467
 20
-6.03437561021001
 10
0.428741427236554
 20
-6.0327758287651
 10
0.427141645791642
 20
-6.03117604732019
 10
0.425541864346729
 20
-6.02957626587528
 10
0.422342301456904
 20
-6.02797648443036
 10
0.420742520011992
 20
-6.02797648443036
 10
0.419142738567079
 20
-6.02637670298545
 10
0.417542957122167
 20
-6.02477692154054
 10
0.414343394232342
 20
-6.02317714009562
 10
0.412743612787429
 20
-6.02157735865071
 10
0.411143831342517
 20
-6.0199775772058
 10
0.409544049897604
 20
-6.01837779576089
 10
0.407944268452692
 20
-6.01677801431598
 10
0.406344487007779
 20
-6.01517823287106
 10
0.403144924117954
 20
-6.01357845142615
 10
0.401545142673042
 20
-6.01197866998124
 10
0.399945361228129
 20
-6.01037888853633
 10
0.398345579783217
 20
-6.00877910709141
 10
0.396745798338304
 20
-6.0071793256465
 10
0.395146016893392
 20
-6.00557954420159
 10
0.393546235448479
 20
-6.00397976275668
 10
0.390346672558654
 20
-6.00237998131176
 10
0.388746891113742
 20
-6.00078019986685
 10
0.387147109668829
 20
-5.99918041842194
 10
0.385547328223917
 20
-5.99758063697703
 10
0.383947546779004
 20
-5.99598085553211
 10
0.382347765334091
 20
-5.9943810740872
 10
0.380747983889179
 20
-5.99278129264229
 10
0.379148202444266
 20
-5.99118151119737
 10
0.377548420999354
 20
-5.98958172975246
 10
0.375948639554441
 20
-5.98798194830755
 10
0.374348858109529
 20
-5.98638216686264
 10
0.372749076664616
 20
-5.98318260397281
 10
0.371149295219704
 20
-5.9815828225279
 10
0.369549513774791
 20
-5.97998304108299
 10
0.367949732329879
 20
-5.97838325963807
 10
0.366349950884966
 20
-5.97678347819316
 10
0.364750169440054
 20
-5.97518369674825
 10
0.363150387995141
 20
-5.97358391530334
 10
0.361550606550229
 20
-5.97038435241351
 10
0.359950825105316
 20
-5.9687845709686
 10
0.358351043660404
 20
-5.96718478952369
 10
0.356751262215491
 20
-5.96558500807878
 10
0.355151480770579
 20
-5.96398522663386
 10
0.353551699325666
 20
-5.96078566374404
 10
0.353551699325666
 20
-5.95918588229912
 10
0.351951917880754
 20
-5.95758610085421
 10
0.350352136435841
 20
-5.9559863194093
 10
0.348752354990929
 20
-5.95278675651948
 10
0.347152573546016
 20
-5.95118697507456
 10
0.345552792101104
 20
-5.94958719362965
 10
0.343953010656191
 20
-5.94798741218474
 10
0.343953010656191
 20
-5.94478784929491
 10
0.342353229211279
 20
-5.94318806785
 10
0.340753447766366
 20
-5.94158828640509
 10
0.339153666321454
 20
-5.93838872351526
 10
0.337553884876541
 20
-5.93678894207035
 10
0.337553884876541
 20
-5.93518916062544
 10
0.335954103431629
 20
-5.93358937918052
 10
0.334354321986716
 20
-5.9303898162907
 10
0.332754540541803
 20
-5.92879003484579
 10
0.332754540541803
 20
-5.92719025340088
 10
0.331154759096891
 20
-5.92399069051105
 10
0.329554977651978
 20
-5.92239090906614
 10
0.329554977651978
 20
-5.92079112762122
 10
0.327955196207066
 20
-5.9175915647314
 10
0.326355414762153
 20
-5.91599178328649
 10
0.326355414762153
 20
-5.91439200184157
 10
0.324755633317241
 20
-5.91119243895175
 10
0.323155851872328
 20
-5.90959265750684
 10
0.323155851872328
 20
-5.90639309461701
 10
0.321556070427416
 20
-5.9047933131721
 10
0.321556070427416
 20
-5.90319353172719
 10
0.319956288982503
 20
-5.89999396883736
 10
0.318356507537591
 20
-5.89839418739245
 10
0.318356507537591
 20
-5.89519462450262
 10
0.316756726092678
 20
-5.89359484305771
 10
0.316756726092678
 20
-5.8919950616128
 10
0.315156944647766
 20
-5.88879549872297
 10
0.315156944647766
 20
-5.88719571727806
 10
0.313557163202853
 20
-5.88399615438824
 10
0.313557163202853
 20
-5.88239637294332
 10
0.311957381757941
 20
-5.88079659149841
 10
0.311957381757941
 20
-5.87759702860859
 10
0.310357600313028
 20
-5.87599724716367
 10
0.310357600313028
 20
-5.87279768427385
 10
0.308757818868116
 20
-5.87119790282894
 10
0.308757818868116
 20
-5.86799833993911
 10
0.308757818868116
 20
-5.8663985584942
 10
0.307158037423203
 20
-5.86319899560437
 10
0.307158037423203
 20
-5.86159921415946
 10
0.305558255978291
 20
-5.85839965126964
 10
0.305558255978291
 20
-5.85679986982472
 10
0.305558255978291
 20
-5.85520008837981
 10
0.303958474533378
 20
-5.85200052548999
 10
0.303958474533378
 20
-5.85040074404507
 10
0.303958474533378
 20
-5.84720118115525
 10
0.302358693088466
 20
-5.84560139971034
 10
0.302358693088466
 20
-5.84240183682051
 10
0.302358693088466
 20
-5.8408020553756
 10
0.302358693088466
 20
-5.83760249248577
 10
0.300758911643553
 20
-5.83600271104086
 10
0.300758911643553
 20
-5.83280314815104
 10
0.300758911643553
 20
-5.83120336670612
 10
0.300758911643553
 20
-5.8280038038163
 10
0.299159130198641
 20
-5.82640402237139
 10
0.299159130198641
 20
-5.82320445948156
 10
0.299159130198641
 20
-5.82160467803665
 10
0.299159130198641
 20
-5.81840511514682
 10
0.299159130198641
 20
-5.81680533370191
 10
0.299159130198641
 20
-5.81360577081209
 10
0.299159130198641
 20
-5.81200598936717
 10
0.297559348753728
 20
-5.80880642647735
 10
0.297559348753728
 20
-5.80720664503244
 10
0.297559348753728
 20
-5.80400708214261
 10
0.297559348753728
 20
-5.8024073006977
 10
0.297559348753728
 20
-5.79920773780787
 10
0.297559348753728
 20
-5.79760795636296
 10
0.297559348753728
 20
-5.79440839347314
 10
0.297559348753728
 20
-5.79280861202822
 10
0.297559348753728
 20
-5.7896090491384
 10
0.297559348753728
 20
-5.78800926769349
 10
0.297559348753728
 20
-5.7896090491384
  0
LWPOLYLINE
  5
4B9
100
AcDbEntity
  8
0
100
AcDbPolyline
370
-2
 62
7
  6
CONTINUOUS
 38
0
 90
194
 70
0
 10
0.297559348753728
 20
-5.78800926769349
 10
0.297559348753728
 20
-5.78480970480366
 10
0.297559348753728
 20
-5.78320992335875
 10
0.297559348753728
 20
-5.78001036046892
 10
0.297559348753728
 20
-5.77841057902401
 10
0.297559348753728
 20
-5.77521101613418
 10
0.297559348753728
 20
-5.77361123468927
 10
0.297559348753728
 20
-5.77041167179945
 10
0.297559348753728
 20
-5.76881189035454
 10
0.297559348753728
 20
-5.76561232746471
 10
0.299159130198641
 20
-5.7640125460198
 10
0.299159130198641
 20
-5.76081298312997
 10
0.299159130198641
 20
-5.75921320168506
 10
0.299159130198641
 20
-5.75601363879524
 10
0.299159130198641
 20
-5.75441385735032
 10
0.299159130198641
 20
-5.7512142944605
 10
0.299159130198641
 20
-5.74961451301558
 10
0.300758911643553
 20
-5.74641495012576
 10
0.300758911643553
 20
-5.74481516868085
 10
0.300758911643553
 20
-5.74161560579102
 10
0.300758911643553
 20
-5.74001582434611
 10
0.302358693088466
 20
-5.73681626145629
 10
0.302358693088466
 20
-5.73521648001137
 10
0.302358693088466
 20
-5.73201691712155
 10
0.302358693088466
 20
-5.73041713567664
 10
0.303958474533378
 20
-5.72721757278681
 10
0.303958474533378
 20
-5.7256177913419
 10
0.303958474533378
 20
-5.72241822845207
 10
0.305558255978291
 20
-5.72081844700716
 10
0.305558255978291
 20
-5.71761888411734
 10
0.305558255978291
 20
-5.71601910267242
 10
0.307158037423203
 20
-5.7128195397826
 10
0.307158037423203
 20
-5.71121975833769
 10
0.308757818868116
 20
-5.70802019544786
 10
0.308757818868116
 20
-5.70642041400295
 10
0.308757818868116
 20
-5.70322085111312
 10
0.310357600313028
 20
-5.70162106966821
 10
0.310357600313028
 20
-5.7000212882233
 10
0.311957381757941
 20
-5.69682172533347
 10
0.311957381757941
 20
-5.69522194388856
 10
0.313557163202853
 20
-5.69202238099873
 10
0.313557163202853
 20
-5.69042259955382
 10
0.315156944647766
 20
-5.687223036664
 10
0.315156944647766
 20
-5.68562325521908
 10
0.316756726092678
 20
-5.68402347377417
 10
0.316756726092678
 20
-5.68082391088435
 10
0.318356507537591
 20
-5.67922412943943
 10
0.318356507537591
 20
-5.67602456654961
 10
0.319956288982503
 20
-5.6744247851047
 10
0.321556070427416
 20
-5.67282500365978
 10
0.321556070427416
 20
-5.66962544076996
 10
0.323155851872328
 20
-5.66802565932505
 10
0.323155851872328
 20
-5.66482609643522
 10
0.324755633317241
 20
-5.66322631499031
 10
0.326355414762153
 20
-5.6616265335454
 10
0.326355414762153
 20
-5.65842697065557
 10
0.327955196207066
 20
-5.65682718921066
 10
0.329554977651978
 20
-5.65522740776575
 10
0.329554977651978
 20
-5.65202784487592
 10
0.331154759096891
 20
-5.65042806343101
 10
0.332754540541803
 20
-5.6488282819861
 10
0.332754540541803
 20
-5.64562871909627
 10
0.334354321986716
 20
-5.64402893765136
 10
0.335954103431629
 20
-5.64242915620645
 10
0.337553884876541
 20
-5.63922959331662
 10
0.337553884876541
 20
-5.63762981187171
 10
0.339153666321454
 20
-5.6360300304268
 10
0.340753447766366
 20
-5.63283046753697
 10
0.342353229211279
 20
-5.63123068609206
 10
0.343953010656191
 20
-5.62963090464715
 10
0.343953010656191
 20
-5.62803112320223
 10
0.345552792101104
 20
-5.62483156031241
 10
0.347152573546016
 20
-5.6232317788675
 10
0.348752354990929
 20
-5.62163199742258
 10
0.350352136435841
 20
-5.62003221597767
 10
0.351951917880754
 20
-5.61683265308785
 10
0.353551699325666
 20
-5.61523287164293
 10
0.353551699325666
 20
-5.61363309019802
 10
0.355151480770579
 20
-5.61203330875311
 10
0.356751262215491
 20
-5.6104335273082
 10
0.358351043660404
 20
-5.60723396441837
 10
0.359950825105316
 20
-5.60563418297346
 10
0.361550606550229
 20
-5.60403440152855
 10
0.363150387995141
 20
-5.60243462008363
 10
0.364750169440054
 20
-5.60083483863872
 10
0.366349950884966
 20
-5.5976352757489
 10
0.367949732329879
 20
-5.59603549430398
 10
0.369549513774791
 20
-5.59443571285907
 10
0.371149295219704
 20
-5.59283593141416
 10
0.372749076664616
 20
-5.59123614996925
 10
0.374348858109529
 20
-5.58963636852433
 10
0.375948639554441
 20
-5.58803658707942
 10
0.377548420999354
 20
-5.5848370241896
 10
0.379148202444266
 20
-5.58323724274468
 10
0.380747983889179
 20
-5.58163746129977
 10
0.382347765334091
 20
-5.58003767985486
 10
0.383947546779004
 20
-5.57843789840995
 10
0.385547328223917
 20
-5.57683811696503
 10
0.387147109668829
 20
-5.57523833552012
 10
0.388746891113742
 20
-5.57363855407521
 10
0.390346672558654
 20
-5.5720387726303
 10
0.393546235448479
 20
-5.57043899118538
 10
0.395146016893392
 20
-5.56883920974047
 10
0.396745798338304
 20
-5.56723942829556
 10
0.398345579783217
 20
-5.56563964685065
 10
0.399945361228129
 20
-5.56403986540573
 10
0.401545142673042
 20
-5.56244008396082
 10
0.403144924117954
 20
-5.56084030251591
 10
0.406344487007779
 20
-5.559240521071
 10
0.407944268452692
 20
-5.55764073962608
 10
0.409544049897604
 20
-5.55604095818117
 10
0.411143831342517
 20
-5.55444117673626
 10
0.412743612787429
 20
-5.55284139529135
 10
0.414343394232342
 20
-5.55124161384643
 10
0.417542957122167
 20
-5.54964183240152
 10
0.419142738567079
 20
-5.54964183240152
 10
0.420742520011992
 20
-5.54804205095661
 10
0.422342301456904
 20
-5.5464422695117
 10
0.425541864346729
 20
-5.54484248806678
 10
0.427141645791642
 20
-5.54324270662187
 10
0.428741427236554
 20
-5.54164292517696
 10
0.430341208681467
 20
-5.54004314373205
 10
0.433540771571292
 20
-5.54004314373205
 10
0.435140553016205
 20
-5.53844336228713
 10
0.436740334461117
 20
-5.53684358084222
 10
0.43834011590603
 20
-5.53524379939731
 10
0.441539678795855
 20
-5.5336440179524
 10
0.443139460240767
 20
-5.5336440179524
 10
0.44473924168568
 20
-5.53204423650748
 10
0.447938804575505
 20
-5.53044445506257
 10
0.449538586020417
 20
-5.52884467361766
 10
0.45113836746533
 20
-5.52884467361766
 10
0.454337930355155
 20
-5.52724489217274
 10
0.455937711800067
 20
-5.52564511072783
 10
0.45753749324498
 20
-5.52564511072783
 10
0.460737056134805
 20
-5.52404532928292
 10
0.462336837579717
 20
-5.52244554783801
 10
0.46393661902463
 20
-5.52244554783801
 10
0.467136181914455
 20
-5.5208457663931
 10
0.468735963359367
 20
-5.51924598494818
 10
0.47033574480428
 20
-5.51924598494818
 10
0.473535307694105
 20
-5.51764620350327
 10
0.475135089139017
 20
-5.51604642205836
 10
0.478334652028842
 20
-5.51604642205836
 10
0.479934433473755
 20
-5.51444664061345
 10
0.481534214918668
 20
-5.51444664061345
 10
0.484733777808493
 20
-5.51284685916853
 10
0.486333559253405
 20
-5.51284685916853
 10
0.48953312214323
 20
-5.51124707772362
 10
0.491132903588143
 20
-5.50964729627871
 10
0.492732685033055
 20
-5.50964729627871
 10
0.49593224792288
 20
-5.5080475148338
 10
0.497532029367793
 20
-5.5080475148338
 10
0.500731592257618
 20
-5.50644773338888
 10
0.50233137370253
 20
-5.50644773338888
 10
0.505530936592355
 20
-5.50644773338888
 10
0.507130718037268
 20
-5.50484795194397
 10
0.50873049948218
 20
-5.50484795194397
 10
0.511930062372005
 20
-5.50324817049906
 10
0.513529843816918
 20
-5.50324817049906
 10
0.516729406706743
 20
-5.50164838905414
 10
0.518329188151655
 20
-5.50164838905414
 10
0.52152875104148
 20
-5.50164838905414
 10
0.523128532486393
 20
-5.50004860760923
 10
0.526328095376218
 20
-5.50004860760923
 10
0.52792787682113
 20
-5.50004860760923
 10
0.531127439710956
 20
-5.49844882616432
 10
0.532727221155868
 20
-5.49844882616432
 10
0.535926784045693
 20
-5.49844882616432
 10
0.537526565490606
 20
-5.49684904471941
 10
0.540726128380431
 20
-5.49684904471941
 10
0.542325909825343
 20
-5.49684904471941
 10
0.545525472715168
 20
-5.49684904471941
 10
0.547125254160081
 20
-5.49524926327449
 10
0.550324817049906
 20
-5.49524926327449
 10
0.551924598494818
 20
-5.49524926327449
 10
0.555124161384643
 20
-5.49524926327449
 10
0.556723942829556
 20
-5.49524926327449
 10
0.559923505719381
 20
-5.49364948182958
 10
0.561523287164293
 20
-5.49364948182958
 10
0.564722850054118
 20
-5.49364948182958
 10
0.566322631499031
 20
-5.49364948182958
 10
0.569522194388856
 20
-5.49364948182958
 10
0.571121975833768
 20
-5.49364948182958
 10
0.574321538723593
 20
-5.49364948182958
 10
0.575921320168506
 20
-5.49204970038467
 10
0.579120883058331
 20
-5.49204970038467
 10
0.580720664503244
 20
-5.49204970038467
 10
0.583920227393069
 20
-5.49204970038467
 10
0.585520008837981
 20
-5.49204970038467
 10
0.588719571727806
 20
-5.49204970038467
 10
0.590319353172719
 20
-5.49204970038467
 10
0.593518916062544
 20
-5.49204970038467
 10
0.593518916062544
 20
-5.49364948182958
  0
LWPOLYLINE
  5
57C
100
AcDbEntity
  8
0
100
AcDbPolyline
370
-2
 62
7
  6
CONTINUOUS
 38
0
 90
58
 70
0
 10
0.747097934774145
 20
-5.50004860760923
 10
0.747097934774145
 20
-5.50004860760923
 10
0.745498153329233
 20
-5.50164838905414
 10
0.745498153329233
 20
-5.50164838905414
 10
0.74389837188432
 20
-5.50164838905414
 10
0.74389837188432
 20
-5.50164838905414
 10
0.742298590439408
 20
-5.50164838905414
 10
0.742298590439408
 20
-5.50164838905414
 10
0.742298590439408
 20
-5.50164838905414
 10
0.740698808994495
 20
-5.50164838905414
 10
0.740698808994495
 20
-5.50164838905414
 10
0.740698808994495
 20
-5.50164838905414
 10
0.739099027549583
 20
-5.50164838905414
 10
0.739099027549583
 20
-5.50164838905414
 10
0.73749924610467
 20
-5.50164838905414
 10
0.73749924610467
 20
-5.50164838905414
 10
0.735899464659758
 20
-5.50164838905414
 10
0.735899464659758
 20
-5.50164838905414
 10
0.735899464659758
 20
-5.50164838905414
 10
0.734299683214845
 20
-5.50164838905414
 10
0.734299683214845
 20
-5.50164838905414
 10
0.732699901769933
 20
-5.50164838905414
 10
0.732699901769933
 20
-5.50164838905414
 10
0.73110012032502
 20
-5.50164838905414
 10
0.73110012032502
 20
-5.50164838905414
 10
0.729500338880108
 20
-5.50324817049906
 10
0.729500338880108
 20
-5.50324817049906
 10
0.729500338880108
 20
-5.50324817049906
 10
0.727900557435195
 20
-5.50324817049906
 10
0.727900557435195
 20
-5.50324817049906
 10
0.727900557435195
 20
-5.50324817049906
 10
0.726300775990283
 20
-5.50164838905414
 10
0.726300775990283
 20
-5.50164838905414
 10
0.726300775990283
 20
-5.50164838905414
 10
0.72470099454537
 20
-5.50164838905414
 10
0.72470099454537
 20
-5.50164838905414
 10
0.723101213100458
 20
-5.50164838905414
 10
0.723101213100458
 20
-5.50164838905414
 10
0.721501431655545
 20
-5.50164838905414
 10
0.721501431655545
 20
-5.50164838905414
 10
0.721501431655545
 20
-5.50164838905414
 10
0.719901650210633
 20
-5.50164838905414
 10
0.719901650210633
 20
-5.50164838905414
 10
0.71830186876572
 20
-5.50164838905414
 10
0.71830186876572
 20
-5.50164838905414
 10
0.716702087320808
 20
-5.50164838905414
 10
0.716702087320808
 20
-5.50164838905414
 10
0.716702087320808
 20
-5.50164838905414
 10
0.715102305875895
 20
-5.50164838905414
 10
0.715102305875895
 20
-5.50164838905414
 10
0.713502524430983
 20
-5.50164838905414
 10
0.713502524430983
 20
-5.50164838905414
 10
0.71190274298607
 20
-5.50164838905414
 10
0.71190274298607
 20
-5.50164838905414
 10
0.71190274298607
 20
-5.50164838905414
 10
0.710302961541158
 20
-5.50004860760923
 10
0.710302961541158
 20
-5.50004860760923
 10
0.710302961541158
 20
-5.50164838905414
  0
LWPOLYLINE
  5
5B7
100
AcDbEntity
  8
0
100
AcDbPolyline
370
-2
 62
7
  6
CONTINUOUS
 38
0
 90
194
 70
0
 10
0.863881980252759
 20
-5.49204970038467
 10
0.867081543142584
 20
-5.49204970038467
 10
0.868681324587497
 20
-5.49204970038467
 10
0.871880887477322
 20
-5.49204970038467
 10
0.873480668922234
 20
-5.49204970038467
 10
0.876680231812059
 20
-5.49204970038467
 10
0.878280013256972
 20
-5.49204970038467
 10
0.881479576146797
 20
-5.49204970038467
 10
0.884679139036622
 20
-5.49364948182958
 10
0.886278920481534
 20
-5.49364948182958
 10
0.889478483371359
 20
-5.49364948182958
 10
0.891078264816272
 20
-5.49364948182958
 10
0.894277827706097
 20
-5.49364948182958
 10
0.895877609151009
 20
-5.49364948182958
 10
0.899077172040834
 20
-5.49364948182958
 10
0.900676953485747
 20
-5.49524926327449
 10
0.903876516375572
 20
-5.49524926327449
 10
0.905476297820484
 20
-5.49524926327449
 10
0.90867586071031
 20
-5.49524926327449
 10
0.910275642155222
 20
-5.49524926327449
 10
0.913475205045047
 20
-5.49684904471941
 10
0.91507498648996
 20
-5.49684904471941
 10
0.916674767934872
 20
-5.49684904471941
 10
0.919874330824697
 20
-5.49684904471941
 10
0.92147411226961
 20
-5.49844882616432
 10
0.924673675159435
 20
-5.49844882616432
 10
0.926273456604347
 20
-5.49844882616432
 10
0.929473019494172
 20
-5.50004860760923
 10
0.931072800939085
 20
-5.50004860760923
 10
0.93427236382891
 20
-5.50004860760923
 10
0.935872145273822
 20
-5.50164838905414
 10
0.939071708163647
 20
-5.50164838905414
 10
0.94067148960856
 20
-5.50164838905414
 10
0.943871052498385
 20
-5.50324817049906
 10
0.945470833943297
 20
-5.50324817049906
 10
0.948670396833122
 20
-5.50484795194397
 10
0.950270178278035
 20
-5.50484795194397
 10
0.951869959722948
 20
-5.50644773338888
 10
0.955069522612773
 20
-5.50644773338888
 10
0.956669304057685
 20
-5.50644773338888
 10
0.95986886694751
 20
-5.5080475148338
 10
0.961468648392423
 20
-5.5080475148338
 10
0.964668211282248
 20
-5.50964729627871
 10
0.96626799272716
 20
-5.50964729627871
 10
0.967867774172073
 20
-5.51124707772362
 10
0.971067337061898
 20
-5.51284685916853
 10
0.97266711850681
 20
-5.51284685916853
 10
0.975866681396635
 20
-5.51444664061345
 10
0.977466462841548
 20
-5.51444664061345
 10
0.97906624428646
 20
-5.51604642205836
 10
0.982265807176285
 20
-5.51604642205836
 10
0.983865588621198
 20
-5.51764620350327
 10
0.987065151511023
 20
-5.51924598494818
 10
0.988664932955935
 20
-5.51924598494818
 10
0.990264714400848
 20
-5.5208457663931
 10
0.993464277290673
 20
-5.52244554783801
 10
0.995064058735585
 20
-5.52244554783801
 10
0.996663840180498
 20
-5.52404532928292
 10
0.999863403070323
 20
-5.52564511072783
 10
1.00146318451524
 20
-5.52564511072783
 10
1.00306296596015
 20
-5.52724489217274
 10
1.00626252884997
 20
-5.52884467361766
 10
1.00786231029489
 20
-5.52884467361766
 10
1.0094620917398
 20
-5.53044445506257
 10
1.01266165462962
 20
-5.53204423650748
 10
1.01426143607454
 20
-5.5336440179524
 10
1.01586121751945
 20
-5.5336440179524
 10
1.01906078040927
 20
-5.53524379939731
 10
1.02066056185419
 20
-5.53684358084222
 10
1.0222603432991
 20
-5.53844336228713
 10
1.02386012474401
 20
-5.54004314373205
 10
1.02705968763384
 20
-5.54004314373205
 10
1.02865946907875
 20
-5.54164292517696
 10
1.03025925052366
 20
-5.54324270662187
 10
1.03185903196857
 20
-5.54484248806678
 10
1.0350585948584
 20
-5.5464422695117
 10
1.03665837630331
 20
-5.54804205095661
 10
1.03825815774822
 20
-5.54964183240152
 10
1.03985793919314
 20
-5.54964183240152
 10
1.04305750208296
 20
-5.55124161384643
 10
1.04465728352787
 20
-5.55284139529135
 10
1.04625706497279
 20
-5.55444117673626
 10
1.0478568464177
 20
-5.55604095818117
 10
1.04945662786261
 20
-5.55764073962608
 10
1.05265619075244
 20
-5.559240521071
 10
1.05425597219735
 20
-5.56084030251591
 10
1.05585575364226
 20
-5.56244008396082
 10
1.05745553508717
 20
-5.56403986540573
 10
1.05905531653209
 20
-5.56563964685065
 10
1.060655097977
 20
-5.56723942829556
 10
1.06225487942191
 20
-5.56883920974047
 10
1.06545444231174
 20
-5.57043899118538
 10
1.06705422375665
 20
-5.5720387726303
 10
1.06865400520156
 20
-5.57363855407521
 10
1.07025378664647
 20
-5.57523833552012
 10
1.07185356809139
 20
-5.57683811696503
 10
1.0734533495363
 20
-5.57843789840995
 10
1.07505313098121
 20
-5.58003767985486
 10
1.07665291242612
 20
-5.58163746129977
 10
1.07825269387104
 20
-5.58323724274468
 10
1.07985247531595
 20
-5.58643680563451
 10
1.08145225676086
 20
-5.58803658707942
 10
1.08305203820577
 20
-5.58963636852433
 10
1.08465181965069
 20
-5.59123614996925
 10
1.0862516010956
 20
-5.59283593141416
 10
1.08785138254051
 20
-5.59443571285907
 10
1.08945116398542
 20
-5.59603549430398
 10
1.09105094543034
 20
-5.5976352757489
 10
1.09265072687525
 20
-5.60083483863872
 10
1.09425050832016
 20
-5.60243462008363
 10
1.09585028976507
 20
-5.60403440152855
 10
1.09745007120999
 20
-5.60563418297346
 10
1.0990498526549
 20
-5.60723396441837
 10
1.10064963409981
 20
-5.6104335273082
 10
1.10224941554472
 20
-5.61203330875311
 10
1.10384919698964
 20
-5.61363309019802
 10
1.10544897843455
 20
-5.61523287164293
 10
1.10544897843455
 20
-5.61683265308785
 10
1.10704875987946
 20
-5.62003221597767
 10
1.10864854132437
 20
-5.62163199742258
 10
1.11024832276929
 20
-5.6232317788675
 10
1.1118481042142
 20
-5.62483156031241
 10
1.11344788565911
 20
-5.62803112320223
 10
1.11344788565911
 20
-5.62963090464715
 10
1.11504766710402
 20
-5.63123068609206
 10
1.11664744854894
 20
-5.63283046753697
 10
1.11824722999385
 20
-5.6360300304268
 10
1.11984701143876
 20
-5.63762981187171
 10
1.11984701143876
 20
-5.63922959331662
 10
1.12144679288367
 20
-5.64242915620645
 10
1.12304657432859
 20
-5.64402893765136
 10
1.1246463557735
 20
-5.64562871909627
 10
1.1246463557735
 20
-5.6488282819861
 10
1.12624613721841
 20
-5.65042806343101
 10
1.12784591866332
 20
-5.65202784487592
 10
1.12784591866332
 20
-5.65522740776575
 10
1.12944570010824
 20
-5.65682718921066
 10
1.13104548155315
 20
-5.65842697065557
 10
1.13104548155315
 20
-5.6616265335454
 10
1.13264526299806
 20
-5.66322631499031
 10
1.13424504444297
 20
-5.66482609643522
 10
1.13424504444297
 20
-5.66802565932505
 10
1.13584482588789
 20
-5.66962544076996
 10
1.13584482588789
 20
-5.67282500365978
 10
1.1374446073328
 20
-5.6744247851047
 10
1.13904438877771
 20
-5.67602456654961
 10
1.13904438877771
 20
-5.67922412943943
 10
1.14064417022262
 20
-5.68082391088435
 10
1.14064417022262
 20
-5.68402347377417
 10
1.14224395166754
 20
-5.68562325521908
 10
1.14224395166754
 20
-5.687223036664
 10
1.14384373311245
 20
-5.69042259955382
 10
1.14384373311245
 20
-5.69202238099873
 10
1.14544351455736
 20
-5.69522194388856
 10
1.14544351455736
 20
-5.69682172533347
 10
1.14704329600227
 20
-5.7000212882233
 10
1.14704329600227
 20
-5.70162106966821
 10
1.14864307744719
 20
-5.70322085111312
 10
1.14864307744719
 20
-5.70642041400295
 10
1.14864307744719
 20
-5.70802019544786
 10
1.1502428588921
 20
-5.71121975833769
 10
1.1502428588921
 20
-5.7128195397826
 10
1.15184264033701
 20
-5.71601910267242
 10
1.15184264033701
 20
-5.71761888411734
 10
1.15184264033701
 20
-5.72081844700716
 10
1.15344242178192
 20
-5.72241822845207
 10
1.15344242178192
 20
-5.7256177913419
 10
1.15344242178192
 20
-5.72721757278681
 10
1.15504220322684
 20
-5.73041713567664
 10
1.15504220322684
 20
-5.73201691712155
 10
1.15504220322684
 20
-5.73521648001137
 10
1.15504220322684
 20
-5.73681626145629
 10
1.15664198467175
 20
-5.74001582434611
 10
1.15664198467175
 20
-5.74161560579102
 10
1.15664198467175
 20
-5.74481516868085
 10
1.15664198467175
 20
-5.74641495012576
 10
1.15824176611666
 20
-5.74961451301558
 10
1.15824176611666
 20
-5.7512142944605
 10
1.15824176611666
 20
-5.75441385735032
 10
1.15824176611666
 20
-5.75601363879524
 10
1.15824176611666
 20
-5.75921320168506
 10
1.15824176611666
 20
-5.76081298312997
 10
1.15984154756157
 20
-5.7640125460198
 10
1.15984154756157
 20
-5.76561232746471
 10
1.15984154756157
 20
-5.76881189035454
 10
1.15984154756157
 20
-5.77041167179945
 10
1.15984154756157
 20
-5.77361123468927
 10
1.15984154756157
 20
-5.77521101613418
 10
1.15984154756157
 20
-5.77841057902401
 10
1.15984154756157
 20
-5.78001036046892
 10
1.15984154756157
 20
-5.78320992335875
 10
1.15984154756157
 20
-5.78480970480366
 10
1.15984154756157
 20
-5.78800926769349
 10
1.15984154756157
 20
-5.7896090491384
  0
LWPOLYLINE
  5
67A
100
AcDbEntity
  8
0
100
AcDbPolyline
370
-2
 62
7
  6
CONTINUOUS
 38
0
 90
194
 70
0
 10
1.15984154756157
 20
-5.78800926769349
 10
1.15984154756157
 20
-5.7896090491384
 10
1.15984154756157
 20
-5.79280861202822
 10
1.15984154756157
 20
-5.79440839347314
 10
1.15984154756157
 20
-5.79760795636296
 10
1.15984154756157
 20
-5.79920773780787
 10
1.15984154756157
 20
-5.8024073006977
 10
1.15984154756157
 20
-5.80400708214261
 10
1.15984154756157
 20
-5.80720664503244
 10
1.15984154756157
 20
-5.80880642647735
 10
1.15984154756157
 20
-5.81200598936717
 10
1.15824176611666
 20
-5.81360577081209
 10
1.15824176611666
 20
-5.81680533370191
 10
1.15824176611666
 20
-5.81840511514682
 10
1.15824176611666
 20
-5.82160467803665
 10
1.15824176611666
 20
-5.82320445948156
 10
1.15824176611666
 20
-5.82640402237139
 10
1.15664198467175
 20
-5.8280038038163
 10
1.15664198467175
 20
-5.83120336670612
 10
1.15664198467175
 20
-5.83280314815104
 10
1.15664198467175
 20
-5.83600271104086
 10
1.15504220322684
 20
-5.83760249248577
 10
1.15504220322684
 20
-5.8408020553756
 10
1.15504220322684
 20
-5.84240183682051
 10
1.15504220322684
 20
-5.84560139971034
 10
1.15344242178192
 20
-5.84720118115525
 10
1.15344242178192
 20
-5.85040074404507
 10
1.15344242178192
 20
-5.85200052548999
 10
1.15184264033701
 20
-5.85520008837981
 10
1.15184264033701
 20
-5.85679986982472
 10
1.15184264033701
 20
-5.85839965126964
 10
1.1502428588921
 20
-5.86159921415946
 10
1.1502428588921
 20
-5.86319899560437
 10
1.14864307744719
 20
-5.8663985584942
 10
1.14864307744719
 20
-5.86799833993911
 10
1.14864307744719
 20
-5.87119790282894
 10
1.14704329600227
 20
-5.87279768427385
 10
1.14704329600227
 20
-5.87599724716367
 10
1.14544351455736
 20
-5.87759702860859
 10
1.14544351455736
 20
-5.88079659149841
 10
1.14384373311245
 20
-5.88239637294332
 10
1.14384373311245
 20
-5.88399615438824
 10
1.14224395166754
 20
-5.88719571727806
 10
1.14224395166754
 20
-5.88879549872297
 10
1.14064417022262
 20
-5.8919950616128
 10
1.14064417022262
 20
-5.89359484305771
 10
1.13904438877771
 20
-5.89519462450262
 10
1.13904438877771
 20
-5.89839418739245
 10
1.1374446073328
 20
-5.89999396883736
 10
1.13584482588789
 20
-5.90319353172719
 10
1.13584482588789
 20
-5.9047933131721
 10
1.13424504444297
 20
-5.90639309461701
 10
1.13424504444297
 20
-5.90959265750684
 10
1.13264526299806
 20
-5.91119243895175
 10
1.13104548155315
 20
-5.91439200184157
 10
1.13104548155315
 20
-5.91599178328649
 10
1.12944570010824
 20
-5.9175915647314
 10
1.12784591866332
 20
-5.92079112762122
 10
1.12784591866332
 20
-5.92239090906614
 10
1.12624613721841
 20
-5.92399069051105
 10
1.1246463557735
 20
-5.92719025340088
 10
1.1246463557735
 20
-5.92879003484579
 10
1.12304657432859
 20
-5.9303898162907
 10
1.12144679288367
 20
-5.93358937918052
 10
1.11984701143876
 20
-5.93518916062544
 10
1.11984701143876
 20
-5.93678894207035
 10
1.11824722999385
 20
-5.93838872351526
 10
1.11664744854894
 20
-5.94158828640509
 10
1.11504766710402
 20
-5.94318806785
 10
1.11344788565911
 20
-5.94478784929491
 10
1.11344788565911
 20
-5.94798741218474
 10
1.1118481042142
 20
-5.94958719362965
 10
1.11024832276929
 20
-5.95118697507456
 10
1.10864854132437
 20
-5.95278675651948
 10
1.10704875987946
 20
-5.9559863194093
 10
1.10544897843455
 20
-5.95758610085421
 10
1.10544897843455
 20
-5.95918588229912
 10
1.10384919698964
 20
-5.96078566374404
 10
1.10224941554472
 20
-5.96398522663386
 10
1.10064963409981
 20
-5.96558500807878
 10
1.0990498526549
 20
-5.96718478952369
 10
1.09745007120999
 20
-5.9687845709686
 10
1.09585028976507
 20
-5.97038435241351
 10
1.09425050832016
 20
-5.97358391530334
 10
1.09265072687525
 20
-5.97518369674825
 10
1.09105094543034
 20
-5.97678347819316
 10
1.08945116398542
 20
-5.97838325963807
 10
1.08785138254051
 20
-5.97998304108299
 10
1.0862516010956
 20
-5.9815828225279
 10
1.08465181965069
 20
-5.98318260397281
 10
1.08305203820577
 20
-5.98638216686264
 10
1.08145225676086
 20
-5.98798194830755
 10
1.07985247531595
 20
-5.98958172975246
 10
1.07825269387104
 20
-5.99118151119737
 10
1.07665291242612
 20
-5.99278129264229
 10
1.07505313098121
 20
-5.9943810740872
 10
1.0734533495363
 20
-5.99598085553211
 10
1.07185356809139
 20
-5.99758063697703
 10
1.07025378664647
 20
-5.99918041842194
 10
1.06865400520156
 20
-6.00078019986685
 10
1.06705422375665
 20
-6.00237998131176
 10
1.06545444231174
 20
-6.00397976275668
 10
1.06225487942191
 20
-6.00557954420159
 10
1.060655097977
 20
-6.0071793256465
 10
1.05905531653209
 20
-6.00877910709141
 10
1.05745553508717
 20
-6.01037888853633
 10
1.05585575364226
 20
-6.01197866998124
 10
1.05425597219735
 20
-6.01357845142615
 10
1.05265619075244
 20
-6.01517823287106
 10
1.04945662786261
 20
-6.01677801431598
 10
1.0478568464177
 20
-6.01837779576089
 10
1.04625706497279
 20
-6.0199775772058
 10
1.04465728352787
 20
-6.02157735865071
 10
1.04305750208296
 20
-6.02317714009562
 10
1.03985793919314
 20
-6.02477692154054
 10
1.03825815774822
 20
-6.02637670298545
 10
1.03665837630331
 20
-6.02797648443036
 10
1.0350585948584
 20
-6.02797648443036
 10
1.03185903196857
 20
-6.02957626587528
 10
1.03025925052366
 20
-6.03117604732019
 10
1.02865946907875
 20
-6.0327758287651
 10
1.02705968763384
 20
-6.03437561021001
 10
1.02386012474401
 20
-6.03597539165493
 10
1.0222603432991
 20
-6.03597539165493
 10
1.02066056185419
 20
-6.03757517309984
 10
1.01906078040927
 20
-6.03917495454475
 10
1.01586121751945
 20
-6.04077473598966
 10
1.01426143607454
 20
-6.04237451743458
 10
1.01266165462962
 20
-6.04237451743458
 10
1.0094620917398
 20
-6.04397429887949
 10
1.00786231029489
 20
-6.0455740803244
 10
1.00626252884997
 20
-6.04717386176931
 10
1.00306296596015
 20
-6.04717386176931
 10
1.00146318451524
 20
-6.04877364321423
 10
0.999863403070323
 20
-6.05037342465914
 10
0.996663840180498
 20
-6.05037342465914
 10
0.995064058735585
 20
-6.05197320610405
 10
0.993464277290673
 20
-6.05357298754896
 10
0.990264714400848
 20
-6.05357298754896
 10
0.988664932955935
 20
-6.05517276899388
 10
0.987065151511023
 20
-6.05677255043879
 10
0.983865588621198
 20
-6.05677255043879
 10
0.982265807176285
 20
-6.0583723318837
 10
0.97906624428646
 20
-6.0583723318837
 10
0.977466462841548
 20
-6.05997211332861
 10
0.975866681396635
 20
-6.06157189477353
 10
0.97266711850681
 20
-6.06157189477353
 10
0.971067337061898
 20
-6.06317167621844
 10
0.967867774172073
 20
-6.06317167621844
 10
0.96626799272716
 20
-6.06477145766335
 10
0.964668211282248
 20
-6.06477145766335
 10
0.961468648392423
 20
-6.06637123910826
 10
0.95986886694751
 20
-6.06637123910826
 10
0.956669304057685
 20
-6.06797102055318
 10
0.955069522612773
 20
-6.06797102055318
 10
0.951869959722948
 20
-6.06957080199809
 10
0.950270178278035
 20
-6.06957080199809
 10
0.948670396833122
 20
-6.071170583443
 10
0.945470833943297
 20
-6.071170583443
 10
0.943871052498385
 20
-6.071170583443
 10
0.94067148960856
 20
-6.07277036488791
 10
0.939071708163647
 20
-6.07277036488791
 10
0.935872145273822
 20
-6.07437014633283
 10
0.93427236382891
 20
-6.07437014633283
 10
0.931072800939085
 20
-6.07437014633283
 10
0.929473019494172
 20
-6.07596992777774
 10
0.926273456604347
 20
-6.07596992777774
 10
0.924673675159435
 20
-6.07596992777774
 10
0.92147411226961
 20
-6.07756970922265
 10
0.919874330824697
 20
-6.07756970922265
 10
0.916674767934872
 20
-6.07756970922265
 10
0.91507498648996
 20
-6.07756970922265
 10
0.913475205045047
 20
-6.07916949066756
 10
0.910275642155222
 20
-6.07916949066756
 10
0.90867586071031
 20
-6.07916949066756
 10
0.905476297820484
 20
-6.07916949066756
 10
0.903876516375572
 20
-6.08076927211248
 10
0.900676953485747
 20
-6.08076927211248
 10
0.899077172040834
 20
-6.08076927211248
 10
0.895877609151009
 20
-6.08076927211248
 10
0.894277827706097
 20
-6.08076927211248
 10
0.891078264816272
 20
-6.08076927211248
 10
0.889478483371359
 20
-6.08076927211248
 10
0.886278920481534
 20
-6.08236905355739
 10
0.884679139036622
 20
-6.08236905355739
 10
0.881479576146797
 20
-6.08236905355739
 10
0.878280013256972
 20
-6.08236905355739
 10
0.876680231812059
 20
-6.08236905355739
 10
0.873480668922234
 20
-6.08236905355739
 10
0.871880887477322
 20
-6.08236905355739
 10
0.868681324587497
 20
-6.08236905355739
 10
0.867081543142584
 20
-6.08236905355739
 10
0.863881980252759
 20
-6.08236905355739
 10
0.863881980252759
 20
-6.0839688350023
  0
LWPOLYLINE
  5
73D
100
AcDbEntity
  8
0
100
AcDbPolyline
370
-2
 62
7
  6
CONTINUOUS
 38
0
 90
26
 70
0
 10
0.863881980252759
 20
-6.08236905355739
 10
0.859082635918022
 20
-6.08236905355739
 10
0.852683510138371
 20
-6.08236905355739
 10
0.847884165803634
 20
-6.08236905355739
 10
0.841485040023984
 20
-6.08236905355739
 10
0.836685695689246
 20
-6.08236905355739
 10
0.830286569909596
 20
-6.08236905355739
 10
0.825487225574859
 20
-6.08236905355739
 10
0.819088099795209
 20
-6.08236905355739
 10
0.814288755460471
 20
-6.08236905355739
 10
0.807889629680821
 20
-6.08236905355739
 10
0.803090285346083
 20
-6.08236905355739
 10
0.796691159566433
 20
-6.08236905355739
 10
0.790292033786783
 20
-6.08236905355739
 10
0.785492689452046
 20
-6.08236905355739
 10
0.779093563672396
 20
-6.08236905355739
 10
0.774294219337658
 20
-6.08236905355739
 10
0.767895093558008
 20
-6.08236905355739
 10
0.763095749223271
 20
-6.08236905355739
 10
0.75669662344362
 20
-6.08236905355739
 10
0.751897279108883
 20
-6.08236905355739
 10
0.745498153329233
 20
-6.08236905355739
 10
0.740698808994495
 20
-6.08236905355739
 10
0.734299683214845
 20
-6.08236905355739
 10
0.729500338880108
 20
-6.08236905355739
 10
0.729500338880108
 20
-6.0839688350023
  0
LWPOLYLINE
  5
758
100
AcDbEntity
  8
0
100
AcDbPolyline
370
-2
 62
7
  6
CONTINUOUS
 38
0
 90
194
 70
0
 10
1.16464089189631
 20
-5.78800926769349
 10
1.16464089189631
 20
-5.7896090491384
 10
1.16464089189631
 20
-5.79280861202822
 10
1.16464089189631
 20
-5.79440839347314
 10
1.16464089189631
 20
-5.79760795636296
 10
1.16464089189631
 20
-5.79920773780787
 10
1.16464089189631
 20
-5.8024073006977
 10
1.16464089189631
 20
-5.80400708214261
 10
1.16464089189631
 20
-5.80720664503244
 10
1.16464089189631
 20
-5.80880642647735
 10
1.16464089189631
 20
-5.81200598936717
 10
1.1630411104514
 20
-5.81360577081209
 10
1.1630411104514
 20
-5.81680533370191
 10
1.1630411104514
 20
-5.82000489659174
 10
1.1630411104514
 20
-5.82160467803665
 10
1.1630411104514
 20
-5.82480424092647
 10
1.1630411104514
 20
-5.82640402237139
 10
1.16144132900649
 20
-5.82960358526121
 10
1.16144132900649
 20
-5.83120336670612
 10
1.16144132900649
 20
-5.83440292959595
 10
1.16144132900649
 20
-5.83600271104086
 10
1.15984154756157
 20
-5.83920227393069
 10
1.15984154756157
 20
-5.8408020553756
 10
1.15984154756157
 20
-5.84400161826542
 10
1.15984154756157
 20
-5.84560139971034
 10
1.15824176611666
 20
-5.84880096260016
 10
1.15824176611666
 20
-5.85040074404507
 10
1.15824176611666
 20
-5.8536003069349
 10
1.15664198467175
 20
-5.85520008837981
 10
1.15664198467175
 20
-5.85839965126964
 10
1.15504220322684
 20
-5.85999943271455
 10
1.15504220322684
 20
-5.86319899560437
 10
1.15504220322684
 20
-5.86479877704929
 10
1.15344242178192
 20
-5.86799833993911
 10
1.15344242178192
 20
-5.86959812138402
 10
1.15184264033701
 20
-5.87279768427385
 10
1.15184264033701
 20
-5.87439746571876
 10
1.15184264033701
 20
-5.87759702860859
 10
1.1502428588921
 20
-5.8791968100535
 10
1.1502428588921
 20
-5.88079659149841
 10
1.14864307744719
 20
-5.88399615438824
 10
1.14864307744719
 20
-5.88559593583315
 10
1.14704329600227
 20
-5.88879549872297
 10
1.14704329600227
 20
-5.89039528016789
 10
1.14544351455736
 20
-5.89359484305771
 10
1.14544351455736
 20
-5.89519462450262
 10
1.14384373311245
 20
-5.89839418739245
 10
1.14224395166754
 20
-5.89999396883736
 10
1.14224395166754
 20
-5.90159375028227
 10
1.14064417022262
 20
-5.9047933131721
 10
1.14064417022262
 20
-5.90639309461701
 10
1.13904438877771
 20
-5.90959265750684
 10
1.1374446073328
 20
-5.91119243895175
 10
1.1374446073328
 20
-5.91279222039666
 10
1.13584482588789
 20
-5.91599178328649
 10
1.13424504444297
 20
-5.9175915647314
 10
1.13424504444297
 20
-5.92079112762122
 10
1.13264526299806
 20
-5.92239090906614
 10
1.13104548155315
 20
-5.92399069051105
 10
1.13104548155315
 20
-5.92719025340088
 10
1.12944570010824
 20
-5.92879003484579
 10
1.12784591866332
 20
-5.9303898162907
 10
1.12624613721841
 20
-5.93358937918052
 10
1.12624613721841
 20
-5.93518916062544
 10
1.1246463557735
 20
-5.93678894207035
 10
1.12304657432859
 20
-5.93998850496017
 10
1.12144679288367
 20
-5.94158828640509
 10
1.12144679288367
 20
-5.94318806785
 10
1.11984701143876
 20
-5.94638763073982
 10
1.11824722999385
 20
-5.94798741218474
 10
1.11664744854894
 20
-5.94958719362965
 10
1.11504766710402
 20
-5.95118697507456
 10
1.11344788565911
 20
-5.95438653796439
 10
1.11344788565911
 20
-5.9559863194093
 10
1.1118481042142
 20
-5.95758610085421
 10
1.11024832276929
 20
-5.96078566374404
 10
1.10864854132437
 20
-5.96238544518895
 10
1.10704875987946
 20
-5.96398522663386
 10
1.10544897843455
 20
-5.96558500807878
 10
1.10384919698964
 20
-5.9687845709686
 10
1.10224941554472
 20
-5.97038435241351
 10
1.10064963409981
 20
-5.97198413385842
 10
1.0990498526549
 20
-5.97358391530334
 10
1.09745007120999
 20
-5.97518369674825
 10
1.09585028976507
 20
-5.97838325963807
 10
1.09425050832016
 20
-5.97998304108299
 10
1.09265072687525
 20
-5.9815828225279
 10
1.09105094543034
 20
-5.98318260397281
 10
1.08945116398542
 20
-5.98478238541773
 10
1.08785138254051
 20
-5.98638216686264
 10
1.0862516010956
 20
-5.98958172975246
 10
1.08465181965069
 20
-5.99118151119737
 10
1.08305203820577
 20
-5.99278129264229
 10
1.08145225676086
 20
-5.9943810740872
 10
1.07985247531595
 20
-5.99598085553211
 10
1.07825269387104
 20
-5.99758063697703
 10
1.07665291242612
 20
-5.99918041842194
 10
1.07505313098121
 20
-6.00078019986685
 10
1.0734533495363
 20
-6.00237998131176
 10
1.07185356809139
 20
-6.00397976275668
 10
1.07025378664647
 20
-6.00557954420159
 10
1.06865400520156
 20
-6.0071793256465
 10
1.06545444231174
 20
-6.00877910709141
 10
1.06385466086682
 20
-6.01197866998124
 10
1.06225487942191
 20
-6.01357845142615
 10
1.060655097977
 20
-6.01517823287106
 10
1.05905531653209
 20
-6.01677801431598
 10
1.05745553508717
 20
-6.01837779576089
 10
1.05425597219735
 20
-6.01837779576089
 10
1.05265619075244
 20
-6.0199775772058
 10
1.05105640930752
 20
-6.02157735865071
 10
1.04945662786261
 20
-6.02317714009562
 10
1.0478568464177
 20
-6.02477692154054
 10
1.04465728352787
 20
-6.02637670298545
 10
1.04305750208296
 20
-6.02797648443036
 10
1.04145772063805
 20
-6.02957626587528
 10
1.03985793919314
 20
-6.03117604732019
 10
1.03665837630331
 20
-6.0327758287651
 10
1.0350585948584
 20
-6.03437561021001
 10
1.03345881341349
 20
-6.03597539165493
 10
1.03185903196857
 20
-6.03597539165493
 10
1.02865946907875
 20
-6.03757517309984
 10
1.02705968763384
 20
-6.03917495454475
 10
1.02545990618892
 20
-6.04077473598966
 10
1.0222603432991
 20
-6.04237451743458
 10
1.02066056185419
 20
-6.04397429887949
 10
1.01906078040927
 20
-6.04397429887949
 10
1.01746099896436
 20
-6.0455740803244
 10
1.01426143607454
 20
-6.04717386176931
 10
1.01266165462962
 20
-6.04877364321423
 10
1.01106187318471
 20
-6.04877364321423
 10
1.00786231029489
 20
-6.05037342465914
 10
1.00626252884997
 20
-6.05197320610405
 10
1.00306296596015
 20
-6.05357298754896
 10
1.00146318451524
 20
-6.05357298754896
 10
0.999863403070323
 20
-6.05517276899388
 10
0.996663840180498
 20
-6.05677255043879
 10
0.995064058735585
 20
-6.05677255043879
 10
0.993464277290673
 20
-6.0583723318837
 10
0.990264714400848
 20
-6.05997211332861
 10
0.988664932955935
 20
-6.05997211332861
 10
0.98546537006611
 20
-6.06157189477353
 10
0.983865588621198
 20
-6.06317167621844
 10
0.982265807176285
 20
-6.06317167621844
 10
0.97906624428646
 20
-6.06477145766335
 10
0.977466462841548
 20
-6.06477145766335
 10
0.974266899951723
 20
-6.06637123910826
 10
0.97266711850681
 20
-6.06637123910826
 10
0.971067337061898
 20
-6.06797102055318
 10
0.967867774172073
 20
-6.06957080199809
 10
0.96626799272716
 20
-6.06957080199809
 10
0.963068429837335
 20
-6.071170583443
 10
0.961468648392423
 20
-6.071170583443
 10
0.958269085502598
 20
-6.07277036488791
 10
0.956669304057685
 20
-6.07277036488791
 10
0.95346974116786
 20
-6.07277036488791
 10
0.951869959722948
 20
-6.07437014633283
 10
0.948670396833122
 20
-6.07437014633283
 10
0.94707061538821
 20
-6.07596992777774
 10
0.943871052498385
 20
-6.07596992777774
 10
0.942271271053472
 20
-6.07756970922265
 10
0.939071708163647
 20
-6.07756970922265
 10
0.937471926718735
 20
-6.07756970922265
 10
0.935872145273822
 20
-6.07916949066756
 10
0.932672582383997
 20
-6.07916949066756
 10
0.931072800939085
 20
-6.07916949066756
 10
0.92787323804926
 20
-6.08076927211248
 10
0.926273456604347
 20
-6.08076927211248
 10
0.923073893714522
 20
-6.08076927211248
 10
0.92147411226961
 20
-6.08236905355739
 10
0.918274549379785
 20
-6.08236905355739
 10
0.916674767934872
 20
-6.08236905355739
 10
0.913475205045047
 20
-6.0839688350023
 10
0.910275642155222
 20
-6.0839688350023
 10
0.90867586071031
 20
-6.0839688350023
 10
0.905476297820484
 20
-6.0839688350023
 10
0.903876516375572
 20
-6.0839688350023
 10
0.900676953485747
 20
-6.08556861644721
 10
0.899077172040834
 20
-6.08556861644721
 10
0.895877609151009
 20
-6.08556861644721
 10
0.894277827706097
 20
-6.08556861644721
 10
0.891078264816272
 20
-6.08556861644721
 10
0.889478483371359
 20
-6.08556861644721
 10
0.886278920481534
 20
-6.08716839789213
 10
0.884679139036622
 20
-6.08716839789213
 10
0.881479576146797
 20
-6.08716839789213
 10
0.879879794701884
 20
-6.08716839789213
 10
0.876680231812059
 20
-6.08716839789213
 10
0.875080450367147
 20
-6.08716839789213
 10
0.871880887477322
 20
-6.08716839789213
 10
0.870281106032409
 20
-6.08716839789213
 10
0.867081543142584
 20
-6.08716839789213
 10
0.863881980252759
 20
-6.08716839789213
 10
0.863881980252759
 20
-6.08876817933704
  0
LWPOLYLINE
  5
81B
100
AcDbEntity
  8
0
100
AcDbPolyline
370
-2
 62
7
  6
CONTINUOUS
 38
0
 90
3
 70
0
 10
3.06838081134221
 20
-3.11957381757941
 10
3.00598933499062
 20
-3.11957381757941
 10
3.00598933499062
 20
-3.12117359902432
  0
POINT
  5
81F
100
AcDbEntity
  8
0
100
AcDbPoint
370
-2
 62
7
  6
CONTINUOUS
 10
3.19636332693521
 20
-3.10997512890993
 30
0
  0
POINT
  5
820
100
AcDbEntity
  8
0
100
AcDbPoint
370
-2
 62
7
  6
CONTINUOUS
 10
2.94359785863903
 20
-3.16436769803696
 30
0
  0
LWPOLYLINE
  5
821
100
AcDbEntity
  8
0
100
AcDbPolyline
370
-2
 62
7
  6
CONTINUOUS
 38
0
 90
138
 70
0
 10
2.94359785863903
 20
-3.16436769803696
 10
2.94199807719412
 20
-3.16436769803696
 10
2.94199807719412
 20
-3.16436769803696
 10
2.94039829574921
 20
-3.16436769803696
 10
2.94039829574921
 20
-3.16436769803696
 10
2.93879851430429
 20
-3.16436769803696
 10
2.93879851430429
 20
-3.16436769803696
 10
2.93719873285938
 20
-3.16436769803696
 10
2.93719873285938
 20
-3.16436769803696
 10
2.93559895141447
 20
-3.16436769803696
 10
2.93559895141447
 20
-3.16436769803696
 10
2.93399916996956
 20
-3.16436769803696
 10
2.93399916996956
 20
-3.16436769803696
 10
2.93239938852464
 20
-3.16436769803696
 10
2.93239938852464
 20
-3.16436769803696
 10
2.93079960707973
 20
-3.16436769803696
 10
2.93079960707973
 20
-3.16436769803696
 10
2.92600026274499
 20
-3.16436769803696
 10
2.92120091841026
 20
-3.16276791659205
 10
2.91640157407552
 20
-3.16276791659205
 10
2.91160222974078
 20
-3.16276791659205
 10
2.90680288540604
 20
-3.16276791659205
 10
2.9020035410713
 20
-3.16276791659205
 10
2.89720419673657
 20
-3.16276791659205
 10
2.89240485240183
 20
-3.16276791659205
 10
2.88760550806709
 20
-3.16116813514713
 10
2.88280616373236
 20
-3.16116813514713
 10
2.87800681939762
 20
-3.16116813514713
 10
2.87320747506288
 20
-3.16116813514713
 10
2.86840813072814
 20
-3.16116813514713
 10
2.86360878639341
 20
-3.15956835370222
 10
2.85880944205867
 20
-3.15956835370222
 10
2.85401009772393
 20
-3.15956835370222
 10
2.84921075338919
 20
-3.15956835370222
 10
2.84441140905445
 20
-3.15796857225731
 10
2.83961206471972
 20
-3.15796857225731
 10
2.83481272038498
 20
-3.15796857225731
 10
2.83001337605024
 20
-3.1563687908124
 10
2.8252140317155
 20
-3.1563687908124
 10
2.82041468738077
 20
-3.1563687908124
 10
2.81561534304603
 20
-3.15476900936748
 10
2.8124157801562
 20
-3.15476900936748
 10
2.80921621726638
 20
-3.15316922792257
 10
2.80441687293164
 20
-3.15316922792257
 10
2.80121731004182
 20
-3.15156944647766
 10
2.79801774715199
 20
-3.15156944647766
 10
2.79481818426217
 20
-3.14996966503275
 10
2.79161862137234
 20
-3.14996966503275
 10
2.78841905848252
 20
-3.14836988358783
 10
2.78521949559269
 20
-3.14836988358783
 10
2.78042015125795
 20
-3.14677010214292
 10
2.77722058836813
 20
-3.14517032069801
 10
2.7740210254783
 20
-3.14517032069801
 10
2.77082146258848
 20
-3.1435705392531
 10
2.76762189969865
 20
-3.14197075780818
 10
2.76442233680883
 20
-3.14037097636327
 10
2.761222773919
 20
-3.14037097636327
 10
2.75802321102918
 20
-3.13877119491836
 10
2.75482364813935
 20
-3.13717141347345
 10
2.75162408524953
 20
-3.13557163202853
 10
2.7484245223597
 20
-3.13397185058362
 10
2.74682474091479
 20
-3.13237206913871
 10
2.74362517802497
 20
-3.1307722876938
 10
2.74042561513514
 20
-3.12757272480397
 10
2.73722605224532
 20
-3.12597294335906
 10
2.7356262708004
 20
-3.12437316191415
 10
2.73242670791058
 20
-3.12277338046923
 10
2.72922714502075
 20
-3.12117359902432
 10
2.72762736357584
 20
-3.1179740361345
 10
2.72442780068602
 20
-3.11637425468958
 10
2.7228280192411
 20
-3.11477447324467
 10
2.72122823779619
 20
-3.11157491035484
 10
2.71802867490637
 20
-3.10997512890993
 10
2.71642889346145
 20
-3.10677556602011
 10
2.71322933057163
 20
-3.10517578457519
 10
2.71162954912672
 20
-3.10197622168537
 10
2.7100297676818
 20
-3.10037644024046
 10
2.70842998623689
 20
-3.09717687735063
 10
2.70523042334707
 20
-3.09557709590572
 10
2.70363064190215
 20
-3.0923775330159
 10
2.70203086045724
 20
-3.08917797012607
 10
2.70043107901233
 20
-3.08757818868116
 10
2.69883129756742
 20
-3.08437862579133
 10
2.6972315161225
 20
-3.08117906290151
 10
2.69563173467759
 20
-3.07957928145659
 10
2.69403195323268
 20
-3.07637971856677
 10
2.69243217178777
 20
-3.07318015567694
 10
2.69083239034285
 20
-3.06998059278712
 10
2.68923260889794
 20
-3.06838081134221
 10
2.68763282745303
 20
-3.06358146700747
 10
2.6844332645632
 20
-3.06038190411764
 10
2.68283348311829
 20
-3.05558255978291
 10
2.68123370167338
 20
-3.05238299689308
 10
2.67963392022847
 20
-3.04758365255834
 10
2.67803413878355
 20
-3.04438408966852
 10
2.67643435733864
 20
-3.03958474533378
 10
2.67483457589373
 20
-3.03478540099904
 10
2.67483457589373
 20
-3.03158583810922
 10
2.67323479444882
 20
-3.02678649377448
 10
2.6716350130039
 20
-3.02358693088466
 10
2.67003523155899
 20
-3.01878758654992
 10
2.67003523155899
 20
-3.01398824221518
 10
2.66843545011408
 20
-3.01078867932536
 10
2.66683566866917
 20
-3.00598933499062
 10
2.66683566866917
 20
-3.00118999065588
 10
2.66523588722425
 20
-2.99639064632114
 10
2.66523588722425
 20
-2.99319108343132
 10
2.66363610577934
 20
-2.98839173909658
 10
2.66363610577934
 20
-2.98359239476184
 10
2.66203632433443
 20
-2.97879305042711
 10
2.66203632433443
 20
-2.97559348753728
 10
2.66203632433443
 20
-2.97079414320254
 10
2.66043654288952
 20
-2.96599479886781
 10
2.66043654288952
 20
-2.96279523597798
 10
2.66043654288952
 20
-2.95799589164324
 10
2.6588367614446
 20
-2.95319654730851
 10
2.6588367614446
 20
-2.94999698441868
 10
2.6588367614446
 20
-2.94519764008394
 10
2.6588367614446
 20
-2.94199807719412
 10
2.65723697999969
 20
-2.93719873285938
 10
2.65723697999969
 20
-2.93399916996956
 10
2.65723697999969
 20
-2.92919982563482
 10
2.65723697999969
 20
-2.92440048130008
 10
2.65723697999969
 20
-2.92120091841026
 10
2.65563719855478
 20
-2.91640157407552
 10
2.65563719855478
 20
-2.91160222974078
 10
2.65563719855478
 20
-2.90840266685096
 10
2.65563719855478
 20
-2.90360332251622
 10
2.65563719855478
 20
-2.89880397818148
 10
2.65563719855478
 20
-2.89560441529166
 10
2.65563719855478
 20
-2.89080507095692
 10
2.65563719855478
 20
-2.88600572662218
 10
2.65563719855478
 20
-2.88280616373236
 10
2.65403741710987
 20
-2.87800681939762
 10
2.65403741710987
 20
-2.87320747506288
 10
2.65403741710987
 20
-2.87000791217306
 10
2.65403741710987
 20
-2.86520856783832
 10
2.65403741710987
 20
-2.86680834928323
  0
LWPOLYLINE
  5
8AC
100
AcDbEntity
  8
0
100
AcDbPolyline
370
-2
 62
7
  6
CONTINUOUS
 38
0
 90
325
 70
0
 10
2.85720966061375
 20
-3.11477447324467
 10
2.85560987916884
 20
-3.11477447324467
 10
2.85560987916884
 20
-3.11477447324467
 10
2.85401009772393
 20
-3.11477447324467
 10
2.85401009772393
 20
-3.11477447324467
 10
2.85241031627902
 20
-3.11477447324467
 10
2.85241031627902
 20
-3.11477447324467
 10
2.8508105348341
 20
-3.11317469179976
 10
2.8508105348341
 20
-3.11317469179976
 10
2.84921075338919
 20
-3.11317469179976
 10
2.84921075338919
 20
-3.11317469179976
 10
2.84761097194428
 20
-3.11317469179976
 10
2.84761097194428
 20
-3.11317469179976
 10
2.84601119049937
 20
-3.11317469179976
 10
2.84601119049937
 20
-3.11317469179976
 10
2.84441140905445
 20
-3.11317469179976
 10
2.84441140905445
 20
-3.11317469179976
 10
2.84281162760954
 20
-3.11317469179976
 10
2.84281162760954
 20
-3.11317469179976
 10
2.84121184616463
 20
-3.11317469179976
 10
2.84121184616463
 20
-3.11317469179976
 10
2.83961206471972
 20
-3.11317469179976
 10
2.83961206471972
 20
-3.11317469179976
 10
2.8380122832748
 20
-3.11317469179976
 10
2.8380122832748
 20
-3.11317469179976
 10
2.83641250182989
 20
-3.11317469179976
 10
2.83641250182989
 20
-3.11157491035484
 10
2.83481272038498
 20
-3.11157491035484
 10
2.83481272038498
 20
-3.11157491035484
 10
2.83321293894007
 20
-3.11157491035484
 10
2.83321293894007
 20
-3.11157491035484
 10
2.83161315749515
 20
-3.11157491035484
 10
2.83161315749515
 20
-3.11157491035484
 10
2.83001337605024
 20
-3.11157491035484
 10
2.83001337605024
 20
-3.11157491035484
 10
2.82841359460533
 20
-3.11157491035484
 10
2.82841359460533
 20
-3.11157491035484
 10
2.82681381316042
 20
-3.11157491035484
 10
2.82681381316042
 20
-3.11157491035484
 10
2.8252140317155
 20
-3.11157491035484
 10
2.8252140317155
 20
-3.10997512890993
 10
2.82361425027059
 20
-3.10997512890993
 10
2.82361425027059
 20
-3.10997512890993
 10
2.82201446882568
 20
-3.10997512890993
 10
2.82201446882568
 20
-3.10997512890993
 10
2.82041468738077
 20
-3.10997512890993
 10
2.82041468738077
 20
-3.10997512890993
 10
2.81881490593585
 20
-3.10997512890993
 10
2.81881490593585
 20
-3.10997512890993
 10
2.81721512449094
 20
-3.10997512890993
 10
2.81561534304603
 20
-3.10837534746502
 10
2.81401556160112
 20
-3.10837534746502
 10
2.8124157801562
 20
-3.10837534746502
 10
2.81081599871129
 20
-3.10837534746502
 10
2.80921621726638
 20
-3.10837534746502
 10
2.80921621726638
 20
-3.10677556602011
 10
2.80761643582147
 20
-3.10677556602011
 10
2.80601665437655
 20
-3.10677556602011
 10
2.80441687293164
 20
-3.10677556602011
 10
2.80281709148673
 20
-3.10677556602011
 10
2.80281709148673
 20
-3.10517578457519
 10
2.80121731004182
 20
-3.10517578457519
 10
2.7996175285969
 20
-3.10517578457519
 10
2.79801774715199
 20
-3.10517578457519
 10
2.79641796570708
 20
-3.10357600313028
 10
2.79481818426217
 20
-3.10357600313028
 10
2.79321840281725
 20
-3.10357600313028
 10
2.79161862137234
 20
-3.10197622168537
 10
2.79001883992743
 20
-3.10197622168537
 10
2.78841905848252
 20
-3.10197622168537
 10
2.7868192770376
 20
-3.10037644024046
 10
2.7868192770376
 20
-3.10037644024046
 10
2.78521949559269
 20
-3.10037644024046
 10
2.78521949559269
 20
-3.10037644024046
 10
2.78361971414778
 20
-3.09877665879554
 10
2.78361971414778
 20
-3.09877665879554
 10
2.78201993270287
 20
-3.09877665879554
 10
2.78201993270287
 20
-3.09877665879554
 10
2.78042015125795
 20
-3.09877665879554
 10
2.78042015125795
 20
-3.09717687735063
 10
2.77882036981304
 20
-3.09717687735063
 10
2.77882036981304
 20
-3.09717687735063
 10
2.77722058836813
 20
-3.09717687735063
 10
2.77722058836813
 20
-3.09717687735063
 10
2.77562080692322
 20
-3.09557709590572
 10
2.77562080692322
 20
-3.09557709590572
 10
2.7740210254783
 20
-3.09557709590572
 10
2.7740210254783
 20
-3.09397731446081
 10
2.77242124403339
 20
-3.09397731446081
 10
2.77082146258848
 20
-3.09397731446081
 10
2.77082146258848
 20
-3.0923775330159
 10
2.76922168114357
 20
-3.0923775330159
 10
2.76922168114357
 20
-3.0923775330159
 10
2.76762189969865
 20
-3.09077775157098
 10
2.76762189969865
 20
-3.09077775157098
 10
2.76602211825374
 20
-3.09077775157098
 10
2.76602211825374
 20
-3.09077775157098
 10
2.76442233680883
 20
-3.08917797012607
 10
2.76442233680883
 20
-3.08917797012607
 10
2.76282255536392
 20
-3.08917797012607
 10
2.76282255536392
 20
-3.08757818868116
 10
2.76282255536392
 20
-3.08757818868116
 10
2.761222773919
 20
-3.08757818868116
 10
2.761222773919
 20
-3.08757818868116
 10
2.761222773919
 20
-3.08597840723624
 10
2.761222773919
 20
-3.08597840723624
 10
2.75962299247409
 20
-3.08597840723624
 10
2.75962299247409
 20
-3.08597840723624
 10
2.75962299247409
 20
-3.08437862579133
 10
2.75802321102918
 20
-3.08437862579133
 10
2.75802321102918
 20
-3.08437862579133
 10
2.75642342958427
 20
-3.08277884434642
 10
2.75642342958427
 20
-3.08277884434642
 10
2.75642342958427
 20
-3.08277884434642
 10
2.75482364813935
 20
-3.08117906290151
 10
2.75482364813935
 20
-3.08117906290151
 10
2.75322386669444
 20
-3.08117906290151
 10
2.75322386669444
 20
-3.07957928145659
 10
2.75322386669444
 20
-3.07957928145659
 10
2.75162408524953
 20
-3.07957928145659
 10
2.75162408524953
 20
-3.07797950001168
 10
2.75162408524953
 20
-3.07797950001168
 10
2.75002430380462
 20
-3.07797950001168
 10
2.75002430380462
 20
-3.07797950001168
 10
2.75002430380462
 20
-3.07637971856677
 10
2.75002430380462
 20
-3.07637971856677
 10
2.7484245223597
 20
-3.07637971856677
 10
2.7484245223597
 20
-3.07637971856677
 10
2.7484245223597
 20
-3.07477993712186
 10
2.7484245223597
 20
-3.07477993712186
 10
2.74682474091479
 20
-3.07477993712186
 10
2.74682474091479
 20
-3.07318015567694
 10
2.74682474091479
 20
-3.07318015567694
 10
2.74522495946988
 20
-3.07158037423203
 10
2.74522495946988
 20
-3.07158037423203
 10
2.74522495946988
 20
-3.07158037423203
 10
2.74362517802497
 20
-3.06998059278712
 10
2.74362517802497
 20
-3.06998059278712
 10
2.74362517802497
 20
-3.06838081134221
 10
2.74202539658005
 20
-3.06838081134221
 10
2.74202539658005
 20
-3.06838081134221
 10
2.74202539658005
 20
-3.06678102989729
 10
2.74202539658005
 20
-3.06678102989729
 10
2.74042561513514
 20
-3.06678102989729
 10
2.74042561513514
 20
-3.06518124845238
 10
2.74042561513514
 20
-3.06518124845238
 10
2.74042561513514
 20
-3.06358146700747
 10
2.73882583369023
 20
-3.06358146700747
 10
2.73882583369023
 20
-3.06358146700747
 10
2.73882583369023
 20
-3.06198168556256
 10
2.73882583369023
 20
-3.06198168556256
 10
2.73722605224532
 20
-3.06198168556256
 10
2.73722605224532
 20
-3.06038190411764
 10
2.73722605224532
 20
-3.06038190411764
 10
2.73722605224532
 20
-3.05878212267273
 10
2.7356262708004
 20
-3.05878212267273
 10
2.7356262708004
 20
-3.05718234122782
 10
2.7356262708004
 20
-3.05718234122782
 10
2.7356262708004
 20
-3.05558255978291
 10
2.73402648935549
 20
-3.05558255978291
 10
2.73402648935549
 20
-3.05398277833799
 10
2.73402648935549
 20
-3.05398277833799
 10
2.73242670791058
 20
-3.05238299689308
 10
2.73242670791058
 20
-3.05078321544817
 10
2.73082692646567
 20
-3.04918343400326
 10
2.73082692646567
 20
-3.04758365255834
 10
2.73082692646567
 20
-3.04598387111343
 10
2.72922714502075
 20
-3.04598387111343
 10
2.72922714502075
 20
-3.04598387111343
 10
2.72922714502075
 20
-3.04438408966852
 10
2.72922714502075
 20
-3.04438408966852
 10
2.72922714502075
 20
-3.04278430822361
 10
2.72762736357584
 20
-3.04278430822361
 10
2.72762736357584
 20
-3.04118452677869
 10
2.72762736357584
 20
-3.04118452677869
 10
2.72762736357584
 20
-3.03958474533378
 10
2.72762736357584
 20
-3.03958474533378
 10
2.72602758213093
 20
-3.03798496388887
 10
2.72602758213093
 20
-3.03798496388887
 10
2.72602758213093
 20
-3.03638518244396
 10
2.72602758213093
 20
-3.03638518244396
 10
2.72602758213093
 20
-3.03478540099904
 10
2.72442780068602
 20
-3.03478540099904
 10
2.72442780068602
 20
-3.03318561955413
 10
2.72442780068602
 20
-3.03318561955413
 10
2.72442780068602
 20
-3.03158583810922
 10
2.7228280192411
 20
-3.02998605666431
 10
2.7228280192411
 20
-3.02838627521939
 10
2.7228280192411
 20
-3.02678649377448
 10
2.72122823779619
 20
-3.02518671232957
 10
2.72122823779619
 20
-3.02358693088466
 10
2.72122823779619
 20
-3.02198714943974
 10
2.71962845635128
 20
-3.02038736799483
 10
2.71962845635128
 20
-3.01878758654992
 10
2.71962845635128
 20
-3.01718780510501
 10
2.71962845635128
 20
-3.01558802366009
 10
2.71802867490637
 20
-3.01558802366009
 10
2.71802867490637
 20
-3.01398824221518
 10
2.71802867490637
 20
-3.01238846077027
 10
2.71802867490637
 20
-3.01078867932536
 10
2.71642889346145
 20
-3.00918889788044
 10
2.71642889346145
 20
-3.00758911643553
 10
2.71642889346145
 20
-3.00758911643553
 10
2.71642889346145
 20
-3.00598933499062
 10
2.71642889346145
 20
-3.00598933499062
 10
2.71642889346145
 20
-3.00438955354571
 10
2.71482911201654
 20
-3.00438955354571
 10
2.71482911201654
 20
-3.00278977210079
 10
2.71482911201654
 20
-3.00278977210079
 10
2.71482911201654
 20
-3.00118999065588
 10
2.71482911201654
 20
-3.00118999065588
 10
2.71482911201654
 20
-2.99959020921097
 10
2.71482911201654
 20
-2.99959020921097
 10
2.71482911201654
 20
-2.99799042776606
 10
2.71322933057163
 20
-2.99799042776606
 10
2.71322933057163
 20
-2.99639064632114
 10
2.71322933057163
 20
-2.99639064632114
 10
2.71322933057163
 20
-2.99479086487623
 10
2.71322933057163
 20
-2.99479086487623
 10
2.71322933057163
 20
-2.99319108343132
 10
2.71322933057163
 20
-2.99319108343132
 10
2.71322933057163
 20
-2.99159130198641
 10
2.71322933057163
 20
-2.99159130198641
 10
2.71162954912672
 20
-2.98999152054149
 10
2.71162954912672
 20
-2.98999152054149
 10
2.71162954912672
 20
-2.98839173909658
 10
2.71162954912672
 20
-2.98839173909658
 10
2.71162954912672
 20
-2.98679195765167
 10
2.71162954912672
 20
-2.98679195765167
 10
2.71162954912672
 20
-2.98519217620676
 10
2.71162954912672
 20
-2.98519217620676
 10
2.71162954912672
 20
-2.98359239476184
 10
2.71162954912672
 20
-2.98359239476184
 10
2.7100297676818
 20
-2.98199261331693
 10
2.7100297676818
 20
-2.98199261331693
 10
2.7100297676818
 20
-2.98039283187202
 10
2.7100297676818
 20
-2.98039283187202
 10
2.7100297676818
 20
-2.97879305042711
 10
2.7100297676818
 20
-2.97879305042711
 10
2.7100297676818
 20
-2.97719326898219
 10
2.7100297676818
 20
-2.97719326898219
 10
2.7100297676818
 20
-2.97559348753728
 10
2.7100297676818
 20
-2.97559348753728
 10
2.7100297676818
 20
-2.97399370609237
 10
2.70842998623689
 20
-2.97399370609237
 10
2.70842998623689
 20
-2.97239392464746
 10
2.70842998623689
 20
-2.97239392464746
 10
2.70842998623689
 20
-2.97079414320254
 10
2.70842998623689
 20
-2.97079414320254
 10
2.70842998623689
 20
-2.96919436175763
 10
2.70842998623689
 20
-2.96919436175763
 10
2.70842998623689
 20
-2.96759458031272
 10
2.70842998623689
 20
-2.96759458031272
 10
2.70842998623689
 20
-2.96599479886781
 10
2.70842998623689
 20
-2.96599479886781
 10
2.70842998623689
 20
-2.96439501742289
 10
2.70683020479198
 20
-2.96439501742289
 10
2.70683020479198
 20
-2.96279523597798
 10
2.70683020479198
 20
-2.96279523597798
 10
2.70683020479198
 20
-2.96119545453307
 10
2.70683020479198
 20
-2.96119545453307
 10
2.70683020479198
 20
-2.95959567308816
 10
2.70683020479198
 20
-2.95959567308816
 10
2.70683020479198
 20
-2.95799589164324
 10
2.70683020479198
 20
-2.95799589164324
 10
2.70683020479198
 20
-2.95639611019833
 10
2.70683020479198
 20
-2.95639611019833
 10
2.70683020479198
 20
-2.95479632875342
 10
2.70523042334707
 20
-2.95479632875342
 10
2.70523042334707
 20
-2.95319654730851
 10
2.70523042334707
 20
-2.95319654730851
 10
2.70523042334707
 20
-2.95159676586359
 10
2.70523042334707
 20
-2.95159676586359
 10
2.70523042334707
 20
-2.94999698441868
 10
2.70523042334707
 20
-2.94999698441868
 10
2.70523042334707
 20
-2.94839720297377
 10
2.70523042334707
 20
-2.94839720297377
 10
2.70523042334707
 20
-2.94679742152886
 10
2.70523042334707
 20
-2.94679742152886
 10
2.70523042334707
 20
-2.94519764008394
 10
2.70523042334707
 20
-2.94519764008394
 10
2.70363064190215
 20
-2.94359785863903
 10
2.70363064190215
 20
-2.94359785863903
 10
2.70363064190215
 20
-2.94199807719412
 10
2.70363064190215
 20
-2.94199807719412
 10
2.70363064190215
 20
-2.94039829574921
 10
2.70363064190215
 20
-2.94039829574921
 10
2.70363064190215
 20
-2.93879851430429
 10
2.70363064190215
 20
-2.93879851430429
 10
2.70363064190215
 20
-2.93719873285938
 10
2.70363064190215
 20
-2.93719873285938
 10
2.70363064190215
 20
-2.93559895141447
 10
2.70363064190215
 20
-2.93559895141447
 10
2.70363064190215
 20
-2.93399916996956
 10
2.70363064190215
 20
-2.93399916996956
 10
2.70203086045724
 20
-2.93239938852464
 10
2.70203086045724
 20
-2.93239938852464
 10
2.70203086045724
 20
-2.93079960707973
 10
2.70203086045724
 20
-2.93079960707973
 10
2.70203086045724
 20
-2.92919982563482
 10
2.70203086045724
 20
-2.92760004418991
 10
2.70203086045724
 20
-2.92600026274499
 10
2.70203086045724
 20
-2.92440048130008
 10
2.70203086045724
 20
-2.92280069985517
 10
2.70043107901233
 20
-2.92120091841026
 10
2.70043107901233
 20
-2.91960113696534
 10
2.70043107901233
 20
-2.91800135552043
 10
2.70043107901233
 20
-2.91640157407552
 10
2.70043107901233
 20
-2.91480179263061
 10
2.70043107901233
 20
-2.91320201118569
 10
2.70043107901233
 20
-2.91160222974078
 10
2.69883129756742
 20
-2.91000244829587
 10
2.69883129756742
 20
-2.90840266685096
 10
2.69883129756742
 20
-2.90680288540604
 10
2.69883129756742
 20
-2.90520310396113
 10
2.69883129756742
 20
-2.90360332251622
 10
2.69883129756742
 20
-2.9020035410713
 10
2.6972315161225
 20
-2.90040375962639
 10
2.6972315161225
 20
-2.89880397818148
 10
2.6972315161225
 20
-2.89720419673657
 10
2.6972315161225
 20
-2.89560441529166
 10
2.6972315161225
 20
-2.89400463384674
 10
2.6972315161225
 20
-2.89240485240183
 10
2.6972315161225
 20
-2.89080507095692
 10
2.6972315161225
 20
-2.89240485240183
  0
LWPOLYLINE
  5
9F2
100
AcDbEntity
  8
0
100
AcDbPolyline
370
-2
 62
7
  6
CONTINUOUS
 38
0
 90
26
 70
0
 10
2.98199261331693
 20
-3.12597294335906
 10
2.98199261331693
 20
-3.12757272480397
 10
2.98199261331693
 20
-3.12917250624888
 10
2.98199261331693
 20
-3.1307722876938
 10
2.98199261331693
 20
-3.1307722876938
 10
2.98199261331693
 20
-3.13237206913871
 10
2.98199261331693
 20
-3.13397185058362
 10
2.98199261331693
 20
-3.13557163202853
 10
2.98199261331693
 20
-3.13557163202853
 10
2.98199261331693
 20
-3.13717141347345
 10
2.98199261331693
 20
-3.13877119491836
 10
2.98199261331693
 20
-3.14037097636327
 10
2.98199261331693
 20
-3.14037097636327
 10
2.98199261331693
 20
-3.14197075780818
 10
2.98199261331693
 20
-3.1435705392531
 10
2.98199261331693
 20
-3.14517032069801
 10
2.98199261331693
 20
-3.14517032069801
 10
2.98199261331693
 20
-3.14677010214292
 10
2.98199261331693
 20
-3.14836988358783
 10
2.98199261331693
 20
-3.14996966503275
 10
2.98199261331693
 20
-3.14996966503275
 10
2.98199261331693
 20
-3.15156944647766
 10
2.98199261331693
 20
-3.15316922792257
 10
2.98199261331693
 20
-3.15476900936748
 10
2.98199261331693
 20
-3.15476900936748
 10
2.98199261331693
 20
-3.1563687908124
  0
LWPOLYLINE
  5
A0D
100
AcDbEntity
  8
0
100
AcDbPolyline
370
-2
 62
7
  6
CONTINUOUS
 38
0
 90
47
 70
0
 10
2.98199261331693
 20
-3.15476900936748
 10
2.98199261331693
 20
-3.1563687908124
 10
2.98199261331693
 20
-3.1563687908124
 10
2.98199261331693
 20
-3.15796857225731
 10
2.98199261331693
 20
-3.15796857225731
 10
2.98199261331693
 20
-3.15956835370222
 10
2.98199261331693
 20
-3.15956835370222
 10
2.98199261331693
 20
-3.15956835370222
 10
2.98039283187202
 20
-3.16116813514713
 10
2.98039283187202
 20
-3.16116813514713
 10
2.98039283187202
 20
-3.16116813514713
 10
2.98039283187202
 20
-3.16276791659205
 10
2.98039283187202
 20
-3.16276791659205
 10
2.97879305042711
 20
-3.16276791659205
 10
2.97879305042711
 20
-3.16276791659205
 10
2.97879305042711
 20
-3.16436769803696
 10
2.97879305042711
 20
-3.16436769803696
 10
2.97719326898219
 20
-3.16596747948187
 10
2.97719326898219
 20
-3.16596747948187
 10
2.97559348753728
 20
-3.16756726092678
 10
2.97559348753728
 20
-3.16756726092678
 10
2.97559348753728
 20
-3.16756726092678
 10
2.97399370609237
 20
-3.16756726092678
 10
2.97399370609237
 20
-3.16756726092678
 10
2.97399370609237
 20
-3.1691670423717
 10
2.97399370609237
 20
-3.1691670423717
 10
2.97239392464746
 20
-3.1691670423717
 10
2.97239392464746
 20
-3.1691670423717
 10
2.97239392464746
 20
-3.17076682381661
 10
2.97239392464746
 20
-3.17076682381661
 10
2.97079414320254
 20
-3.17076682381661
 10
2.97079414320254
 20
-3.17076682381661
 10
2.97079414320254
 20
-3.17076682381661
 10
2.96919436175763
 20
-3.17076682381661
 10
2.96919436175763
 20
-3.17076682381661
 10
2.96919436175763
 20
-3.17236660526152
 10
2.96919436175763
 20
-3.17236660526152
 10
2.96759458031272
 20
-3.17236660526152
 10
2.96759458031272
 20
-3.17236660526152
 10
2.96599479886781
 20
-3.17236660526152
 10
2.96599479886781
 20
-3.17236660526152
 10
2.96439501742289
 20
-3.17236660526152
 10
2.96439501742289
 20
-3.17236660526152
 10
2.96439501742289
 20
-3.17236660526152
 10
2.96279523597798
 20
-3.17236660526152
 10
2.96279523597798
 20
-3.17236660526152
 10
2.96279523597798
 20
-3.17396638670643
  0
LWPOLYLINE
  5
A3D
100
AcDbEntity
  8
0
100
AcDbPolyline
370
-2
 62
7
  6
CONTINUOUS
 38
0
 90
3
 70
0
 10
2.96279523597798
 20
-3.17236660526152
 10
2.95159676586359
 20
-3.17236660526152
 10
2.95159676586359
 20
-3.17396638670643
  0
POINT
  5
A41
100
AcDbEntity
  8
0
100
AcDbPoint
370
-2
 62
7
  6
CONTINUOUS
 10
2.68923260889794
 20
-2.88440594517727
 30
0
  0
LWPOLYLINE
  5
A42
100
AcDbEntity
  8
0
100
AcDbPolyline
370
-2
 62
7
  6
CONTINUOUS
 38
0
 90
107
 70
0
 10
2.97879305042711
 20
-3.11957381757941
 10
2.97719326898219
 20
-3.11957381757941
 10
2.97559348753728
 20
-3.11957381757941
 10
2.97399370609237
 20
-3.11957381757941
 10
2.97239392464746
 20
-3.11957381757941
 10
2.97239392464746
 20
-3.11957381757941
 10
2.97079414320254
 20
-3.11957381757941
 10
2.96919436175763
 20
-3.11957381757941
 10
2.96759458031272
 20
-3.11957381757941
 10
2.96599479886781
 20
-3.11957381757941
 10
2.96599479886781
 20
-3.11957381757941
 10
2.96439501742289
 20
-3.11957381757941
 10
2.96279523597798
 20
-3.11957381757941
 10
2.96119545453307
 20
-3.11957381757941
 10
2.96119545453307
 20
-3.11957381757941
 10
2.95959567308816
 20
-3.11957381757941
 10
2.95799589164324
 20
-3.11957381757941
 10
2.95639611019833
 20
-3.11957381757941
 10
2.95479632875342
 20
-3.11957381757941
 10
2.95479632875342
 20
-3.11957381757941
 10
2.95319654730851
 20
-3.11957381757941
 10
2.95159676586359
 20
-3.11957381757941
 10
2.94999698441868
 20
-3.11957381757941
 10
2.94839720297377
 20
-3.11957381757941
 10
2.94839720297377
 20
-3.11957381757941
 10
2.94679742152886
 20
-3.11957381757941
 10
2.94519764008394
 20
-3.1179740361345
 10
2.94359785863903
 20
-3.1179740361345
 10
2.94199807719412
 20
-3.1179740361345
 10
2.94199807719412
 20
-3.1179740361345
 10
2.94039829574921
 20
-3.1179740361345
 10
2.93879851430429
 20
-3.1179740361345
 10
2.93719873285938
 20
-3.1179740361345
 10
2.93719873285938
 20
-3.1179740361345
 10
2.93559895141447
 20
-3.1179740361345
 10
2.93399916996956
 20
-3.1179740361345
 10
2.93239938852464
 20
-3.1179740361345
 10
2.93079960707973
 20
-3.1179740361345
 10
2.93079960707973
 20
-3.1179740361345
 10
2.92919982563482
 20
-3.1179740361345
 10
2.92760004418991
 20
-3.1179740361345
 10
2.92600026274499
 20
-3.1179740361345
 10
2.92440048130008
 20
-3.1179740361345
 10
2.92440048130008
 20
-3.1179740361345
 10
2.92280069985517
 20
-3.1179740361345
 10
2.92120091841026
 20
-3.1179740361345
 10
2.91960113696534
 20
-3.1179740361345
 10
2.91800135552043
 20
-3.1179740361345
 10
2.91800135552043
 20
-3.1179740361345
 10
2.91640157407552
 20
-3.1179740361345
 10
2.91480179263061
 20
-3.1179740361345
 10
2.91320201118569
 20
-3.1179740361345
 10
2.91320201118569
 20
-3.1179740361345
 10
2.91160222974078
 20
-3.1179740361345
 10
2.91000244829587
 20
-3.1179740361345
 10
2.90840266685096
 20
-3.1179740361345
 10
2.90680288540604
 20
-3.1179740361345
 10
2.90680288540604
 20
-3.1179740361345
 10
2.90520310396113
 20
-3.11637425468958
 10
2.90360332251622
 20
-3.11637425468958
 10
2.9020035410713
 20
-3.11637425468958
 10
2.90040375962639
 20
-3.11637425468958
 10
2.90040375962639
 20
-3.11637425468958
 10
2.89880397818148
 20
-3.11637425468958
 10
2.89720419673657
 20
-3.11637425468958
 10
2.89560441529166
 20
-3.11637425468958
 10
2.89560441529166
 20
-3.11637425468958
 10
2.89400463384674
 20
-3.11637425468958
 10
2.89240485240183
 20
-3.11637425468958
 10
2.89080507095692
 20
-3.11637425468958
 10
2.88920528951201
 20
-3.11637425468958
 10
2.88920528951201
 20
-3.11637425468958
 10
2.88760550806709
 20
-3.11637425468958
 10
2.88600572662218
 20
-3.11637425468958
 10
2.88600572662218
 20
-3.11637425468958
 10
2.88440594517727
 20
-3.11637425468958
 10
2.88280616373236
 20
-3.11637425468958
 10
2.88280616373236
 20
-3.11637425468958
 10
2.88120638228744
 20
-3.11637425468958
 10
2.88120638228744
 20
-3.11637425468958
 10
2.87960660084253
 20
-3.11637425468958
 10
2.87960660084253
 20
-3.11637425468958
 10
2.87800681939762
 20
-3.11637425468958
 10
2.8764070379527
 20
-3.11637425468958
 10
2.8764070379527
 20
-3.11637425468958
 10
2.87480725650779
 20
-3.11477447324467
 10
2.87480725650779
 20
-3.11477447324467
 10
2.87320747506288
 20
-3.11477447324467
 10
2.87160769361797
 20
-3.11477447324467
 10
2.87160769361797
 20
-3.11477447324467
 10
2.87000791217306
 20
-3.11477447324467
 10
2.87000791217306
 20
-3.11477447324467
 10
2.86840813072814
 20
-3.11477447324467
 10
2.86840813072814
 20
-3.11477447324467
 10
2.86680834928323
 20
-3.11477447324467
 10
2.86520856783832
 20
-3.11477447324467
 10
2.86520856783832
 20
-3.11477447324467
 10
2.86360878639341
 20
-3.11477447324467
 10
2.86360878639341
 20
-3.11477447324467
 10
2.86200900494849
 20
-3.11477447324467
 10
2.86200900494849
 20
-3.11477447324467
 10
2.86040922350358
 20
-3.11477447324467
 10
2.85880944205867
 20
-3.11477447324467
 10
2.85880944205867
 20
-3.11477447324467
 10
2.85720966061375
 20
-3.11477447324467
 10
2.85720966061375
 20
-3.11477447324467
 10
2.85720966061375
 20
-3.11637425468958
  0
LWPOLYLINE
  5
AAE
100
AcDbEntity
  8
0
100
AcDbPolyline
370
-2
 62
7
  6
CONTINUOUS
 38
0
 90
3
 70
0
 10
3.00598933499062
 20
-3.11957381757941
 10
2.97879305042711
 20
-3.11957381757941
 10
2.97879305042711
 20
-3.12117359902432
  0
LWPOLYLINE
  5
AB2
100
AcDbEntity
  8
0
100
AcDbPolyline
370
-2
 62
7
  6
CONTINUOUS
 38
0
 90
3
 70
0
 10
3.07318015567694
 20
-3.11957381757941
 10
3.06838081134221
 20
-3.11957381757941
 10
3.06838081134221
 20
-3.12117359902432
  0
LWPOLYLINE
  5
AB6
100
AcDbEntity
  8
0
100
AcDbPolyline
370
-2
 62
7
  6
CONTINUOUS
 38
0
 90
15
 70
0
 10
2.98199261331693
 20
-3.12597294335906
 10
2.98199261331693
 20
-3.12597294335906
 10
2.98199261331693
 20
-3.12437316191415
 10
2.98199261331693
 20
-3.12437316191415
 10
2.98039283187202
 20
-3.12437316191415
 10
2.98039283187202
 20
-3.12277338046923
 10
2.98039283187202
 20
-3.12277338046923
 10
2.98039283187202
 20
-3.12277338046923
 10
2.98039283187202
 20
-3.12117359902432
 10
2.98039283187202
 20
-3.12117359902432
 10
2.98039283187202
 20
-3.12117359902432
 10
2.97879305042711
 20
-3.11957381757941
 10
2.97879305042711
 20
-3.11957381757941
 10
2.97879305042711
 20
-3.11957381757941
 10
2.97879305042711
 20
-3.12117359902432
  0
LWPOLYLINE
  5
AC6
100
AcDbEntity
  8
0
100
AcDbPolyline
370
-2
 62
7
  6
CONTINUOUS
 38
0
 90
133
 70
0
 10
1.15344242178192
 20
-3.01878758654992
 10
1.15344242178192
 20
-3.01718780510501
 10
1.15344242178192
 20
-3.01558802366009
 10
1.15344242178192
 20
-3.01558802366009
 10
1.15504220322684
 20
-3.01398824221518
 10
1.15504220322684
 20
-3.01398824221518
 10
1.15504220322684
 20
-3.01238846077027
 10
1.15504220322684
 20
-3.01238846077027
 10
1.15504220322684
 20
-3.01078867932536
 10
1.15504220322684
 20
-3.01078867932536
 10
1.15664198467175
 20
-3.00918889788044
 10
1.15664198467175
 20
-3.00758911643553
 10
1.15664198467175
 20
-3.00598933499062
 10
1.15664198467175
 20
-3.00598933499062
 10
1.15664198467175
 20
-3.00438955354571
 10
1.15824176611666
 20
-3.00438955354571
 10
1.15824176611666
 20
-3.00278977210079
 10
1.15824176611666
 20
-3.00278977210079
 10
1.15824176611666
 20
-3.00118999065588
 10
1.15824176611666
 20
-3.00118999065588
 10
1.15824176611666
 20
-2.99959020921097
 10
1.15824176611666
 20
-2.99959020921097
 10
1.15984154756157
 20
-2.99799042776606
 10
1.15984154756157
 20
-2.99639064632114
 10
1.15984154756157
 20
-2.99639064632114
 10
1.15984154756157
 20
-2.99479086487623
 10
1.15984154756157
 20
-2.99479086487623
 10
1.15984154756157
 20
-2.99319108343132
 10
1.15984154756157
 20
-2.99319108343132
 10
1.16144132900649
 20
-2.99159130198641
 10
1.16144132900649
 20
-2.99159130198641
 10
1.16144132900649
 20
-2.98999152054149
 10
1.16144132900649
 20
-2.98999152054149
 10
1.16144132900649
 20
-2.98839173909658
 10
1.16144132900649
 20
-2.98679195765167
 10
1.16144132900649
 20
-2.98519217620676
 10
1.1630411104514
 20
-2.98519217620676
 10
1.1630411104514
 20
-2.98519217620676
 10
1.1630411104514
 20
-2.98359239476184
 10
1.1630411104514
 20
-2.98359239476184
 10
1.1630411104514
 20
-2.98199261331693
 10
1.1630411104514
 20
-2.98199261331693
 10
1.1630411104514
 20
-2.98039283187202
 10
1.1630411104514
 20
-2.97879305042711
 10
1.1630411104514
 20
-2.97719326898219
 10
1.16464089189631
 20
-2.97719326898219
 10
1.16464089189631
 20
-2.97719326898219
 10
1.16464089189631
 20
-2.97559348753728
 10
1.16464089189631
 20
-2.97559348753728
 10
1.16464089189631
 20
-2.97399370609237
 10
1.16464089189631
 20
-2.97399370609237
 10
1.16464089189631
 20
-2.97239392464746
 10
1.16464089189631
 20
-2.97239392464746
 10
1.16464089189631
 20
-2.97079414320254
 10
1.16464089189631
 20
-2.96919436175763
 10
1.16624067334122
 20
-2.96919436175763
 10
1.16624067334122
 20
-2.96759458031272
 10
1.16624067334122
 20
-2.96759458031272
 10
1.16624067334122
 20
-2.96599479886781
 10
1.16624067334122
 20
-2.96599479886781
 10
1.16624067334122
 20
-2.96439501742289
 10
1.16624067334122
 20
-2.96439501742289
 10
1.16624067334122
 20
-2.96279523597798
 10
1.16624067334122
 20
-2.96119545453307
 10
1.16624067334122
 20
-2.96119545453307
 10
1.16624067334122
 20
-2.95959567308816
 10
1.16784045478614
 20
-2.95959567308816
 10
1.16784045478614
 20
-2.95799589164324
 10
1.16784045478614
 20
-2.95799589164324
 10
1.16784045478614
 20
-2.95639611019833
 10
1.16784045478614
 20
-2.95639611019833
 10
1.16784045478614
 20
-2.95479632875342
 10
1.16784045478614
 20
-2.95319654730851
 10
1.16784045478614
 20
-2.95319654730851
 10
1.16784045478614
 20
-2.95159676586359
 10
1.16784045478614
 20
-2.95159676586359
 10
1.16784045478614
 20
-2.94999698441868
 10
1.16784045478614
 20
-2.94999698441868
 10
1.16784045478614
 20
-2.94839720297377
 10
1.16784045478614
 20
-2.94839720297377
 10
1.16944023623105
 20
-2.94839720297377
 10
1.16944023623105
 20
-2.94679742152886
 10
1.16944023623105
 20
-2.94519764008394
 10
1.16944023623105
 20
-2.94519764008394
 10
1.16944023623105
 20
-2.94359785863903
 10
1.16944023623105
 20
-2.94359785863903
 10
1.16944023623105
 20
-2.94199807719412
 10
1.16944023623105
 20
-2.94199807719412
 10
1.16944023623105
 20
-2.94039829574921
 10
1.16944023623105
 20
-2.93879851430429
 10
1.16944023623105
 20
-2.93719873285938
 10
1.16944023623105
 20
-2.93719873285938
 10
1.17104001767596
 20
-2.93559895141447
 10
1.17104001767596
 20
-2.93559895141447
 10
1.17104001767596
 20
-2.93399916996956
 10
1.17104001767596
 20
-2.93399916996956
 10
1.17104001767596
 20
-2.93239938852464
 10
1.17104001767596
 20
-2.93079960707973
 10
1.17104001767596
 20
-2.93079960707973
 10
1.17104001767596
 20
-2.92919982563482
 10
1.17104001767596
 20
-2.92919982563482
 10
1.17104001767596
 20
-2.92760004418991
 10
1.17104001767596
 20
-2.92760004418991
 10
1.17104001767596
 20
-2.92600026274499
 10
1.17104001767596
 20
-2.92440048130008
 10
1.17104001767596
 20
-2.92280069985517
 10
1.17263979912087
 20
-2.92280069985517
 10
1.17263979912087
 20
-2.92280069985517
 10
1.17263979912087
 20
-2.92120091841026
 10
1.17263979912087
 20
-2.91960113696534
 10
1.17263979912087
 20
-2.91800135552043
 10
1.17263979912087
 20
-2.91640157407552
 10
1.17263979912087
 20
-2.91640157407552
 10
1.17263979912087
 20
-2.91480179263061
 10
1.17263979912087
 20
-2.91320201118569
 10
1.17263979912087
 20
-2.91160222974078
 10
1.17263979912087
 20
-2.91000244829587
 10
1.17423958056579
 20
-2.91000244829587
 10
1.17423958056579
 20
-2.90840266685096
 10
1.17423958056579
 20
-2.90680288540604
 10
1.17423958056579
 20
-2.90520310396113
 10
1.17423958056579
 20
-2.90360332251622
 10
1.17423958056579
 20
-2.9020035410713
 10
1.17423958056579
 20
-2.9020035410713
 10
1.17423958056579
 20
-2.90040375962639
 10
1.17423958056579
 20
-2.89880397818148
 10
1.1758393620107
 20
-2.89720419673657
 10
1.1758393620107
 20
-2.89560441529166
 10
1.1758393620107
 20
-2.89560441529166
 10
1.1758393620107
 20
-2.89400463384674
 10
1.1758393620107
 20
-2.89240485240183
 10
1.1758393620107
 20
-2.89080507095692
 10
1.1758393620107
 20
-2.89240485240183
  0
LWPOLYLINE
  5
B4C
100
AcDbEntity
  8
0
100
AcDbPolyline
370
-2
 62
7
  6
CONTINUOUS
 38
0
 90
132
 70
0
 10
0.305558255978291
 20
-3.01878758654992
 10
0.303958474533378
 20
-3.01718780510501
 10
0.303958474533378
 20
-3.01718780510501
 10
0.303958474533378
 20
-3.01558802366009
 10
0.303958474533378
 20
-3.01398824221518
 10
0.302358693088466
 20
-3.01238846077027
 10
0.302358693088466
 20
-3.01238846077027
 10
0.302358693088466
 20
-3.01078867932536
 10
0.302358693088466
 20
-3.01078867932536
 10
0.302358693088466
 20
-3.00918889788044
 10
0.302358693088466
 20
-3.00918889788044
 10
0.300758911643553
 20
-3.00758911643553
 10
0.300758911643553
 20
-3.00758911643553
 10
0.300758911643553
 20
-3.00598933499062
 10
0.300758911643553
 20
-3.00598933499062
 10
0.300758911643553
 20
-3.00438955354571
 10
0.300758911643553
 20
-3.00278977210079
 10
0.299159130198641
 20
-3.00278977210079
 10
0.299159130198641
 20
-3.00118999065588
 10
0.299159130198641
 20
-3.00118999065588
 10
0.299159130198641
 20
-2.99959020921097
 10
0.299159130198641
 20
-2.99959020921097
 10
0.299159130198641
 20
-2.99799042776606
 10
0.299159130198641
 20
-2.99799042776606
 10
0.299159130198641
 20
-2.99639064632114
 10
0.297559348753728
 20
-2.99639064632114
 10
0.297559348753728
 20
-2.99479086487623
 10
0.297559348753728
 20
-2.99319108343132
 10
0.297559348753728
 20
-2.99159130198641
 10
0.297559348753728
 20
-2.99159130198641
 10
0.295959567308816
 20
-2.98999152054149
 10
0.295959567308816
 20
-2.98999152054149
 10
0.295959567308816
 20
-2.98839173909658
 10
0.295959567308816
 20
-2.98839173909658
 10
0.295959567308816
 20
-2.98679195765167
 10
0.295959567308816
 20
-2.98679195765167
 10
0.295959567308816
 20
-2.98519217620676
 10
0.295959567308816
 20
-2.98359239476184
 10
0.294359785863903
 20
-2.98359239476184
 10
0.294359785863903
 20
-2.98199261331693
 10
0.294359785863903
 20
-2.98199261331693
 10
0.294359785863903
 20
-2.98039283187202
 10
0.294359785863903
 20
-2.98039283187202
 10
0.294359785863903
 20
-2.97879305042711
 10
0.294359785863903
 20
-2.97879305042711
 10
0.294359785863903
 20
-2.97719326898219
 10
0.294359785863903
 20
-2.97559348753728
 10
0.292760004418991
 20
-2.97559348753728
 10
0.292760004418991
 20
-2.97559348753728
 10
0.292760004418991
 20
-2.97399370609237
 10
0.292760004418991
 20
-2.97399370609237
 10
0.292760004418991
 20
-2.97239392464746
 10
0.292760004418991
 20
-2.97239392464746
 10
0.292760004418991
 20
-2.97079414320254
 10
0.292760004418991
 20
-2.97079414320254
 10
0.292760004418991
 20
-2.96919436175763
 10
0.292760004418991
 20
-2.96759458031272
 10
0.291160222974078
 20
-2.96759458031272
 10
0.291160222974078
 20
-2.96599479886781
 10
0.291160222974078
 20
-2.96599479886781
 10
0.291160222974078
 20
-2.96439501742289
 10
0.291160222974078
 20
-2.96439501742289
 10
0.291160222974078
 20
-2.96279523597798
 10
0.291160222974078
 20
-2.96279523597798
 10
0.291160222974078
 20
-2.96119545453307
 10
0.291160222974078
 20
-2.95959567308816
 10
0.291160222974078
 20
-2.95959567308816
 10
0.291160222974078
 20
-2.95799589164324
 10
0.291160222974078
 20
-2.95799589164324
 10
0.289560441529166
 20
-2.95639611019833
 10
0.289560441529166
 20
-2.95639611019833
 10
0.289560441529166
 20
-2.95479632875342
 10
0.289560441529166
 20
-2.95479632875342
 10
0.289560441529166
 20
-2.95319654730851
 10
0.289560441529166
 20
-2.95159676586359
 10
0.289560441529166
 20
-2.95159676586359
 10
0.289560441529166
 20
-2.94999698441868
 10
0.289560441529166
 20
-2.94999698441868
 10
0.289560441529166
 20
-2.94839720297377
 10
0.289560441529166
 20
-2.94839720297377
 10
0.289560441529166
 20
-2.94679742152886
 10
0.287960660084253
 20
-2.94679742152886
 10
0.287960660084253
 20
-2.94519764008394
 10
0.287960660084253
 20
-2.94359785863903
 10
0.287960660084253
 20
-2.94359785863903
 10
0.287960660084253
 20
-2.94199807719412
 10
0.287960660084253
 20
-2.94199807719412
 10
0.287960660084253
 20
-2.94039829574921
 10
0.287960660084253
 20
-2.94039829574921
 10
0.287960660084253
 20
-2.93879851430429
 10
0.287960660084253
 20
-2.93719873285938
 10
0.287960660084253
 20
-2.93719873285938
 10
0.287960660084253
 20
-2.93559895141447
 10
0.287960660084253
 20
-2.93559895141447
 10
0.286360878639341
 20
-2.93399916996956
 10
0.286360878639341
 20
-2.93399916996956
 10
0.286360878639341
 20
-2.93239938852464
 10
0.286360878639341
 20
-2.93079960707973
 10
0.286360878639341
 20
-2.92919982563482
 10
0.286360878639341
 20
-2.92919982563482
 10
0.286360878639341
 20
-2.92760004418991
 10
0.286360878639341
 20
-2.92760004418991
 10
0.286360878639341
 20
-2.92600026274499
 10
0.286360878639341
 20
-2.92600026274499
 10
0.286360878639341
 20
-2.92440048130008
 10
0.286360878639341
 20
-2.92280069985517
 10
0.284761097194428
 20
-2.92280069985517
 10
0.284761097194428
 20
-2.92120091841026
 10
0.284761097194428
 20
-2.91960113696534
 10
0.284761097194428
 20
-2.91800135552043
 10
0.284761097194428
 20
-2.91640157407552
 10
0.284761097194428
 20
-2.91640157407552
 10
0.284761097194428
 20
-2.91480179263061
 10
0.284761097194428
 20
-2.91320201118569
 10
0.284761097194428
 20
-2.91160222974078
 10
0.284761097194428
 20
-2.91000244829587
 10
0.283161315749515
 20
-2.90840266685096
 10
0.283161315749515
 20
-2.90840266685096
 10
0.283161315749515
 20
-2.90680288540604
 10
0.283161315749515
 20
-2.90520310396113
 10
0.283161315749515
 20
-2.90360332251622
 10
0.283161315749515
 20
-2.9020035410713
 10
0.283161315749515
 20
-2.9020035410713
 10
0.283161315749515
 20
-2.90040375962639
 10
0.283161315749515
 20
-2.89880397818148
 10
0.283161315749515
 20
-2.89720419673657
 10
0.281561534304603
 20
-2.89560441529166
 10
0.281561534304603
 20
-2.89560441529166
 10
0.281561534304603
 20
-2.89400463384674
 10
0.281561534304603
 20
-2.89240485240183
 10
0.281561534304603
 20
-2.89080507095692
 10
0.281561534304603
 20
-2.89240485240183
  0
LWPOLYLINE
  5
BD1
100
AcDbEntity
  8
0
100
AcDbPolyline
370
-2
 62
7
  6
CONTINUOUS
 38
0
 90
3
 70
0
 10
0.751897279108883
 20
-3.11957381757941
 10
0.795091378121521
 20
-3.11957381757941
 10
0.795091378121521
 20
-3.12117359902432
  0
LWPOLYLINE
  5
BD5
100
AcDbEntity
  8
0
100
AcDbPolyline
370
-2
 62
7
  6
CONTINUOUS
 38
0
 90
28
 70
0
 10
0.729500338880108
 20
-3.11957381757941
 10
0.729500338880108
 20
-3.11957381757941
 10
0.73110012032502
 20
-3.11957381757941
 10
0.73110012032502
 20
-3.11957381757941
 10
0.73110012032502
 20
-3.11957381757941
 10
0.732699901769933
 20
-3.11957381757941
 10
0.732699901769933
 20
-3.11957381757941
 10
0.734299683214845
 20
-3.11957381757941
 10
0.734299683214845
 20
-3.11957381757941
 10
0.735899464659758
 20
-3.11957381757941
 10
0.735899464659758
 20
-3.11957381757941
 10
0.73749924610467
 20
-3.11957381757941
 10
0.73749924610467
 20
-3.11957381757941
 10
0.739099027549583
 20
-3.11957381757941
 10
0.739099027549583
 20
-3.11957381757941
 10
0.740698808994495
 20
-3.11957381757941
 10
0.742298590439408
 20
-3.11957381757941
 10
0.74389837188432
 20
-3.11957381757941
 10
0.745498153329233
 20
-3.11957381757941
 10
0.747097934774145
 20
-3.11957381757941
 10
0.747097934774145
 20
-3.11957381757941
 10
0.748697716219058
 20
-3.11957381757941
 10
0.748697716219058
 20
-3.11957381757941
 10
0.75029749766397
 20
-3.11957381757941
 10
0.75029749766397
 20
-3.11957381757941
 10
0.751897279108883
 20
-3.11957381757941
 10
0.751897279108883
 20
-3.11957381757941
 10
0.751897279108883
 20
-3.12117359902432
  0
LWPOLYLINE
  5
BF2
100
AcDbEntity
  8
0
100
AcDbPolyline
370
-2
 62
7
  6
CONTINUOUS
 38
0
 90
28
 70
0
 10
0.70550361720642
 20
-3.11957381757941
 10
0.70550361720642
 20
-3.11957381757941
 10
0.707103398651332
 20
-3.11957381757941
 10
0.707103398651332
 20
-3.11957381757941
 10
0.708703180096245
 20
-3.11957381757941
 10
0.708703180096245
 20
-3.11957381757941
 10
0.710302961541158
 20
-3.11957381757941
 10
0.710302961541158
 20
-3.11957381757941
 10
0.710302961541158
 20
-3.11957381757941
 10
0.71190274298607
 20
-3.11957381757941
 10
0.71190274298607
 20
-3.11957381757941
 10
0.713502524430983
 20
-3.11957381757941
 10
0.713502524430983
 20
-3.11957381757941
 10
0.715102305875895
 20
-3.11957381757941
 10
0.715102305875895
 20
-3.11957381757941
 10
0.716702087320808
 20
-3.11957381757941
 10
0.716702087320808
 20
-3.11957381757941
 10
0.71830186876572
 20
-3.11957381757941
 10
0.71830186876572
 20
-3.11957381757941
 10
0.719901650210633
 20
-3.11957381757941
 10
0.719901650210633
 20
-3.11957381757941
 10
0.721501431655545
 20
-3.11957381757941
 10
0.723101213100458
 20
-3.11957381757941
 10
0.72470099454537
 20
-3.11957381757941
 10
0.726300775990283
 20
-3.11957381757941
 10
0.727900557435195
 20
-3.11957381757941
 10
0.729500338880108
 20
-3.11957381757941
 10
0.729500338880108
 20
-3.12117359902432
  0
LWPOLYLINE
  5
C0F
100
AcDbEntity
  8
0
100
AcDbPolyline
370
-2
 62
7
  6
CONTINUOUS
 38
0
 90
3
 70
0
 10
0.662309518193782
 20
-3.11957381757941
 10
0.70550361720642
 20
-3.11957381757941
 10
0.70550361720642
 20
-3.12117359902432
  0
ELLIPSE
  5
C13
100
AcDbEntity
  8
0
100
AcDbEllipse
370
-2
 62
7
  6
CONTINUOUS
 10
0.727100666712739
 20
-5.78560959552612
 30
0
 11
0
 21
0.0535926784045695
 31
0
 40
0.999999999999996
 41
0
 42
6.28318530717959
  0
ELLIPSE
  5
C14
100
AcDbEntity
  8
0
100
AcDbEllipse
370
-2
 62
7
  6
CONTINUOUS
 10
0.727100666712739
 20
-5.78560959552612
 30
0
 11
0.0343953010656191
 21
0
 31
0
 40
0.999999999999998
 41
0
 42
6.28318530717959
  0
LWPOLYLINE
  5
C15
100
AcDbEntity
  8
0
100
AcDbPolyline
370
-2
 62
1
  6
CONTINUOUS
 38
0
 90
3
 70
0
 10
0.729500338880108
 20
-5.41046084669413
 10
0.729500338880108
 20
-5.48885013749484
 10
0.729500338880108
 20
-5.49044991893976
  0
LWPOLYLINE
  5
C19
100
AcDbEntity
  8
0
100
AcDbPolyline
370
-2
 62
1
  6
CONTINUOUS
 38
0
 90
3
 70
0
 10
0.729500338880108
 20
-5.51924598494818
 10
0.729500338880108
 20
-5.54964183240152
 10
0.729500338880108
 20
-5.55124161384643
  0
LWPOLYLINE
  5
C1D
100
AcDbEntity
  8
0
100
AcDbPolyline
370
-2
 62
1
  6
CONTINUOUS
 38
0
 90
3
 70
0
 10
0.729500338880108
 20
-5.58003767985486
 10
0.729500338880108
 20
-5.73361669856646
 10
0.729500338880108
 20
-5.73521648001137
  0
LWPOLYLINE
  5
C21
100
AcDbEntity
  8
0
100
AcDbPolyline
370
-2
 62
1
  6
CONTINUOUS
 38
0
 90
3
 70
0
 10
0.729500338880108
 20
-5.7640125460198
 10
0.729500338880108
 20
-5.79440839347314
 10
0.729500338880108
 20
-5.79600817491805
  0
LWPOLYLINE
  5
C25
100
AcDbEntity
  8
0
100
AcDbPolyline
370
-2
 62
1
  6
CONTINUOUS
 38
0
 90
3
 70
0
 10
0.729500338880108
 20
-5.82480424092647
 10
0.729500338880108
 20
-5.97678347819316
 10
0.729500338880108
 20
-5.97838325963807
  0
LWPOLYLINE
  5
C29
100
AcDbEntity
  8
0
100
AcDbPolyline
370
-2
 62
1
  6
CONTINUOUS
 38
0
 90
3
 70
0
 10
0.729500338880108
 20
-6.0071793256465
 10
0.729500338880108
 20
-6.03757517309984
 10
0.729500338880108
 20
-6.03917495454475
  0
LWPOLYLINE
  5
C2D
100
AcDbEntity
  8
0
100
AcDbPolyline
370
-2
 62
1
  6
CONTINUOUS
 38
0
 90
3
 70
0
 10
0.729500338880108
 20
-6.06797102055318
 10
0.729500338880108
 20
-6.14636031135389
 10
0.729500338880108
 20
-6.1479600927988
  0
LWPOLYLINE
  5
C31
100
AcDbEntity
  8
0
100
AcDbPolyline
370
-2
 62
1
  6
CONTINUOUS
 38
0
 90
3
 70
0
 10
0.635113233630269
 20
-5.78640948624857
 10
0.663909299638695
 20
-5.78640948624857
 10
0.663909299638695
 20
-5.78800926769349
  0
LWPOLYLINE
  5
C35
100
AcDbEntity
  8
0
100
AcDbPolyline
370
-2
 62
1
  6
CONTINUOUS
 38
0
 90
3
 70
0
 10
0.670308425418345
 20
-5.78640948624857
 10
0.676707551197995
 20
-5.78640948624857
 10
0.676707551197995
 20
-5.78800926769349
  0
LWPOLYLINE
  5
C39
100
AcDbEntity
  8
0
100
AcDbPolyline
370
-2
 62
1
  6
CONTINUOUS
 38
0
 90
3
 70
0
 10
0.683106676977645
 20
-5.78640948624857
 10
0.713502524430983
 20
-5.78640948624857
 10
0.713502524430983
 20
-5.78800926769349
  0
LWPOLYLINE
  5
C3D
100
AcDbEntity
  8
0
100
AcDbPolyline
370
-2
 62
1
  6
CONTINUOUS
 38
0
 90
3
 70
0
 10
0.71830186876572
 20
-5.78640948624857
 10
0.72470099454537
 20
-5.78640948624857
 10
0.72470099454537
 20
-5.78800926769349
  0
LWPOLYLINE
  5
C41
100
AcDbEntity
  8
0
100
AcDbPolyline
370
-2
 62
1
  6
CONTINUOUS
 38
0
 90
3
 70
0
 10
0.73110012032502
 20
-5.78640948624857
 10
0.761495967778358
 20
-5.78640948624857
 10
0.761495967778358
 20
-5.78800926769349
  0
LWPOLYLINE
  5
C45
100
AcDbEntity
  8
0
100
AcDbPolyline
370
-2
 62
1
  6
CONTINUOUS
 38
0
 90
3
 70
0
 10
0.767895093558008
 20
-5.78640948624857
 10
0.774294219337658
 20
-5.78640948624857
 10
0.774294219337658
 20
-5.78800926769349
  0
LWPOLYLINE
  5
C49
100
AcDbEntity
  8
0
100
AcDbPolyline
370
-2
 62
1
  6
CONTINUOUS
 38
0
 90
3
 70
0
 10
0.780693345117308
 20
-5.78640948624857
 10
0.809489411125734
 20
-5.78640948624857
 10
0.809489411125734
 20
-5.78800926769349
  0
LWPOLYLINE
  5
C4D
100
AcDbEntity
  8
0
100
AcDbPolyline
370
-2
 62
3
  6
CONTINUOUS
 38
0
 90
3
 70
0
 10
0.918274549379785
 20
-5.94318806785
 10
0.782293126562221
 20
-5.83120336670612
 10
0.782293126562221
 20
-5.83280314815104
  0
LWPOLYLINE
  5
C51
100
AcDbEntity
  8
0
100
AcDbPolyline
370
-2
 62
3
  6
CONTINUOUS
 38
0
 90
3
 70
0
 10
0.675107769753082
 20
-5.74161560579102
 10
0.647911485189569
 20
-5.72081844700716
 10
0.647911485189569
 20
-5.72241822845207
  0
TEXT
  5
C56
100
AcDbEntity
  8
0
100
AcDbText
370
-1
 62
3
 10
0.823887444129946
 20
-5.84720118115525
 30
0
 40
0.0454897853860874
  1
Ø
 50
0
 41
1
 51
0
  7
Arial$001
 71
0
 72
0
 11
0
 21
0
 31
0
100
AcDbText
 73
0
  0
TEXT
  5
C57
100
AcDbEntity
  8
0
100
AcDbText
370
-1
 62
3
 10
0.863881980252759
 20
-5.88079659149841
 30
0
 40
0.0454897853860874
  1
45
 50
0
 41
1
 51
0
  7
Arial$001
 71
0
 72
0
 11
0
 21
0
 31
0
100
AcDbText
 73
0
  0
LWPOLYLINE
  5
C58
100
AcDbEntity
  8
0
100
AcDbPolyline
370
-2
 62
3
  6
CONTINUOUS
 38
0
 90
3
 70
0
 10
0.700704272871682
 20
-5.7640125460198
 10
0.75669662344362
 20
-5.80880642647735
 10
0.75669662344362
 20
-5.81040620792226
  0
HATCH
  5
C60
100
AcDbEntity
  8
0
100
AcDbHatch
370
-1
 62
3
 10
0
 20
0
 30
0
210
0
220
0
230
1
  2
SOLID
 70
1
 71
0
 91
1
 92
7
 72
0
 73
1
 93
3
 10
0.678307332642907
 20
-5.7384160429012
 10
0.670308425418345
 20
-5.74641495012576
 10
0.700704272871682
 20
-5.7640125460198
 97
0
 75
0
 76
1
 47
1E-6
 98
0
  0
HATCH
  5
C65
100
AcDbEntity
  8
0
100
AcDbHatch
370
-1
 62
3
 10
0
 20
0
 30
0
210
0
220
0
230
1
  2
SOLID
 70
1
 71
0
 91
1
 92
7
 72
0
 73
1
 93
3
 10
0.787092470896958
 20
-5.82640402237139
 10
0.779093563672396
 20
-5.83600271104086
 10
0.75669662344362
 20
-5.80880642647735
 97
0
 75
0
 76
1
 47
1E-6
 98
0
  0
POINT
  5
C66
100
AcDbEntity
  8
0
100
AcDbPoint
370
-2
 62
3
  6
CONTINUOUS
 10
0.75669662344362
 20
-5.80880642647735
 30
0
  0
POINT
  5
C67
100
AcDbEntity
  8
0
100
AcDbPoint
370
-2
 62
3
  6
CONTINUOUS
 10
0.700704272871682
 20
-5.7640125460198
 30
0
  0
LWPOLYLINE
  5
C68
100
AcDbEntity
  8
0
100
AcDbPolyline
370
-2
 62
3
  6
CONTINUOUS
 38
0
 90
3
 70
0
 10
1.20943477235386
 20
-5.80720664503244
 10
1.20943477235386
 20
-6.36073102497217
 10
1.20943477235386
 20
-6.36233080641708
  0
LWPOLYLINE
  5
C6C
100
AcDbEntity
  8
0
100
AcDbPolyline
370
-2
 62
3
  6
CONTINUOUS
 38
0
 90
3
 70
0
 10
0.249565905406353
 20
-5.80720664503244
 10
0.249565905406353
 20
-6.36073102497217
 10
0.249565905406353
 20
-6.36233080641708
  0
LWPOLYLINE
  5
C70
100
AcDbEntity
  8
0
100
AcDbPolyline
370
-2
 62
3
  6
CONTINUOUS
 38
0
 90
3
 70
0
 10
1.17423958056579
 20
-6.34153364763322
 10
0.283161315749515
 20
-6.34153364763322
 10
0.283161315749515
 20
-6.34313342907813
  0
HATCH
  5
C78
100
AcDbEntity
  8
0
100
AcDbHatch
370
-1
 62
3
 10
0
 20
0
 30
0
210
0
220
0
230
1
  2
SOLID
 70
1
 71
0
 91
1
 92
7
 72
0
 73
1
 93
3
 10
1.17423958056579
 20
-6.33513452185357
 10
1.17423958056579
 20
-6.34793277341287
 10
1.20943477235386
 20
-6.34153364763322
 97
0
 75
0
 76
1
 47
1E-6
 98
0
  0
TEXT
  5
C7D
100
AcDbEntity
  8
0
100
AcDbText
370
-1
 62
3
 10
0.67350798830817
 20
-6.33033517751883
 30
0
 40
0.0454897853860874
  1
590
 50
0
 41
1
 51
0
  7
Arial$001
 71
0
 72
0
 11
0
 21
0
 31
0
100
AcDbText
 73
0
  0
HATCH
  5
C7E
100
AcDbEntity
  8
0
100
AcDbHatch
370
-1
 62
3
 10
0
 20
0
 30
0
210
0
220
0
230
1
  2
SOLID
 70
1
 71
0
 91
1
 92
7
 72
0
 73
1
 93
3
 10
0.283161315749515
 20
-6.33513452185357
 10
0.283161315749515
 20
-6.34793277341287
 10
0.249565905406353
 20
-6.34153364763322
 97
0
 75
0
 76
1
 47
1E-6
 98
0
  0
POINT
  5
C7F
100
AcDbEntity
  8
0
100
AcDbPoint
370
-2
 62
3
  6
CONTINUOUS
 10
1.20943477235386
 20
-5.78800926769349
 30
0
  0
POINT
  5
C80
100
AcDbEntity
  8
0
100
AcDbPoint
370
-2
 62
3
  6
CONTINUOUS
 10
0.249565905406353
 20
-5.78800926769349
 30
0
  0
POINT
  5
C81
100
AcDbEntity
  8
0
100
AcDbPoint
370
-2
 62
3
  6
CONTINUOUS
 10
0.249565905406353
 20
-6.34153364763322
 30
0
  0
LWPOLYLINE
  5
C82
100
AcDbEntity
  8
0
100
AcDbPolyline
370
-2
 62
3
  6
CONTINUOUS
 38
0
 90
3
 70
0
 10
0.574321538723593
 20
-6.13196227834968
 10
0.107185356809139
 20
-6.13196227834968
 10
0.107185356809139
 20
-6.13356205979459
  0
LWPOLYLINE
  5
C86
100
AcDbEntity
  8
0
100
AcDbPolyline
370
-2
 62
3
  6
CONTINUOUS
 38
0
 90
3
 70
0
 10
0.710302961541158
 20
-5.43605734981273
 10
0.107185356809139
 20
-5.43605734981273
 10
0.107185356809139
 20
-5.43765713125764
  0
LWPOLYLINE
  5
C8A
100
AcDbEntity
  8
0
100
AcDbPolyline
370
-2
 62
3
  6
CONTINUOUS
 38
0
 90
3
 70
0
 10
0.126382734148089
 20
-6.0967670865616
 10
0.126382734148089
 20
-5.46965276015589
 10
0.126382734148089
 20
-5.47125254160081
  0
HATCH
  5
C92
100
AcDbEntity
  8
0
100
AcDbHatch
370
-1
 62
3
 10
0
 20
0
 30
0
210
0
220
0
230
1
  2
SOLID
 70
1
 71
0
 91
1
 92
7
 72
0
 73
1
 93
3
 10
0.121583389813351
 20
-6.0967670865616
 10
0.132781859927739
 20
-6.0967670865616
 10
0.126382734148089
 20
-6.13196227834968
 97
0
 75
0
 76
1
 47
1E-6
 98
0
  0
TEXT
  5
C97
100
AcDbEntity
  8
0
100
AcDbText
370
-1
 62
3
 10
0.116784045478614
 20
-5.83920227393069
 30
0
 40
0.0454897853860874
  1
425
 50
0
 41
1
 51
0
  7
Arial$001
 71
0
 72
0
 11
0
 21
0
 31
0
100
AcDbText
 73
0
  0
HATCH
  5
C98
100
AcDbEntity
  8
0
100
AcDbHatch
370
-1
 62
3
 10
0
 20
0
 30
0
210
0
220
0
230
1
  2
SOLID
 70
1
 71
0
 91
1
 92
7
 72
0
 73
1
 93
3
 10
0.121583389813351
 20
-5.46965276015589
 10
0.132781859927739
 20
-5.46965276015589
 10
0.126382734148089
 20
-5.43605734981273
 97
0
 75
0
 76
1
 47
1E-6
 98
0
  0
POINT
  5
C99
100
AcDbEntity
  8
0
100
AcDbPoint
370
-2
 62
3
  6
CONTINUOUS
 10
0.593518916062544
 20
-6.13196227834968
 30
0
  0
POINT
  5
C9A
100
AcDbEntity
  8
0
100
AcDbPoint
370
-2
 62
3
  6
CONTINUOUS
 10
0.729500338880108
 20
-5.43605734981273
 30
0
  0
POINT
  5
C9B
100
AcDbEntity
  8
0
100
AcDbPoint
370
-2
 62
3
  6
CONTINUOUS
 10
0.126382734148089
 20
-5.43605734981273
 30
0
  0
LWPOLYLINE
  5
C9C
100
AcDbEntity
  8
0
100
AcDbPolyline
370
-2
 62
3
  6
CONTINUOUS
 38
0
 90
3
 70
0
 10
1.15984154756157
 20
-5.80720664503244
 10
1.15984154756157
 20
-6.27434282694689
 10
1.15984154756157
 20
-6.2759426083918
  0
LWPOLYLINE
  5
CA0
100
AcDbEntity
  8
0
100
AcDbPolyline
370
-2
 62
3
  6
CONTINUOUS
 38
0
 90
3
 70
0
 10
0.295959567308816
 20
-5.80720664503244
 10
0.295959567308816
 20
-6.27434282694689
 10
0.295959567308816
 20
-6.2759426083918
  0
LWPOLYLINE
  5
CA4
100
AcDbEntity
  8
0
100
AcDbPolyline
370
-2
 62
3
  6
CONTINUOUS
 38
0
 90
3
 70
0
 10
1.12624613721841
 20
-6.25514544960794
 10
0.331154759096891
 20
-6.25514544960794
 10
0.331154759096891
 20
-6.25674523105285
  0
HATCH
  5
CAC
100
AcDbEntity
  8
0
100
AcDbHatch
370
-1
 62
3
 10
0
 20
0
 30
0
210
0
220
0
230
1
  2
SOLID
 70
1
 71
0
 91
1
 92
7
 72
0
 73
1
 93
3
 10
1.12624613721841
 20
-6.24874632382829
 10
1.12624613721841
 20
-6.25994479394268
 10
1.15984154756157
 20
-6.25514544960794
 97
0
 75
0
 76
1
 47
1E-6
 98
0
  0
TEXT
  5
CB1
100
AcDbEntity
  8
0
100
AcDbText
370
-1
 62
3
 10
0.67350798830817
 20
-6.24394697949355
 30
0
 40
0.0454897853860874
  1
530
 50
0
 41
1
 51
0
  7
Arial$001
 71
0
 72
0
 11
0
 21
0
 31
0
100
AcDbText
 73
0
  0
HATCH
  5
CB2
100
AcDbEntity
  8
0
100
AcDbHatch
370
-1
 62
3
 10
0
 20
0
 30
0
210
0
220
0
230
1
  2
SOLID
 70
1
 71
0
 91
1
 92
7
 72
0
 73
1
 93
3
 10
0.331154759096891
 20
-6.24874632382829
 10
0.331154759096891
 20
-6.25994479394268
 10
0.295959567308816
 20
-6.25514544960794
 97
0
 75
0
 76
1
 47
1E-6
 98
0
  0
POINT
  5
CB3
100
AcDbEntity
  8
0
100
AcDbPoint
370
-2
 62
3
  6
CONTINUOUS
 10
1.15984154756157
 20
-5.78800926769349
 30
0
  0
POINT
  5
CB4
100
AcDbEntity
  8
0
100
AcDbPoint
370
-2
 62
3
  6
CONTINUOUS
 10
0.295959567308816
 20
-5.78800926769349
 30
0
  0
POINT
  5
CB5
100
AcDbEntity
  8
0
100
AcDbPoint
370
-2
 62
3
  6
CONTINUOUS
 10
0.295959567308816
 20
-6.25514544960794
 30
0
  0
LWPOLYLINE
  5
CB6
100
AcDbEntity
  8
0
100
AcDbPolyline
370
-2
 62
3
  6
CONTINUOUS
 38
0
 90
3
 70
0
 10
0.710302961541158
 20
-5.49204970038467
 10
0.185574647609852
 20
-5.49204970038467
 10
0.185574647609852
 20
-5.49364948182958
  0
LWPOLYLINE
  5
CBA
100
AcDbEntity
  8
0
100
AcDbPolyline
370
-2
 62
3
  6
CONTINUOUS
 38
0
 90
3
 70
0
 10
0.710302961541158
 20
-6.08236905355739
 10
0.185574647609852
 20
-6.08236905355739
 10
0.185574647609852
 20
-6.0839688350023
  0
LWPOLYLINE
  5
CBE
100
AcDbEntity
  8
0
100
AcDbPolyline
370
-2
 62
3
  6
CONTINUOUS
 38
0
 90
3
 70
0
 10
0.204772024948802
 20
-5.52564511072783
 10
0.204772024948802
 20
-6.04877364321423
 10
0.204772024948802
 20
-6.05037342465914
  0
HATCH
  5
CC6
100
AcDbEntity
  8
0
100
AcDbHatch
370
-1
 62
3
 10
0
 20
0
 30
0
210
0
220
0
230
1
  2
SOLID
 70
1
 71
0
 91
1
 92
7
 72
0
 73
1
 93
3
 10
0.199972680614065
 20
-5.52564511072783
 10
0.211171150728452
 20
-5.52564511072783
 10
0.204772024948802
 20
-5.49204970038467
 97
0
 75
0
 76
1
 47
1E-6
 98
0
  0
TEXT
  5
CCB
100
AcDbEntity
  8
0
100
AcDbText
370
-1
 62
3
 10
0.193573554834415
 20
-5.84240183682051
 30
0
 40
0.0454897853860874
  1
360
 50
0
 41
1
 51
0
  7
Arial$001
 71
0
 72
0
 11
0
 21
0
 31
0
100
AcDbText
 73
0
  0
HATCH
  5
CCC
100
AcDbEntity
  8
0
100
AcDbHatch
370
-1
 62
3
 10
0
 20
0
 30
0
210
0
220
0
230
1
  2
SOLID
 70
1
 71
0
 91
1
 92
7
 72
0
 73
1
 93
3
 10
0.199972680614065
 20
-6.04877364321423
 10
0.211171150728452
 20
-6.04877364321423
 10
0.204772024948802
 20
-6.08236905355739
 97
0
 75
0
 76
1
 47
1E-6
 98
0
  0
POINT
  5
CCD
100
AcDbEntity
  8
0
100
AcDbPoint
370
-2
 62
3
  6
CONTINUOUS
 10
0.729500338880108
 20
-5.49204970038467
 30
0
  0
POINT
  5
CCE
100
AcDbEntity
  8
0
100
AcDbPoint
370
-2
 62
3
  6
CONTINUOUS
 10
0.729500338880108
 20
-6.08236905355739
 30
0
  0
POINT
  5
CCF
100
AcDbEntity
  8
0
100
AcDbPoint
370
-2
 62
3
  6
CONTINUOUS
 10
0.204772024948802
 20
-6.08236905355739
 30
0
  0
LWPOLYLINE
  5
CD0
100
AcDbEntity
  8
0
100
AcDbPolyline
370
-2
 62
1
  6
CONTINUOUS
 38
0
 90
3
 70
0
 10
0.729500338880108
 20
-4.18022891555641
 10
0.729500338880108
 20
-4.0394481484041
 10
0.729500338880108
 20
-4.04104792984902
  0
LWPOLYLINE
  5
CD4
100
AcDbEntity
  8
0
100
AcDbPolyline
370
-2
 62
1
  6
CONTINUOUS
 38
0
 90
3
 70
0
 10
0.729500338880108
 20
-4.00905230095077
 10
0.729500338880108
 20
-3.97865645349743
 10
0.729500338880108
 20
-3.98025623494234
  0
LWPOLYLINE
  5
CD8
100
AcDbEntity
  8
0
100
AcDbPolyline
370
-2
 62
1
  6
CONTINUOUS
 38
0
 90
3
 70
0
 10
0.729500338880108
 20
-3.94826060604409
 10
0.729500338880108
 20
-3.79468158733249
 10
0.729500338880108
 20
-3.7962813687774
  0
LWPOLYLINE
  5
CDC
100
AcDbEntity
  8
0
100
AcDbPolyline
370
-2
 62
1
  6
CONTINUOUS
 38
0
 90
3
 70
0
 10
0.729500338880108
 20
-3.76428573987915
 10
0.729500338880108
 20
-3.73388989242581
 10
0.729500338880108
 20
-3.73548967387073
  0
LWPOLYLINE
  5
CE0
100
AcDbEntity
  8
0
100
AcDbPolyline
370
-2
 62
1
  6
CONTINUOUS
 38
0
 90
3
 70
0
 10
0.729500338880108
 20
-3.70349404497248
 10
0.729500338880108
 20
-3.55151480770579
 10
0.729500338880108
 20
-3.5531145891507
  0
LWPOLYLINE
  5
CE4
100
AcDbEntity
  8
0
100
AcDbPolyline
370
-2
 62
1
  6
CONTINUOUS
 38
0
 90
3
 70
0
 10
0.729500338880108
 20
-3.52111896025245
 10
0.729500338880108
 20
-3.49072311279911
 10
0.729500338880108
 20
-3.49232289424402
  0
LWPOLYLINE
  5
CE8
100
AcDbEntity
  8
0
100
AcDbPolyline
370
-2
 62
1
  6
CONTINUOUS
 38
0
 90
3
 70
0
 10
0.729500338880108
 20
-3.46032726534577
 10
0.729500338880108
 20
-3.30834802807908
 10
0.729500338880108
 20
-3.309947809524
  0
LWPOLYLINE
  5
CEC
100
AcDbEntity
  8
0
100
AcDbPolyline
370
-2
 62
1
  6
CONTINUOUS
 38
0
 90
3
 70
0
 10
0.729500338880108
 20
-3.27795218062575
 10
0.729500338880108
 20
-3.2459565517275
 10
0.729500338880108
 20
-3.24755633317241
  0
LWPOLYLINE
  5
CF0
100
AcDbEntity
  8
0
100
AcDbPolyline
370
-2
 62
1
  6
CONTINUOUS
 38
0
 90
3
 70
0
 10
0.729500338880108
 20
-3.21556070427416
 10
0.729500338880108
 20
-3.06358146700747
 10
0.729500338880108
 20
-3.06518124845238
  0
LWPOLYLINE
  5
CF4
100
AcDbEntity
  8
0
100
AcDbPolyline
370
-2
 62
1
  6
CONTINUOUS
 38
0
 90
3
 70
0
 10
0.729500338880108
 20
-3.03318561955413
 10
0.729500338880108
 20
-3.00278977210079
 10
0.729500338880108
 20
-3.00438955354571
  0
LWPOLYLINE
  5
CF8
100
AcDbEntity
  8
0
100
AcDbPolyline
370
-2
 62
1
  6
CONTINUOUS
 38
0
 90
3
 70
0
 10
0.729500338880108
 20
-2.97239392464746
 10
0.729500338880108
 20
-2.83161315749515
 10
0.729500338880108
 20
-2.83321293894007
  0
LWPOLYLINE
  5
CFC
100
AcDbEntity
  8
0
100
AcDbPolyline
370
-2
 62
1
  6
CONTINUOUS
 38
0
 90
3
 70
0
 10
3.00598933499062
 20
-3.21076135993942
 10
3.00598933499062
 20
-3.06998059278712
 10
3.00598933499062
 20
-3.07158037423203
  0
LWPOLYLINE
  5
D00
100
AcDbEntity
  8
0
100
AcDbPolyline
370
-2
 62
1
  6
CONTINUOUS
 38
0
 90
3
 70
0
 10
3.00598933499062
 20
-3.03958474533378
 10
3.00598933499062
 20
-3.00758911643553
 10
3.00598933499062
 20
-3.00918889788044
  0
LWPOLYLINE
  5
D04
100
AcDbEntity
  8
0
100
AcDbPolyline
370
-2
 62
1
  6
CONTINUOUS
 38
0
 90
3
 70
0
 10
3.00598933499062
 20
-2.97719326898219
 10
3.00598933499062
 20
-2.83641250182989
 10
3.00598933499062
 20
-2.8380122832748
  0
TEXT
  5
D08
100
AcDbEntity
  8
0
100
AcDbText
370
-1
 62
7
 10
0.542325909825343
 20
-4.41219722506872
 30
0
 40
0.0580720664503244
  1
Front
 50
0
 41
1
 51
0
  7
Arial$001
 71
0
 72
0
 11
0
 21
0
 31
0
100
AcDbText
 73
0
  0
TEXT
  5
D09
100
AcDbEntity
  8
0
100
AcDbText
370
-1
 62
7
 10
0.766295312113096
 20
-4.41219722506872
 30
0
 40
0.0580720664503244
  1
view
 50
0
 41
1
 51
0
  7
Arial$001
 71
0
 72
0
 11
0
 21
0
 31
0
100
AcDbText
 73
0
  0
TEXT
  5
D0B
100
AcDbEntity
  8
0
100
AcDbText
370
-1
 62
7
 10
0.607916949066756
 20
-4.51298345609821
 30
0
 40
0.053232727579464
  1
\U+4E3B\U+89C6\U+56FE
 50
0
 41
1
 51
0
  7
SimSun$001
 71
0
 72
0
 11
0
 21
0
 31
0
100
AcDbText
 73
0
  0
TEXT
  5
D0C
100
AcDbEntity
  8
0
100
AcDbText
370
-1
 62
7
 10
2.82361425027059
 20
-4.4217959137382
 30
0
 40
0.0580720664503244
  1
Left
 50
0
 41
1
 51
0
  7
Arial$001
 71
0
 72
0
 11
0
 21
0
 31
0
100
AcDbText
 73
0
  0
TEXT
  5
D0D
100
AcDbEntity
  8
0
100
AcDbText
370
-1
 62
7
 10
2.98999152054149
 20
-4.4217959137382
 30
0
 40
0.0580720664503244
  1
view
 50
0
 41
1
 51
0
  7
Arial$001
 71
0
 72
0
 11
0
 21
0
 31
0
100
AcDbText
 73
0
  0
TEXT
  5
D0E
100
AcDbEntity
  8
0
100
AcDbText
370
-1
 62
7
 10
2.85560987916884
 20
-4.52258214476769
 30
0
 40
0.053232727579464
  1
\U+5DE6\U+89C6\U+56FE
 50
0
 41
1
 51
0
  7
SimSun$001
 71
0
 72
0
 11
0
 21
0
 31
0
100
AcDbText
 73
0
  0
LWPOLYLINE
  5
D0F
100
AcDbEntity
  8
0
100
AcDbPolyline
370
-2
 62
4
  6
CONTINUOUS
 38
0
 90
2
 70
0
 10
1.12944570010824
 20
-4.18022891555641
 10
0.327955196207066
 20
-4.18022891555641
  0
LWPOLYLINE
  5
D12
100
AcDbEntity
  8
0
100
AcDbPolyline
370
-2
 62
3
  6
CONTINUOUS
 38
0
 90
3
 70
0
 10
1.06865400520156
 20
-4.18022891555641
 10
1.0990498526549
 20
-4.21382432589957
 10
1.0990498526549
 20
-4.21542410734448
  0
LWPOLYLINE
  5
D16
100
AcDbEntity
  8
0
100
AcDbPolyline
370
-2
 62
3
  6
CONTINUOUS
 38
0
 90
3
 70
0
 10
1.00786231029489
 20
-4.18022891555641
 10
1.03825815774822
 20
-4.21382432589957
 10
1.03825815774822
 20
-4.21542410734448
  0
LWPOLYLINE
  5
D1A
100
AcDbEntity
  8
0
100
AcDbPolyline
370
-2
 62
3
  6
CONTINUOUS
 38
0
 90
3
 70
0
 10
0.948670396833122
 20
-4.18022891555641
 10
0.977466462841548
 20
-4.21382432589957
 10
0.977466462841548
 20
-4.21542410734448
  0
LWPOLYLINE
  5
D1E
100
AcDbEntity
  8
0
100
AcDbPolyline
370
-2
 62
3
  6
CONTINUOUS
 38
0
 90
3
 70
0
 10
0.887878701926447
 20
-4.18022891555641
 10
0.918274549379785
 20
-4.21382432589957
 10
0.918274549379785
 20
-4.21542410734448
  0
LWPOLYLINE
  5
D22
100
AcDbEntity
  8
0
100
AcDbPolyline
370
-2
 62
3
  6
CONTINUOUS
 38
0
 90
3
 70
0
 10
0.827087007019771
 20
-4.18022891555641
 10
0.857482854473109
 20
-4.21382432589957
 10
0.857482854473109
 20
-4.21542410734448
  0
LWPOLYLINE
  5
D26
100
AcDbEntity
  8
0
100
AcDbPolyline
370
-2
 62
3
  6
CONTINUOUS
 38
0
 90
3
 70
0
 10
0.766295312113096
 20
-4.18022891555641
 10
0.796691159566433
 20
-4.21382432589957
 10
0.796691159566433
 20
-4.21542410734448
  0
LWPOLYLINE
  5
D2A
100
AcDbEntity
  8
0
100
AcDbPolyline
370
-2
 62
3
  6
CONTINUOUS
 38
0
 90
3
 70
0
 10
0.70550361720642
 20
-4.18022891555641
 10
0.735899464659758
 20
-4.21382432589957
 10
0.735899464659758
 20
-4.21542410734448
  0
LWPOLYLINE
  5
D2E
100
AcDbEntity
  8
0
100
AcDbPolyline
370
-2
 62
3
  6
CONTINUOUS
 38
0
 90
3
 70
0
 10
0.644711922299744
 20
-4.18022891555641
 10
0.675107769753082
 20
-4.21382432589957
 10
0.675107769753082
 20
-4.21542410734448
  0
LWPOLYLINE
  5
D32
100
AcDbEntity
  8
0
100
AcDbPolyline
370
-2
 62
3
  6
CONTINUOUS
 38
0
 90
3
 70
0
 10
0.583920227393069
 20
-4.18022891555641
 10
0.614316074846407
 20
-4.21382432589957
 10
0.614316074846407
 20
-4.21542410734448
  0
LWPOLYLINE
  5
D36
100
AcDbEntity
  8
0
100
AcDbPolyline
370
-2
 62
3
  6
CONTINUOUS
 38
0
 90
3
 70
0
 10
0.523128532486393
 20
-4.18022891555641
 10
0.553524379939731
 20
-4.21382432589957
 10
0.553524379939731
 20
-4.21542410734448
  0
LWPOLYLINE
  5
D3A
100
AcDbEntity
  8
0
100
AcDbPolyline
370
-2
 62
3
  6
CONTINUOUS
 38
0
 90
3
 70
0
 10
0.462336837579717
 20
-4.18022891555641
 10
0.492732685033055
 20
-4.21382432589957
 10
0.492732685033055
 20
-4.21542410734448
  0
LWPOLYLINE
  5
D3E
100
AcDbEntity
  8
0
100
AcDbPolyline
370
-2
 62
3
  6
CONTINUOUS
 38
0
 90
3
 70
0
 10
0.401545142673042
 20
-4.18022891555641
 10
0.43194099012638
 20
-4.21382432589957
 10
0.43194099012638
 20
-4.21542410734448
  0
LWPOLYLINE
  5
D42
100
AcDbEntity
  8
0
100
AcDbPolyline
370
-2
 62
3
  6
CONTINUOUS
 38
0
 90
3
 70
0
 10
0.340753447766366
 20
-4.18022891555641
 10
0.371149295219704
 20
-4.21382432589957
 10
0.371149295219704
 20
-4.21542410734448
  0
LWPOLYLINE
  5
D46
100
AcDbEntity
  8
0
100
AcDbPolyline
370
-2
 62
6
  6
CONTINUOUS
 38
0
 90
3
 70
0
 10
0.137581204262476
 20
-2.82041468738077
 10
0.167977051715814
 20
-2.82041468738077
 10
0.167977051715814
 20
-2.82201446882568
  0
LWPOLYLINE
  5
D4A
100
AcDbEntity
  8
0
100
AcDbPolyline
370
-2
 62
6
  6
CONTINUOUS
 38
0
 90
3
 70
0
 10
0.199972680614065
 20
-2.82041468738077
 10
0.231968309512315
 20
-2.82041468738077
 10
0.231968309512315
 20
-2.82201446882568
  0
LWPOLYLINE
  5
D4E
100
AcDbEntity
  8
0
100
AcDbPolyline
370
-2
 62
6
  6
CONTINUOUS
 38
0
 90
5
 70
0
 10
0.263963938410565
 20
-2.82041468738077
 10
0.292760004418991
 20
-2.82041468738077
 10
0.292760004418991
 20
-2.86040922350358
 10
0.263963938410565
 20
-2.86040922350358
 10
0.263963938410565
 20
-2.86200900494849
  0
LWPOLYLINE
  5
D54
100
AcDbEntity
  8
0
100
AcDbPolyline
370
-2
 62
6
  6
CONTINUOUS
 38
0
 90
3
 70
0
 10
0.231968309512315
 20
-2.86040922350358
 10
0.199972680614065
 20
-2.86040922350358
 10
0.199972680614065
 20
-2.86200900494849
  0
LWPOLYLINE
  5
D58
100
AcDbEntity
  8
0
100
AcDbPolyline
370
-2
 62
6
  6
CONTINUOUS
 38
0
 90
4
 70
0
 10
0.167977051715814
 20
-2.86040922350358
 10
0.137581204262476
 20
-2.86040922350358
 10
0.137581204262476
 20
-2.82041468738077
 10
0.137581204262476
 20
-2.82201446882568
  0
LWPOLYLINE
  5
D5D
100
AcDbEntity
  8
0
100
AcDbPolyline
370
-2
 62
6
  6
CONTINUOUS
 38
0
 90
3
 70
0
 10
1.31981969205283
 20
-2.82041468738077
 10
1.28942384459949
 20
-2.82041468738077
 10
1.28942384459949
 20
-2.82201446882568
  0
LWPOLYLINE
  5
D61
100
AcDbEntity
  8
0
100
AcDbPolyline
370
-2
 62
6
  6
CONTINUOUS
 38
0
 90
3
 70
0
 10
1.25742821570124
 20
-2.82041468738077
 10
1.22543258680299
 20
-2.82041468738077
 10
1.22543258680299
 20
-2.82201446882568
  0
LWPOLYLINE
  5
D65
100
AcDbEntity
  8
0
100
AcDbPolyline
370
-2
 62
6
  6
CONTINUOUS
 38
0
 90
5
 70
0
 10
1.19343695790474
 20
-2.82041468738077
 10
1.16464089189631
 20
-2.82041468738077
 10
1.16464089189631
 20
-2.86040922350358
 10
1.19343695790474
 20
-2.86040922350358
 10
1.19343695790474
 20
-2.86200900494849
  0
LWPOLYLINE
  5
D6B
100
AcDbEntity
  8
0
100
AcDbPolyline
370
-2
 62
6
  6
CONTINUOUS
 38
0
 90
3
 70
0
 10
1.22543258680299
 20
-2.86040922350358
 10
1.25742821570124
 20
-2.86040922350358
 10
1.25742821570124
 20
-2.86200900494849
  0
LWPOLYLINE
  5
D6F
100
AcDbEntity
  8
0
100
AcDbPolyline
370
-2
 62
6
  6
CONTINUOUS
 38
0
 90
4
 70
0
 10
1.28942384459949
 20
-2.86040922350358
 10
1.31981969205283
 20
-2.86040922350358
 10
1.31981969205283
 20
-2.82041468738077
 10
1.31981969205283
 20
-2.82201446882568
  0
LWPOLYLINE
  5
D74
100
AcDbEntity
  8
0
100
AcDbPolyline
370
-2
 62
4
  6
CONTINUOUS
 38
0
 90
2
 70
0
 10
3.39633600754927
 20
-4.18022891555641
 10
2.59324572220319
 20
-4.18022891555641
  0
LWPOLYLINE
  5
D77
100
AcDbEntity
  8
0
100
AcDbPolyline
370
-2
 62
3
  6
CONTINUOUS
 38
0
 90
3
 70
0
 10
3.3355443126426
 20
-4.18022891555641
 10
3.36594016009594
 20
-4.21382432589957
 10
3.36594016009594
 20
-4.21542410734448
  0
LWPOLYLINE
  5
D7B
100
AcDbEntity
  8
0
100
AcDbPolyline
370
-2
 62
3
  6
CONTINUOUS
 38
0
 90
3
 70
0
 10
3.27475261773592
 20
-4.18022891555641
 10
3.30514846518926
 20
-4.21382432589957
 10
3.30514846518926
 20
-4.21542410734448
  0
LWPOLYLINE
  5
D7F
100
AcDbEntity
  8
0
100
AcDbPolyline
370
-2
 62
3
  6
CONTINUOUS
 38
0
 90
3
 70
0
 10
3.21396092282925
 20
-4.18022891555641
 10
3.24435677028258
 20
-4.21382432589957
 10
3.24435677028258
 20
-4.21542410734448
  0
LWPOLYLINE
  5
D83
100
AcDbEntity
  8
0
100
AcDbPolyline
370
-2
 62
3
  6
CONTINUOUS
 38
0
 90
3
 70
0
 10
3.15316922792257
 20
-4.18022891555641
 10
3.18356507537591
 20
-4.21382432589957
 10
3.18356507537591
 20
-4.21542410734448
  0
LWPOLYLINE
  5
D87
100
AcDbEntity
  8
0
100
AcDbPolyline
370
-2
 62
3
  6
CONTINUOUS
 38
0
 90
3
 70
0
 10
3.0923775330159
 20
-4.18022891555641
 10
3.12277338046923
 20
-4.21382432589957
 10
3.12277338046923
 20
-4.21542410734448
  0
LWPOLYLINE
  5
D8B
100
AcDbEntity
  8
0
100
AcDbPolyline
370
-2
 62
3
  6
CONTINUOUS
 38
0
 90
3
 70
0
 10
3.03158583810922
 20
-4.18022891555641
 10
3.06198168556256
 20
-4.21382432589957
 10
3.06198168556256
 20
-4.21542410734448
  0
LWPOLYLINE
  5
D8F
100
AcDbEntity
  8
0
100
AcDbPolyline
370
-2
 62
3
  6
CONTINUOUS
 38
0
 90
3
 70
0
 10
2.97079414320254
 20
-4.18022891555641
 10
3.00118999065588
 20
-4.21382432589957
 10
3.00118999065588
 20
-4.21542410734448
  0
LWPOLYLINE
  5
D93
100
AcDbEntity
  8
0
100
AcDbPolyline
370
-2
 62
3
  6
CONTINUOUS
 38
0
 90
3
 70
0
 10
2.91000244829587
 20
-4.18022891555641
 10
2.94039829574921
 20
-4.21382432589957
 10
2.94039829574921
 20
-4.21542410734448
  0
LWPOLYLINE
  5
D97
100
AcDbEntity
  8
0
100
AcDbPolyline
370
-2
 62
3
  6
CONTINUOUS
 38
0
 90
3
 70
0
 10
2.84921075338919
 20
-4.18022891555641
 10
2.87960660084253
 20
-4.21382432589957
 10
2.87960660084253
 20
-4.21542410734448
  0
LWPOLYLINE
  5
D9B
100
AcDbEntity
  8
0
100
AcDbPolyline
370
-2
 62
3
  6
CONTINUOUS
 38
0
 90
3
 70
0
 10
2.78841905848252
 20
-4.18022891555641
 10
2.81881490593585
 20
-4.21382432589957
 10
2.81881490593585
 20
-4.21542410734448
  0
LWPOLYLINE
  5
D9F
100
AcDbEntity
  8
0
100
AcDbPolyline
370
-2
 62
3
  6
CONTINUOUS
 38
0
 90
3
 70
0
 10
2.72762736357584
 20
-4.18022891555641
 10
2.75802321102918
 20
-4.21382432589957
 10
2.75802321102918
 20
-4.21542410734448
  0
LWPOLYLINE
  5
DA3
100
AcDbEntity
  8
0
100
AcDbPolyline
370
-2
 62
3
  6
CONTINUOUS
 38
0
 90
3
 70
0
 10
2.66683566866917
 20
-4.18022891555641
 10
2.6972315161225
 20
-4.21382432589957
 10
2.6972315161225
 20
-4.21542410734448
  0
LWPOLYLINE
  5
DA7
100
AcDbEntity
  8
0
100
AcDbPolyline
370
-2
 62
3
  6
CONTINUOUS
 38
0
 90
3
 70
0
 10
2.6076437552074
 20
-4.18022891555641
 10
2.63643982121583
 20
-4.21382432589957
 10
2.63643982121583
 20
-4.21542410734448
  0
LWPOLYLINE
  5
DAB
100
AcDbEntity
  8
0
100
AcDbPolyline
370
-2
 62
6
  6
CONTINUOUS
 38
0
 90
3
 70
0
 10
2.52605490151686
 20
-2.82041468738077
 10
2.5564507489702
 20
-2.82041468738077
 10
2.5564507489702
 20
-2.82201446882568
  0
LWPOLYLINE
  5
DAF
100
AcDbEntity
  8
0
100
AcDbPolyline
370
-2
 62
6
  6
CONTINUOUS
 38
0
 90
3
 70
0
 10
2.58844637786845
 20
-2.82041468738077
 10
2.6204420067667
 20
-2.82041468738077
 10
2.6204420067667
 20
-2.82201446882568
  0
LWPOLYLINE
  5
DB3
100
AcDbEntity
  8
0
100
AcDbPolyline
370
-2
 62
6
  6
CONTINUOUS
 38
0
 90
5
 70
0
 10
2.65243763566495
 20
-2.82041468738077
 10
2.68123370167338
 20
-2.82041468738077
 10
2.68123370167338
 20
-2.86040922350358
 10
2.65243763566495
 20
-2.86040922350358
 10
2.65243763566495
 20
-2.86200900494849
  0
LWPOLYLINE
  5
DB9
100
AcDbEntity
  8
0
100
AcDbPolyline
370
-2
 62
6
  6
CONTINUOUS
 38
0
 90
3
 70
0
 10
2.6204420067667
 20
-2.86040922350358
 10
2.58844637786845
 20
-2.86040922350358
 10
2.58844637786845
 20
-2.86200900494849
  0
LWPOLYLINE
  5
DBD
100
AcDbEntity
  8
0
100
AcDbPolyline
370
-2
 62
6
  6
CONTINUOUS
 38
0
 90
4
 70
0
 10
2.5564507489702
 20
-2.86040922350358
 10
2.52605490151686
 20
-2.86040922350358
 10
2.52605490151686
 20
-2.82041468738077
 10
2.52605490151686
 20
-2.82201446882568
  0
LWPOLYLINE
  5
DC2
100
AcDbEntity
  8
0
100
AcDbPolyline
370
-2
 62
6
  6
CONTINUOUS
 38
0
 90
3
 70
0
 10
3.4763250797949
 20
-2.82041468738077
 10
3.44752901378647
 20
-2.82041468738077
 10
3.44752901378647
 20
-2.82201446882568
  0
LWPOLYLINE
  5
DC6
100
AcDbEntity
  8
0
100
AcDbPolyline
370
-2
 62
6
  6
CONTINUOUS
 38
0
 90
3
 70
0
 10
3.41553338488822
 20
-2.82041468738077
 10
3.38353775598997
 20
-2.82041468738077
 10
3.38353775598997
 20
-2.82201446882568
  0
LWPOLYLINE
  5
DCA
100
AcDbEntity
  8
0
100
AcDbPolyline
370
-2
 62
6
  6
CONTINUOUS
 38
0
 90
5
 70
0
 10
3.35154212709172
 20
-2.82041468738077
 10
3.3227460610833
 20
-2.82041468738077
 10
3.3227460610833
 20
-2.86040922350358
 10
3.35154212709172
 20
-2.86040922350358
 10
3.35154212709172
 20
-2.86200900494849
  0
LWPOLYLINE
  5
DD0
100
AcDbEntity
  8
0
100
AcDbPolyline
370
-2
 62
6
  6
CONTINUOUS
 38
0
 90
3
 70
0
 10
3.38353775598997
 20
-2.86040922350358
 10
3.41553338488822
 20
-2.86040922350358
 10
3.41553338488822
 20
-2.86200900494849
  0
LWPOLYLINE
  5
DD4
100
AcDbEntity
  8
0
100
AcDbPolyline
370
-2
 62
6
  6
CONTINUOUS
 38
0
 90
4
 70
0
 10
3.44752901378647
 20
-2.86040922350358
 10
3.4763250797949
 20
-2.86040922350358
 10
3.4763250797949
 20
-2.82041468738077
 10
3.4763250797949
 20
-2.82201446882568
  0
LWPOLYLINE
  5
DD9
100
AcDbEntity
  8
0
100
AcDbPolyline
370
-2
 62
3
  6
CONTINUOUS
 38
0
 90
3
 70
0
 10
3.49552245713385
 20
-2.82041468738077
 10
3.54671546337105
 20
-2.82041468738077
 10
3.54671546337105
 20
-2.82201446882568
  0
LWPOLYLINE
  5
DDD
100
AcDbEntity
  8
0
100
AcDbPolyline
370
-2
 62
3
  6
CONTINUOUS
 38
0
 90
3
 70
0
 10
3.41553338488822
 20
-4.18022891555641
 10
3.54671546337105
 20
-4.18022891555641
 10
3.54671546337105
 20
-4.18182869700132
  0
LWPOLYLINE
  5
DE1
100
AcDbEntity
  8
0
100
AcDbPolyline
370
-2
 62
3
  6
CONTINUOUS
 38
0
 90
3
 70
0
 10
3.5275180860321
 20
-2.85401009772393
 10
3.5275180860321
 20
-4.14503372376833
 10
3.5275180860321
 20
-4.14663350521324
  0
HATCH
  5
DE9
100
AcDbEntity
  8
0
100
AcDbHatch
370
-1
 62
3
 10
0
 20
0
 30
0
210
0
220
0
230
1
  2
SOLID
 70
1
 71
0
 91
1
 92
7
 72
0
 73
1
 93
3
 10
3.52271874169736
 20
-2.85401009772393
 10
3.53391721181175
 20
-2.85401009772393
 10
3.5275180860321
 20
-2.82041468738077
 97
0
 75
0
 76
1
 47
1E-6
 98
0
  0
TEXT
  5
DEE
100
AcDbEntity
  8
0
100
AcDbText
370
-1
 62
3
 10
3.50832070869315
 20
-3.56911240359982
 30
0
 40
0.0454897853860874
  1
*850
 50
0
 41
1
 51
0
  7
Arial$001
 71
0
 72
0
 11
0
 21
0
 31
0
100
AcDbText
 73
0
  0
HATCH
  5
DEF
100
AcDbEntity
  8
0
100
AcDbHatch
370
-1
 62
3
 10
0
 20
0
 30
0
210
0
220
0
230
1
  2
SOLID
 70
1
 71
0
 91
1
 92
7
 72
0
 73
1
 93
3
 10
3.52271874169736
 20
-4.14503372376833
 10
3.53391721181175
 20
-4.14503372376833
 10
3.5275180860321
 20
-4.18022891555641
 97
0
 75
0
 76
1
 47
1E-6
 98
0
  0
POINT
  5
DF0
100
AcDbEntity
  8
0
100
AcDbPoint
370
-2
 62
3
  6
CONTINUOUS
 10
3.4763250797949
 20
-2.82041468738077
 30
0
  0
POINT
  5
DF1
100
AcDbEntity
  8
0
100
AcDbPoint
370
-2
 62
3
  6
CONTINUOUS
 10
3.39633600754927
 20
-4.18022891555641
 30
0
  0
POINT
  5
DF2
100
AcDbEntity
  8
0
100
AcDbPoint
370
-2
 62
3
  6
CONTINUOUS
 10
3.5275180860321
 20
-4.18022891555641
 30
0
  0
TEXT
  5
DF3
100
AcDbEntity
  8
0
100
AcDbText
370
-1
 62
7
 10
0.564722850054118
 20
-6.68708643973432
 30
0
 40
0.0580720664503244
  1
Top
 50
0
 41
1
 51
0
  7
Arial$001
 71
0
 72
0
 11
0
 21
0
 31
0
100
AcDbText
 73
0
  0
TEXT
  5
DF4
100
AcDbEntity
  8
0
100
AcDbText
370
-1
 62
7
 10
0.739099027549583
 20
-6.68708643973432
 30
0
 40
0.0580720664503244
  1
view
 50
0
 41
1
 51
0
  7
Arial$001
 71
0
 72
0
 11
0
 21
0
 31
0
100
AcDbText
 73
0
  0
TEXT
  5
DF5
100
AcDbEntity
  8
0
100
AcDbText
370
-1
 62
7
 10
0.604717386176931
 20
-6.78947245220872
 30
0
 40
0.053232727579464
  1
\U+4FEF\U+89C6\U+56FE
 50
0
 41
1
 51
0
  7
SimSun$001
 71
0
 72
0
 11
0
 21
0
 31
0
100
AcDbText
 73
0
  0
LWPOLYLINE
  5
DF6
100
AcDbEntity
  8
0
100
AcDbPolyline
370
-2
 62
6
  6
CONTINUOUS
 38
0
 90
3
 70
0
 10
3.06518124845238
 20
-3.10037644024046
 10
3.02198714943974
 20
-3.10037644024046
 10
3.02198714943974
 20
-3.10197622168537
  0
LWPOLYLINE
  5
DFA
100
AcDbEntity
  8
0
100
AcDbPolyline
370
-2
 62
6
  6
CONTINUOUS
 38
0
 90
3
 70
0
 10
2.98999152054149
 20
-3.10037644024046
 10
2.94839720297377
 20
-3.10037644024046
 10
2.94839720297377
 20
-3.10197622168537
  0
LWPOLYLINE
  5
DFE
100
AcDbEntity
  8
0
100
AcDbPolyline
370
-2
 62
6
  6
CONTINUOUS
 38
0
 90
3
 70
0
 10
3.30674824663417
 20
-2.86040922350358
 10
3.30674824663417
 20
-2.86040922350358
 10
3.30674824663417
 20
-2.86200900494849
  0
LWPOLYLINE
  5
E02
100
AcDbEntity
  8
0
100
AcDbPolyline
370
-2
 62
6
  6
CONTINUOUS
 38
0
 90
3
 70
0
 10
2.70683020479198
 20
-2.86040922350358
 10
2.70683020479198
 20
-2.86040922350358
 10
2.70683020479198
 20
-2.86200900494849
  0
LWPOLYLINE
  5
E06
100
AcDbEntity
  8
0
100
AcDbPolyline
370
-2
 62
6
  6
CONTINUOUS
 38
0
 90
7
 70
0
 10
3.30674824663417
 20
-2.86040922350358
 10
3.30514846518926
 20
-2.86040922350358
 10
3.30354868374435
 20
-2.86040922350358
 10
3.30354868374435
 20
-2.86200900494849
 10
3.30194890229943
 20
-2.86200900494849
 10
3.30194890229943
 20
-2.86360878639341
 10
3.30194890229943
 20
-2.86520856783832
  0
LWPOLYLINE
  5
E0E
100
AcDbEntity
  8
0
100
AcDbPolyline
370
-2
 62
6
  6
CONTINUOUS
 38
0
 90
7
 70
0
 10
2.71162954912672
 20
-2.86360878639341
 10
2.71162954912672
 20
-2.86360878639341
 10
2.7100297676818
 20
-2.86200900494849
 10
2.7100297676818
 20
-2.86200900494849
 10
2.70842998623689
 20
-2.86040922350358
 10
2.70842998623689
 20
-2.86040922350358
 10
2.70842998623689
 20
-2.86200900494849
  0
LWPOLYLINE
  5
E16
100
AcDbEntity
  8
0
100
AcDbPolyline
370
-2
 62
6
  6
CONTINUOUS
 38
0
 90
34
 70
0
 10
2.71642889346145
 20
-2.89720419673657
 10
2.71642889346145
 20
-2.89720419673657
 10
2.71642889346145
 20
-2.89560441529166
 10
2.71642889346145
 20
-2.89560441529166
 10
2.71642889346145
 20
-2.89400463384674
 10
2.71642889346145
 20
-2.89240485240183
 10
2.71642889346145
 20
-2.89240485240183
 10
2.71482911201654
 20
-2.89080507095692
 10
2.71482911201654
 20
-2.88920528951201
 10
2.71482911201654
 20
-2.88760550806709
 10
2.71482911201654
 20
-2.88760550806709
 10
2.71482911201654
 20
-2.88600572662218
 10
2.71482911201654
 20
-2.88440594517727
 10
2.71482911201654
 20
-2.88440594517727
 10
2.71482911201654
 20
-2.88280616373236
 10
2.71482911201654
 20
-2.88120638228744
 10
2.71322933057163
 20
-2.88120638228744
 10
2.71322933057163
 20
-2.87960660084253
 10
2.71322933057163
 20
-2.87800681939762
 10
2.71322933057163
 20
-2.87800681939762
 10
2.71322933057163
 20
-2.8764070379527
 10
2.71322933057163
 20
-2.87480725650779
 10
2.71322933057163
 20
-2.87480725650779
 10
2.71322933057163
 20
-2.87320747506288
 10
2.71322933057163
 20
-2.87320747506288
 10
2.71322933057163
 20
-2.87160769361797
 10
2.71162954912672
 20
-2.87000791217306
 10
2.71162954912672
 20
-2.87000791217306
 10
2.71162954912672
 20
-2.86840813072814
 10
2.71162954912672
 20
-2.86680834928323
 10
2.71162954912672
 20
-2.86680834928323
 10
2.71162954912672
 20
-2.86520856783832
 10
2.71162954912672
 20
-2.86360878639341
 10
2.71162954912672
 20
-2.86520856783832
  0
LWPOLYLINE
  5
E39
100
AcDbEntity
  8
0
100
AcDbPolyline
370
-2
 62
6
  6
CONTINUOUS
 38
0
 90
46
 70
0
 10
2.94839720297377
 20
-3.10037644024046
 10
2.94679742152886
 20
-3.10037644024046
 10
2.94679742152886
 20
-3.10037644024046
 10
2.94519764008394
 20
-3.10037644024046
 10
2.94519764008394
 20
-3.10037644024046
 10
2.94359785863903
 20
-3.10037644024046
 10
2.94359785863903
 20
-3.10037644024046
 10
2.94199807719412
 20
-3.10037644024046
 10
2.94199807719412
 20
-3.10037644024046
 10
2.94039829574921
 20
-3.10037644024046
 10
2.94039829574921
 20
-3.10037644024046
 10
2.93879851430429
 20
-3.10037644024046
 10
2.93879851430429
 20
-3.10037644024046
 10
2.93719873285938
 20
-3.10037644024046
 10
2.93559895141447
 20
-3.10037644024046
 10
2.93559895141447
 20
-3.10037644024046
 10
2.93399916996956
 20
-3.10037644024046
 10
2.93399916996956
 20
-3.10037644024046
 10
2.93239938852464
 20
-3.10037644024046
 10
2.93239938852464
 20
-3.10037644024046
 10
2.93079960707973
 20
-3.10037644024046
 10
2.93079960707973
 20
-3.10037644024046
 10
2.92919982563482
 20
-3.10037644024046
 10
2.92919982563482
 20
-3.09877665879554
 10
2.92760004418991
 20
-3.09877665879554
 10
2.92760004418991
 20
-3.09877665879554
 10
2.92600026274499
 20
-3.09877665879554
 10
2.92440048130008
 20
-3.09877665879554
 10
2.92440048130008
 20
-3.09877665879554
 10
2.92280069985517
 20
-3.09877665879554
 10
2.92280069985517
 20
-3.09877665879554
 10
2.92120091841026
 20
-3.09877665879554
 10
2.92120091841026
 20
-3.09877665879554
 10
2.91960113696534
 20
-3.09877665879554
 10
2.91960113696534
 20
-3.09877665879554
 10
2.91800135552043
 20
-3.09877665879554
 10
2.91640157407552
 20
-3.09877665879554
 10
2.91640157407552
 20
-3.09877665879554
 10
2.91480179263061
 20
-3.09877665879554
 10
2.91480179263061
 20
-3.09877665879554
 10
2.91320201118569
 20
-3.09877665879554
 10
2.91320201118569
 20
-3.09877665879554
 10
2.91160222974078
 20
-3.09877665879554
 10
2.91160222974078
 20
-3.09877665879554
 10
2.91000244829587
 20
-3.09877665879554
 10
2.91000244829587
 20
-3.10037644024046
  0
LWPOLYLINE
  5
E68
100
AcDbEntity
  8
0
100
AcDbPolyline
370
-2
 62
6
  6
CONTINUOUS
 38
0
 90
38
 70
0
 10
2.87800681939762
 20
-3.09717687735063
 10
2.87800681939762
 20
-3.09717687735063
 10
2.8764070379527
 20
-3.09717687735063
 10
2.8764070379527
 20
-3.09717687735063
 10
2.87480725650779
 20
-3.09717687735063
 10
2.87480725650779
 20
-3.09717687735063
 10
2.87320747506288
 20
-3.09717687735063
 10
2.87320747506288
 20
-3.09717687735063
 10
2.87160769361797
 20
-3.09717687735063
 10
2.87000791217306
 20
-3.09557709590572
 10
2.87000791217306
 20
-3.09557709590572
 10
2.86840813072814
 20
-3.09557709590572
 10
2.86840813072814
 20
-3.09557709590572
 10
2.86680834928323
 20
-3.09557709590572
 10
2.86680834928323
 20
-3.09557709590572
 10
2.86520856783832
 20
-3.09557709590572
 10
2.86520856783832
 20
-3.09557709590572
 10
2.86360878639341
 20
-3.09557709590572
 10
2.86200900494849
 20
-3.09557709590572
 10
2.86200900494849
 20
-3.09557709590572
 10
2.86040922350358
 20
-3.09557709590572
 10
2.86040922350358
 20
-3.09557709590572
 10
2.85880944205867
 20
-3.09557709590572
 10
2.85880944205867
 20
-3.09557709590572
 10
2.85720966061375
 20
-3.09557709590572
 10
2.85560987916884
 20
-3.09557709590572
 10
2.85560987916884
 20
-3.09557709590572
 10
2.85401009772393
 20
-3.09557709590572
 10
2.85401009772393
 20
-3.09557709590572
 10
2.85241031627902
 20
-3.09557709590572
 10
2.85241031627902
 20
-3.09557709590572
 10
2.8508105348341
 20
-3.09557709590572
 10
2.8508105348341
 20
-3.09557709590572
 10
2.84921075338919
 20
-3.09557709590572
 10
2.84761097194428
 20
-3.09397731446081
 10
2.84761097194428
 20
-3.09397731446081
 10
2.84601119049937
 20
-3.09397731446081
 10
2.84601119049937
 20
-3.09557709590572
  0
LWPOLYLINE
  5
E8F
100
AcDbEntity
  8
0
100
AcDbPolyline
370
-2
 62
6
  6
CONTINUOUS
 38
0
 90
43
 70
0
 10
2.81401556160112
 20
-3.08917797012607
 10
2.81401556160112
 20
-3.08917797012607
 10
2.8124157801562
 20
-3.08917797012607
 10
2.8124157801562
 20
-3.08917797012607
 10
2.81081599871129
 20
-3.08917797012607
 10
2.81081599871129
 20
-3.08917797012607
 10
2.80921621726638
 20
-3.08917797012607
 10
2.80921621726638
 20
-3.08757818868116
 10
2.80761643582147
 20
-3.08757818868116
 10
2.80601665437655
 20
-3.08757818868116
 10
2.80601665437655
 20
-3.08757818868116
 10
2.80441687293164
 20
-3.08757818868116
 10
2.80441687293164
 20
-3.08757818868116
 10
2.80281709148673
 20
-3.08597840723624
 10
2.80281709148673
 20
-3.08597840723624
 10
2.80121731004182
 20
-3.08597840723624
 10
2.80121731004182
 20
-3.08597840723624
 10
2.7996175285969
 20
-3.08597840723624
 10
2.7996175285969
 20
-3.08597840723624
 10
2.79801774715199
 20
-3.08437862579133
 10
2.79641796570708
 20
-3.08437862579133
 10
2.79641796570708
 20
-3.08437862579133
 10
2.79481818426217
 20
-3.08437862579133
 10
2.79481818426217
 20
-3.08437862579133
 10
2.79321840281725
 20
-3.08277884434642
 10
2.79321840281725
 20
-3.08277884434642
 10
2.79161862137234
 20
-3.08277884434642
 10
2.79161862137234
 20
-3.08277884434642
 10
2.79001883992743
 20
-3.08277884434642
 10
2.79001883992743
 20
-3.08117906290151
 10
2.78841905848252
 20
-3.08117906290151
 10
2.78841905848252
 20
-3.08117906290151
 10
2.7868192770376
 20
-3.08117906290151
 10
2.7868192770376
 20
-3.07957928145659
 10
2.78521949559269
 20
-3.07957928145659
 10
2.78521949559269
 20
-3.07957928145659
 10
2.78361971414778
 20
-3.07957928145659
 10
2.78201993270287
 20
-3.07797950001168
 10
2.78201993270287
 20
-3.07797950001168
 10
2.78042015125795
 20
-3.07797950001168
 10
2.78042015125795
 20
-3.07797950001168
 10
2.77882036981304
 20
-3.07637971856677
 10
2.77882036981304
 20
-3.07797950001168
  0
LWPOLYLINE
  5
EBB
100
AcDbEntity
  8
0
100
AcDbPolyline
370
-2
 62
6
  6
CONTINUOUS
 38
0
 90
38
 70
0
 10
3.30194890229943
 20
-2.86360878639341
 10
3.30194890229943
 20
-2.86520856783832
 10
3.30194890229943
 20
-2.86520856783832
 10
3.30194890229943
 20
-2.86680834928323
 10
3.30194890229943
 20
-2.86680834928323
 10
3.30194890229943
 20
-2.86840813072814
 10
3.30034912085452
 20
-2.86840813072814
 10
3.30034912085452
 20
-2.87000791217306
 10
3.30034912085452
 20
-2.87000791217306
 10
3.30034912085452
 20
-2.87160769361797
 10
3.30034912085452
 20
-2.87160769361797
 10
3.30034912085452
 20
-2.87320747506288
 10
3.30034912085452
 20
-2.87320747506288
 10
3.30034912085452
 20
-2.8764070379527
 10
3.30034912085452
 20
-2.8764070379527
 10
3.29874933940961
 20
-2.87800681939762
 10
3.29874933940961
 20
-2.87960660084253
 10
3.29874933940961
 20
-2.88120638228744
 10
3.29874933940961
 20
-2.88280616373236
 10
3.29874933940961
 20
-2.88280616373236
 10
3.29874933940961
 20
-2.88440594517727
 10
3.29874933940961
 20
-2.88600572662218
 10
3.29874933940961
 20
-2.88760550806709
 10
3.2971495579647
 20
-2.88920528951201
 10
3.2971495579647
 20
-2.88920528951201
 10
3.2971495579647
 20
-2.89080507095692
 10
3.2971495579647
 20
-2.89240485240183
 10
3.2971495579647
 20
-2.89400463384674
 10
3.2971495579647
 20
-2.89560441529166
 10
3.2971495579647
 20
-2.89560441529166
 10
3.2971495579647
 20
-2.89720419673657
 10
3.2971495579647
 20
-2.89880397818148
 10
3.29554977651978
 20
-2.90040375962639
 10
3.29554977651978
 20
-2.9020035410713
 10
3.29554977651978
 20
-2.9020035410713
 10
3.29554977651978
 20
-2.90360332251622
 10
3.29554977651978
 20
-2.90520310396113
 10
3.29554977651978
 20
-2.90680288540604
  0
LWPOLYLINE
  5
EE2
100
AcDbEntity
  8
0
100
AcDbPolyline
370
-2
 62
6
  6
CONTINUOUS
 38
0
 90
49
 70
0
 10
3.29554977651978
 20
-2.90520310396113
 10
3.29554977651978
 20
-2.90680288540604
 10
3.29554977651978
 20
-2.90680288540604
 10
3.29554977651978
 20
-2.90840266685096
 10
3.29554977651978
 20
-2.90840266685096
 10
3.29554977651978
 20
-2.91000244829587
 10
3.29394999507487
 20
-2.91160222974078
 10
3.29394999507487
 20
-2.91160222974078
 10
3.29394999507487
 20
-2.91320201118569
 10
3.29394999507487
 20
-2.91320201118569
 10
3.29394999507487
 20
-2.91480179263061
 10
3.29394999507487
 20
-2.91640157407552
 10
3.29394999507487
 20
-2.91640157407552
 10
3.29394999507487
 20
-2.91800135552043
 10
3.29394999507487
 20
-2.91800135552043
 10
3.29394999507487
 20
-2.91960113696534
 10
3.29394999507487
 20
-2.92120091841026
 10
3.29394999507487
 20
-2.92120091841026
 10
3.29235021362996
 20
-2.92280069985517
 10
3.29235021362996
 20
-2.92280069985517
 10
3.29235021362996
 20
-2.92440048130008
 10
3.29235021362996
 20
-2.92600026274499
 10
3.29235021362996
 20
-2.92600026274499
 10
3.29235021362996
 20
-2.92760004418991
 10
3.29235021362996
 20
-2.92760004418991
 10
3.29235021362996
 20
-2.92919982563482
 10
3.29235021362996
 20
-2.93079960707973
 10
3.29235021362996
 20
-2.93079960707973
 10
3.29235021362996
 20
-2.93239938852464
 10
3.29235021362996
 20
-2.93239938852464
 10
3.29235021362996
 20
-2.93399916996956
 10
3.29075043218505
 20
-2.93559895141447
 10
3.29075043218505
 20
-2.93559895141447
 10
3.29075043218505
 20
-2.93719873285938
 10
3.29075043218505
 20
-2.93719873285938
 10
3.29075043218505
 20
-2.93879851430429
 10
3.29075043218505
 20
-2.94039829574921
 10
3.29075043218505
 20
-2.94039829574921
 10
3.29075043218505
 20
-2.94199807719412
 10
3.29075043218505
 20
-2.94199807719412
 10
3.29075043218505
 20
-2.94359785863903
 10
3.29075043218505
 20
-2.94519764008394
 10
3.29075043218505
 20
-2.94519764008394
 10
3.28915065074013
 20
-2.94679742152886
 10
3.28915065074013
 20
-2.94679742152886
 10
3.28915065074013
 20
-2.94839720297377
 10
3.28915065074013
 20
-2.94999698441868
 10
3.28915065074013
 20
-2.94999698441868
 10
3.28915065074013
 20
-2.95159676586359
  0
LWPOLYLINE
  5
F14
100
AcDbEntity
  8
0
100
AcDbPolyline
370
-2
 62
6
  6
CONTINUOUS
 38
0
 90
35
 70
0
 10
3.2843513064054
 20
-2.98199261331693
 10
3.2843513064054
 20
-2.98199261331693
 10
3.2843513064054
 20
-2.98359239476184
 10
3.2843513064054
 20
-2.98519217620676
 10
3.28275152496048
 20
-2.98519217620676
 10
3.28275152496048
 20
-2.98679195765167
 10
3.28275152496048
 20
-2.98679195765167
 10
3.28275152496048
 20
-2.98839173909658
 10
3.28275152496048
 20
-2.98999152054149
 10
3.28275152496048
 20
-2.98999152054149
 10
3.28275152496048
 20
-2.99159130198641
 10
3.28275152496048
 20
-2.99159130198641
 10
3.28115174351557
 20
-2.99319108343132
 10
3.28115174351557
 20
-2.99479086487623
 10
3.28115174351557
 20
-2.99479086487623
 10
3.28115174351557
 20
-2.99639064632114
 10
3.28115174351557
 20
-2.99639064632114
 10
3.28115174351557
 20
-2.99799042776606
 10
3.28115174351557
 20
-2.99799042776606
 10
3.27955196207066
 20
-2.99959020921097
 10
3.27955196207066
 20
-3.00118999065588
 10
3.27955196207066
 20
-3.00118999065588
 10
3.27955196207066
 20
-3.00278977210079
 10
3.27955196207066
 20
-3.00278977210079
 10
3.27955196207066
 20
-3.00438955354571
 10
3.27795218062575
 20
-3.00598933499062
 10
3.27795218062575
 20
-3.00598933499062
 10
3.27795218062575
 20
-3.00758911643553
 10
3.27795218062575
 20
-3.00758911643553
 10
3.27795218062575
 20
-3.00918889788044
 10
3.27795218062575
 20
-3.01078867932536
 10
3.27635239918083
 20
-3.01078867932536
 10
3.27635239918083
 20
-3.01238846077027
 10
3.27635239918083
 20
-3.01238846077027
 10
3.27635239918083
 20
-3.01398824221518
  0
LWPOLYLINE
  5
F38
100
AcDbEntity
  8
0
100
AcDbPolyline
370
-2
 62
6
  6
CONTINUOUS
 38
0
 90
42
 70
0
 10
3.26515392906645
 20
-3.04278430822361
 10
3.26515392906645
 20
-3.04278430822361
 10
3.26515392906645
 20
-3.04438408966852
 10
3.26355414762153
 20
-3.04438408966852
 10
3.26355414762153
 20
-3.04598387111343
 10
3.26355414762153
 20
-3.04598387111343
 10
3.26195436617662
 20
-3.04758365255834
 10
3.26195436617662
 20
-3.04918343400326
 10
3.26195436617662
 20
-3.04918343400326
 10
3.26035458473171
 20
-3.05078321544817
 10
3.26035458473171
 20
-3.05078321544817
 10
3.26035458473171
 20
-3.05238299689308
 10
3.2587548032868
 20
-3.05238299689308
 10
3.2587548032868
 20
-3.05398277833799
 10
3.2587548032868
 20
-3.05398277833799
 10
3.25715502184188
 20
-3.05558255978291
 10
3.25715502184188
 20
-3.05558255978291
 10
3.25555524039697
 20
-3.05718234122782
 10
3.25555524039697
 20
-3.05878212267273
 10
3.25395545895206
 20
-3.06038190411764
 10
3.25395545895206
 20
-3.06038190411764
 10
3.25235567750715
 20
-3.06198168556256
 10
3.25235567750715
 20
-3.06198168556256
 10
3.25075589606223
 20
-3.06358146700747
 10
3.25075589606223
 20
-3.06518124845238
 10
3.24915611461732
 20
-3.06518124845238
 10
3.24915611461732
 20
-3.06678102989729
 10
3.24755633317241
 20
-3.06678102989729
 10
3.2459565517275
 20
-3.06838081134221
 10
3.2459565517275
 20
-3.06838081134221
 10
3.24435677028258
 20
-3.06998059278712
 10
3.24435677028258
 20
-3.06998059278712
 10
3.24275698883767
 20
-3.07158037423203
 10
3.24115720739276
 20
-3.07158037423203
 10
3.23955742594785
 20
-3.07318015567694
 10
3.23955742594785
 20
-3.07318015567694
 10
3.23795764450293
 20
-3.07318015567694
 10
3.23795764450293
 20
-3.07477993712186
 10
3.23635786305802
 20
-3.07477993712186
 10
3.23635786305802
 20
-3.07477993712186
 10
3.23475808161311
 20
-3.07637971856677
 10
3.23475808161311
 20
-3.07797950001168
  0
LWPOLYLINE
  5
F63
100
AcDbEntity
  8
0
100
AcDbPolyline
370
-2
 62
6
  6
CONTINUOUS
 38
0
 90
42
 70
0
 10
3.23475808161311
 20
-3.07637971856677
 10
3.23475808161311
 20
-3.07637971856677
 10
3.2331583001682
 20
-3.07797950001168
 10
3.23155851872328
 20
-3.07797950001168
 10
3.22995873727837
 20
-3.07957928145659
 10
3.22995873727837
 20
-3.07957928145659
 10
3.22835895583346
 20
-3.07957928145659
 10
3.22835895583346
 20
-3.07957928145659
 10
3.22675917438855
 20
-3.08117906290151
 10
3.22675917438855
 20
-3.08117906290151
 10
3.22515939294363
 20
-3.08117906290151
 10
3.22515939294363
 20
-3.08117906290151
 10
3.22355961149872
 20
-3.08117906290151
 10
3.22195983005381
 20
-3.08277884434642
 10
3.22195983005381
 20
-3.08277884434642
 10
3.2203600486089
 20
-3.08277884434642
 10
3.2203600486089
 20
-3.08277884434642
 10
3.21876026716398
 20
-3.08277884434642
 10
3.21876026716398
 20
-3.08437862579133
 10
3.21716048571907
 20
-3.08437862579133
 10
3.21716048571907
 20
-3.08437862579133
 10
3.21556070427416
 20
-3.08437862579133
 10
3.21556070427416
 20
-3.08437862579133
 10
3.21396092282925
 20
-3.08597840723624
 10
3.21396092282925
 20
-3.08597840723624
 10
3.21236114138433
 20
-3.08597840723624
 10
3.21236114138433
 20
-3.08597840723624
 10
3.21076135993942
 20
-3.08597840723624
 10
3.20916157849451
 20
-3.08597840723624
 10
3.20916157849451
 20
-3.08757818868116
 10
3.2075617970496
 20
-3.08757818868116
 10
3.2075617970496
 20
-3.08757818868116
 10
3.20596201560468
 20
-3.08757818868116
 10
3.20596201560468
 20
-3.08757818868116
 10
3.20436223415977
 20
-3.08757818868116
 10
3.20436223415977
 20
-3.08917797012607
 10
3.20276245271486
 20
-3.08917797012607
 10
3.20116267126995
 20
-3.08917797012607
 10
3.20116267126995
 20
-3.08917797012607
 10
3.19956288982503
 20
-3.08917797012607
 10
3.19956288982503
 20
-3.08917797012607
 10
3.19956288982503
 20
-3.09077775157098
  0
LWPOLYLINE
  5
F8E
100
AcDbEntity
  8
0
100
AcDbPolyline
370
-2
 62
6
  6
CONTINUOUS
 38
0
 90
38
 70
0
 10
3.16756726092678
 20
-3.09397731446081
 10
3.16756726092678
 20
-3.09397731446081
 10
3.16596747948187
 20
-3.09397731446081
 10
3.16436769803696
 20
-3.09397731446081
 10
3.16436769803696
 20
-3.09397731446081
 10
3.16276791659205
 20
-3.09557709590572
 10
3.16276791659205
 20
-3.09557709590572
 10
3.16116813514713
 20
-3.09557709590572
 10
3.16116813514713
 20
-3.09557709590572
 10
3.15956835370222
 20
-3.09557709590572
 10
3.15956835370222
 20
-3.09557709590572
 10
3.15796857225731
 20
-3.09557709590572
 10
3.1563687908124
 20
-3.09557709590572
 10
3.1563687908124
 20
-3.09557709590572
 10
3.15476900936748
 20
-3.09557709590572
 10
3.15476900936748
 20
-3.09557709590572
 10
3.15316922792257
 20
-3.09557709590572
 10
3.15316922792257
 20
-3.09557709590572
 10
3.15156944647766
 20
-3.09557709590572
 10
3.14996966503275
 20
-3.09557709590572
 10
3.14996966503275
 20
-3.09557709590572
 10
3.14836988358783
 20
-3.09557709590572
 10
3.14836988358783
 20
-3.09557709590572
 10
3.14677010214292
 20
-3.09557709590572
 10
3.14677010214292
 20
-3.09557709590572
 10
3.14517032069801
 20
-3.09557709590572
 10
3.14517032069801
 20
-3.09557709590572
 10
3.1435705392531
 20
-3.09557709590572
 10
3.14197075780818
 20
-3.09557709590572
 10
3.14197075780818
 20
-3.09557709590572
 10
3.14037097636327
 20
-3.09717687735063
 10
3.14037097636327
 20
-3.09717687735063
 10
3.13877119491836
 20
-3.09717687735063
 10
3.13877119491836
 20
-3.09717687735063
 10
3.13717141347345
 20
-3.09717687735063
 10
3.13717141347345
 20
-3.09717687735063
 10
3.13557163202853
 20
-3.09717687735063
 10
3.13557163202853
 20
-3.09877665879554
  0
LWPOLYLINE
  5
FB5
100
AcDbEntity
  8
0
100
AcDbPolyline
370
-2
 62
6
  6
CONTINUOUS
 38
0
 90
46
 70
0
 10
3.10357600313028
 20
-3.09877665879554
 10
3.10357600313028
 20
-3.09877665879554
 10
3.10197622168537
 20
-3.09877665879554
 10
3.10197622168537
 20
-3.09877665879554
 10
3.10037644024046
 20
-3.09877665879554
 10
3.10037644024046
 20
-3.09877665879554
 10
3.09877665879554
 20
-3.09877665879554
 10
3.09717687735063
 20
-3.09877665879554
 10
3.09717687735063
 20
-3.09877665879554
 10
3.09557709590572
 20
-3.09877665879554
 10
3.09557709590572
 20
-3.09877665879554
 10
3.09397731446081
 20
-3.09877665879554
 10
3.09397731446081
 20
-3.09877665879554
 10
3.0923775330159
 20
-3.09877665879554
 10
3.09077775157098
 20
-3.09877665879554
 10
3.09077775157098
 20
-3.09877665879554
 10
3.08917797012607
 20
-3.09877665879554
 10
3.08917797012607
 20
-3.09877665879554
 10
3.08757818868116
 20
-3.09877665879554
 10
3.08757818868116
 20
-3.09877665879554
 10
3.08597840723624
 20
-3.09877665879554
 10
3.08597840723624
 20
-3.09877665879554
 10
3.08437862579133
 20
-3.10037644024046
 10
3.08277884434642
 20
-3.10037644024046
 10
3.08277884434642
 20
-3.10037644024046
 10
3.08117906290151
 20
-3.10037644024046
 10
3.08117906290151
 20
-3.10037644024046
 10
3.07957928145659
 20
-3.10037644024046
 10
3.07957928145659
 20
-3.10037644024046
 10
3.07797950001168
 20
-3.10037644024046
 10
3.07797950001168
 20
-3.10037644024046
 10
3.07637971856677
 20
-3.10037644024046
 10
3.07477993712186
 20
-3.10037644024046
 10
3.07477993712186
 20
-3.10037644024046
 10
3.07318015567694
 20
-3.10037644024046
 10
3.07318015567694
 20
-3.10037644024046
 10
3.07158037423203
 20
-3.10037644024046
 10
3.07158037423203
 20
-3.10037644024046
 10
3.06998059278712
 20
-3.10037644024046
 10
3.06998059278712
 20
-3.10037644024046
 10
3.06838081134221
 20
-3.10037644024046
 10
3.06678102989729
 20
-3.10037644024046
 10
3.06678102989729
 20
-3.10037644024046
 10
3.06518124845238
 20
-3.10037644024046
 10
3.06518124845238
 20
-3.10037644024046
 10
3.06518124845238
 20
-3.10197622168537
  0
LWPOLYLINE
  5
FE4
100
AcDbEntity
  8
0
100
AcDbPolyline
370
-2
 62
6
  6
CONTINUOUS
 38
0
 90
25
 70
0
 10
2.77882036981304
 20
-3.07637971856677
 10
2.77882036981304
 20
-3.07637971856677
 10
2.77722058836813
 20
-3.07637971856677
 10
2.77562080692322
 20
-3.07477993712186
 10
2.77562080692322
 20
-3.07477993712186
 10
2.7740210254783
 20
-3.07318015567694
 10
2.77242124403339
 20
-3.07318015567694
 10
2.77242124403339
 20
-3.07158037423203
 10
2.77082146258848
 20
-3.07158037423203
 10
2.77082146258848
 20
-3.07158037423203
 10
2.76922168114357
 20
-3.06998059278712
 10
2.76762189969865
 20
-3.06998059278712
 10
2.76762189969865
 20
-3.06838081134221
 10
2.76602211825374
 20
-3.06838081134221
 10
2.76602211825374
 20
-3.06678102989729
 10
2.76442233680883
 20
-3.06678102989729
 10
2.76442233680883
 20
-3.06518124845238
 10
2.76282255536392
 20
-3.06358146700747
 10
2.761222773919
 20
-3.06358146700747
 10
2.75962299247409
 20
-3.06198168556256
 10
2.75962299247409
 20
-3.06038190411764
 10
2.75802321102918
 20
-3.05878212267273
 10
2.75802321102918
 20
-3.05718234122782
 10
2.75642342958427
 20
-3.05718234122782
 10
2.75642342958427
 20
-3.05878212267273
  0
LWPOLYLINE
  5
FFE
100
AcDbEntity
  8
0
100
AcDbPolyline
370
-2
 62
6
  6
CONTINUOUS
 38
0
 90
29
 70
0
 10
2.74202539658005
 20
-3.02678649377448
 10
2.74202539658005
 20
-3.02678649377448
 10
2.74042561513514
 20
-3.02518671232957
 10
2.74042561513514
 20
-3.02518671232957
 10
2.74042561513514
 20
-3.02358693088466
 10
2.73882583369023
 20
-3.02198714943974
 10
2.73882583369023
 20
-3.02198714943974
 10
2.73882583369023
 20
-3.02038736799483
 10
2.73882583369023
 20
-3.01878758654992
 10
2.73882583369023
 20
-3.01718780510501
 10
2.73722605224532
 20
-3.01718780510501
 10
2.73722605224532
 20
-3.01558802366009
 10
2.73722605224532
 20
-3.01398824221518
 10
2.73722605224532
 20
-3.01398824221518
 10
2.73722605224532
 20
-3.01238846077027
 10
2.7356262708004
 20
-3.01238846077027
 10
2.7356262708004
 20
-3.01078867932536
 10
2.7356262708004
 20
-3.00918889788044
 10
2.7356262708004
 20
-3.00758911643553
 10
2.73402648935549
 20
-3.00598933499062
 10
2.73402648935549
 20
-3.00438955354571
 10
2.73402648935549
 20
-3.00278977210079
 10
2.73402648935549
 20
-3.00118999065588
 10
2.73242670791058
 20
-2.99959020921097
 10
2.73242670791058
 20
-2.99959020921097
 10
2.73242670791058
 20
-2.99799042776606
 10
2.73242670791058
 20
-2.99799042776606
 10
2.73242670791058
 20
-2.99639064632114
 10
2.73242670791058
 20
-2.99799042776606
  0
LWPOLYLINE
  5
101C
100
AcDbEntity
  8
0
100
AcDbPolyline
370
-2
 62
6
  6
CONTINUOUS
 38
0
 90
41
 70
0
 10
2.72602758213093
 20
-2.96599479886781
 10
2.72602758213093
 20
-2.96439501742289
 10
2.72602758213093
 20
-2.96439501742289
 10
2.72602758213093
 20
-2.96279523597798
 10
2.72602758213093
 20
-2.96279523597798
 10
2.72602758213093
 20
-2.96119545453307
 10
2.72602758213093
 20
-2.96119545453307
 10
2.72602758213093
 20
-2.95959567308816
 10
2.72442780068602
 20
-2.95959567308816
 10
2.72442780068602
 20
-2.95799589164324
 10
2.72442780068602
 20
-2.95799589164324
 10
2.72442780068602
 20
-2.95639611019833
 10
2.72442780068602
 20
-2.95639611019833
 10
2.72442780068602
 20
-2.95479632875342
 10
2.72442780068602
 20
-2.95479632875342
 10
2.72442780068602
 20
-2.95319654730851
 10
2.72442780068602
 20
-2.95319654730851
 10
2.72442780068602
 20
-2.95159676586359
 10
2.72442780068602
 20
-2.95159676586359
 10
2.72442780068602
 20
-2.94999698441868
 10
2.72442780068602
 20
-2.94999698441868
 10
2.7228280192411
 20
-2.94839720297377
 10
2.7228280192411
 20
-2.94839720297377
 10
2.7228280192411
 20
-2.94679742152886
 10
2.7228280192411
 20
-2.94679742152886
 10
2.7228280192411
 20
-2.94519764008394
 10
2.7228280192411
 20
-2.94519764008394
 10
2.7228280192411
 20
-2.94359785863903
 10
2.7228280192411
 20
-2.94359785863903
 10
2.7228280192411
 20
-2.94199807719412
 10
2.7228280192411
 20
-2.94199807719412
 10
2.7228280192411
 20
-2.94039829574921
 10
2.7228280192411
 20
-2.94039829574921
 10
2.7228280192411
 20
-2.93879851430429
 10
2.7228280192411
 20
-2.93879851430429
 10
2.7228280192411
 20
-2.93719873285938
 10
2.72122823779619
 20
-2.93719873285938
 10
2.72122823779619
 20
-2.93559895141447
 10
2.72122823779619
 20
-2.93559895141447
 10
2.72122823779619
 20
-2.93399916996956
 10
2.72122823779619
 20
-2.93559895141447
  0
LWPOLYLINE
  5
1046
100
AcDbEntity
  8
0
100
AcDbPolyline
370
-2
 62
6
  6
CONTINUOUS
 38
0
 90
24
 70
0
 10
2.71962845635128
 20
-2.91640157407552
 10
2.71962845635128
 20
-2.91640157407552
 10
2.71962845635128
 20
-2.91480179263061
 10
2.71962845635128
 20
-2.91480179263061
 10
2.71802867490637
 20
-2.91320201118569
 10
2.71802867490637
 20
-2.91160222974078
 10
2.71802867490637
 20
-2.91160222974078
 10
2.71802867490637
 20
-2.91000244829587
 10
2.71802867490637
 20
-2.91000244829587
 10
2.71802867490637
 20
-2.90840266685096
 10
2.71802867490637
 20
-2.90840266685096
 10
2.71802867490637
 20
-2.90680288540604
 10
2.71802867490637
 20
-2.90680288540604
 10
2.71802867490637
 20
-2.90520310396113
 10
2.71802867490637
 20
-2.90520310396113
 10
2.71802867490637
 20
-2.90360332251622
 10
2.71802867490637
 20
-2.90360332251622
 10
2.71642889346145
 20
-2.9020035410713
 10
2.71642889346145
 20
-2.90040375962639
 10
2.71642889346145
 20
-2.90040375962639
 10
2.71642889346145
 20
-2.89880397818148
 10
2.71642889346145
 20
-2.89880397818148
 10
2.71642889346145
 20
-2.89720419673657
 10
2.71642889346145
 20
-2.89880397818148
  0
LWPOLYLINE
  5
105F
100
AcDbEntity
  8
0
100
AcDbPolyline
370
-2
 62
6
  6
CONTINUOUS
 38
0
 90
20
 70
0
 10
2.72122823779619
 20
-2.93399916996956
 10
2.72122823779619
 20
-2.93399916996956
 10
2.72122823779619
 20
-2.93399916996956
 10
2.72122823779619
 20
-2.93239938852464
 10
2.72122823779619
 20
-2.93079960707973
 10
2.72122823779619
 20
-2.93079960707973
 10
2.72122823779619
 20
-2.92919982563482
 10
2.72122823779619
 20
-2.92919982563482
 10
2.72122823779619
 20
-2.92760004418991
 10
2.72122823779619
 20
-2.92600026274499
 10
2.71962845635128
 20
-2.92440048130008
 10
2.71962845635128
 20
-2.92440048130008
 10
2.71962845635128
 20
-2.92280069985517
 10
2.71962845635128
 20
-2.92120091841026
 10
2.71962845635128
 20
-2.92120091841026
 10
2.71962845635128
 20
-2.91960113696534
 10
2.71962845635128
 20
-2.91800135552043
 10
2.71962845635128
 20
-2.91800135552043
 10
2.71962845635128
 20
-2.91640157407552
 10
2.71962845635128
 20
-2.91800135552043
  0
LWPOLYLINE
  5
1074
100
AcDbEntity
  8
0
100
AcDbPolyline
370
-2
 62
3
  6
CONTINUOUS
 38
0
 90
3
 70
0
 10
0.828686788464684
 20
-5.78640948624857
 10
1.32301925494265
 20
-5.78640948624857
 10
1.32301925494265
 20
-5.78800926769349
  0
LWPOLYLINE
  5
1078
100
AcDbEntity
  8
0
100
AcDbPolyline
370
-2
 62
3
  6
CONTINUOUS
 38
0
 90
3
 70
0
 10
0.811089192570646
 20
-5.43605734981273
 10
1.32301925494265
 20
-5.43605734981273
 10
1.32301925494265
 20
-5.43765713125764
  0
LWPOLYLINE
  5
107C
100
AcDbEntity
  8
0
100
AcDbPolyline
370
-2
 62
3
  6
CONTINUOUS
 38
0
 90
3
 70
0
 10
1.3038218776037
 20
-5.75281407590541
 10
1.3038218776037
 20
-5.46965276015589
 10
1.3038218776037
 20
-5.47125254160081
  0
HATCH
  5
1084
100
AcDbEntity
  8
0
100
AcDbHatch
370
-1
 62
3
 10
0
 20
0
 30
0
210
0
220
0
230
1
  2
SOLID
 70
1
 71
0
 91
1
 92
7
 72
0
 73
1
 93
3
 10
1.29902253326896
 20
-5.75281407590541
 10
1.31022100338335
 20
-5.75281407590541
 10
1.3038218776037
 20
-5.78640948624857
 97
0
 75
0
 76
1
 47
1E-6
 98
0
  0
TEXT
  5
1089
100
AcDbEntity
  8
0
100
AcDbText
370
-1
 62
3
 10
1.28462450026475
 20
-5.66642587788013
 30
0
 40
0.0454897853860874
  1
210
 50
0
 41
1
 51
0
  7
Arial$001
 71
0
 72
0
 11
0
 21
0
 31
0
100
AcDbText
 73
0
  0
HATCH
  5
108A
100
AcDbEntity
  8
0
100
AcDbHatch
370
-1
 62
3
 10
0
 20
0
 30
0
210
0
220
0
230
1
  2
SOLID
 70
1
 71
0
 91
1
 92
7
 72
0
 73
1
 93
3
 10
1.29902253326896
 20
-5.46965276015589
 10
1.31022100338335
 20
-5.46965276015589
 10
1.3038218776037
 20
-5.43605734981273
 97
0
 75
0
 76
1
 47
1E-6
 98
0
  0
POINT
  5
108B
100
AcDbEntity
  8
0
100
AcDbPoint
370
-2
 62
3
  6
CONTINUOUS
 10
0.809489411125734
 20
-5.78640948624857
 30
0
  0
POINT
  5
108C
100
AcDbEntity
  8
0
100
AcDbPoint
370
-2
 62
3
  6
CONTINUOUS
 10
0.791891815231696
 20
-5.43605734981273
 30
0
  0
POINT
  5
108D
100
AcDbEntity
  8
0
100
AcDbPoint
370
-2
 62
3
  6
CONTINUOUS
 10
1.3038218776037
 20
-5.43605734981273
 30
0
  0
LWPOLYLINE
  5
108E
100
AcDbEntity
  8
0
100
AcDbPolyline
370
-2
 62
3
  6
CONTINUOUS
 38
0
 90
3
 70
0
 10
3.36434037865102
 20
-2.86040922350358
 10
3.45872748390086
 20
-2.86040922350358
 10
3.45872748390086
 20
-2.86200900494849
  0
LWPOLYLINE
  5
1092
100
AcDbEntity
  8
0
100
AcDbPolyline
370
-2
 62
3
  6
CONTINUOUS
 38
0
 90
3
 70
0
 10
3.08437862579133
 20
-3.10037644024046
 10
3.45872748390086
 20
-3.10037644024046
 10
3.45872748390086
 20
-3.10197622168537
  0
LWPOLYLINE
  5
1096
100
AcDbEntity
  8
0
100
AcDbPolyline
370
-2
 62
3
  6
CONTINUOUS
 38
0
 90
3
 70
0
 10
3.43953010656191
 20
-2.89400463384674
 10
3.43953010656191
 20
-3.06518124845238
 10
3.43953010656191
 20
-3.06678102989729
  0
HATCH
  5
109E
100
AcDbEntity
  8
0
100
AcDbHatch
370
-1
 62
3
 10
0
 20
0
 30
0
210
0
220
0
230
1
  2
SOLID
 70
1
 71
0
 91
1
 92
7
 72
0
 73
1
 93
3
 10
3.43313098078226
 20
-2.89400463384674
 10
3.44592923234156
 20
-2.89400463384674
 10
3.43953010656191
 20
-2.86040922350358
 97
0
 75
0
 76
1
 47
1E-6
 98
0
  0
TEXT
  5
10A3
100
AcDbEntity
  8
0
100
AcDbText
370
-1
 62
3
 10
3.41873294777805
 20
-3.03638518244396
 30
0
 40
0.0454897853860874
  1
152
 50
0
 41
1
 51
0
  7
Arial$001
 71
0
 72
0
 11
0
 21
0
 31
0
100
AcDbText
 73
0
  0
HATCH
  5
10A4
100
AcDbEntity
  8
0
100
AcDbHatch
370
-1
 62
3
 10
0
 20
0
 30
0
210
0
220
0
230
1
  2
SOLID
 70
1
 71
0
 91
1
 92
7
 72
0
 73
1
 93
3
 10
3.43313098078226
 20
-3.06518124845238
 10
3.44592923234156
 20
-3.06518124845238
 10
3.43953010656191
 20
-3.10037644024046
 97
0
 75
0
 76
1
 47
1E-6
 98
0
  0
POINT
  5
10A5
100
AcDbEntity
  8
0
100
AcDbPoint
370
-2
 62
3
  6
CONTINUOUS
 10
3.34514300131207
 20
-2.86040922350358
 30
0
  0
POINT
  5
10A6
100
AcDbEntity
  8
0
100
AcDbPoint
370
-2
 62
3
  6
CONTINUOUS
 10
3.06518124845238
 20
-3.10037644024046
 30
0
  0
POINT
  5
10A7
100
AcDbEntity
  8
0
100
AcDbPoint
370
-2
 62
3
  6
CONTINUOUS
 10
3.43953010656191
 20
-3.10037644024046
 30
0
  0
LWPOLYLINE
  5
10A8
100
AcDbEntity
  8
0
100
AcDbPolyline
370
-2
 62
3
  6
CONTINUOUS
 38
0
 90
3
 70
0
 10
0.655910392414132
 20
-3.17556616815135
 10
0.049593224792288
 20
-3.17556616815135
 10
0.049593224792288
 20
-3.17716594959626
  0
LWPOLYLINE
  5
10AC
100
AcDbEntity
  8
0
100
AcDbPolyline
370
-2
 62
3
  6
CONTINUOUS
 38
0
 90
3
 70
0
 10
0.255965031186003
 20
-2.86040922350358
 10
0.049593224792288
 20
-2.86040922350358
 10
0.049593224792288
 20
-2.86200900494849
  0
LWPOLYLINE
  5
10B0
100
AcDbEntity
  8
0
100
AcDbPolyline
370
-2
 62
3
  6
CONTINUOUS
 38
0
 90
3
 70
0
 10
0.0687906021312382
 20
-3.14197075780818
 10
0.0687906021312382
 20
-2.89400463384674
 10
0.0687906021312382
 20
-2.89560441529166
  0
HATCH
  5
10B8
100
AcDbEntity
  8
0
100
AcDbHatch
370
-1
 62
3
 10
0
 20
0
 30
0
210
0
220
0
230
1
  2
SOLID
 70
1
 71
0
 91
1
 92
7
 72
0
 73
1
 93
3
 10
0.0623914763515882
 20
-3.14197075780818
 10
0.0735899464659758
 20
-3.14197075780818
 10
0.0687906021312382
 20
-3.17556616815135
 97
0
 75
0
 76
1
 47
1E-6
 98
0
  0
TEXT
  5
10BD
100
AcDbEntity
  8
0
100
AcDbText
370
-1
 62
3
 10
0.0479934433473755
 20
-3.07318015567694
 30
0
 40
0.0454897853860874
  1
200
 50
0
 41
1
 51
0
  7
Arial$001
 71
0
 72
0
 11
0
 21
0
 31
0
100
AcDbText
 73
0
  0
HATCH
  5
10BE
100
AcDbEntity
  8
0
100
AcDbHatch
370
-1
 62
3
 10
0
 20
0
 30
0
210
0
220
0
230
1
  2
SOLID
 70
1
 71
0
 91
1
 92
7
 72
0
 73
1
 93
3
 10
0.0623914763515882
 20
-2.89400463384674
 10
0.0735899464659758
 20
-2.89400463384674
 10
0.0687906021312382
 20
-2.86040922350358
 97
0
 75
0
 76
1
 47
1E-6
 98
0
  0
POINT
  5
10BF
100
AcDbEntity
  8
0
100
AcDbPoint
370
-2
 62
3
  6
CONTINUOUS
 10
0.675107769753082
 20
-3.17556616815135
 30
0
  0
POINT
  5
10C0
100
AcDbEntity
  8
0
100
AcDbPoint
370
-2
 62
3
  6
CONTINUOUS
 10
0.275162408524953
 20
-2.86040922350358
 30
0
  0
POINT
  5
10C1
100
AcDbEntity
  8
0
100
AcDbPoint
370
-2
 62
3
  6
CONTINUOUS
 10
0.0687906021312382
 20
-2.86040922350358
 30
0
  0
ELLIPSE
  5
10C2
100
AcDbEntity
  8
0
100
AcDbEllipse
370
-2
 62
7
  6
CONTINUOUS
 10
0.608716839789213
 20
-3.28355141568294
 30
0
 11
0.0231968309512315
 21
0
 31
0
 40
0.999999999999995
 41
0
 42
6.28318530717959
  0
ELLIPSE
  5
10C3
100
AcDbEntity
  8
0
100
AcDbEllipse
370
-2
 62
7
  6
CONTINUOUS
 10
0.84868405652609
 20
-3.28355141568294
 30
0
 11
0.0231968309512315
 21
0
 31
0
 40
0.999999999999995
 41
0
 42
6.28318530717959
  0
CIRCLE
  5
10C4
100
AcDbEntity
  8
0
100
AcDbCircle
370
-2
 62
7
  6
CONTINUOUS
 10
0.728700448157651
 20
-3.37953830237769
 30
0
 40
0.0391946454003567
  0
LWPOLYLINE
  5
10C5
100
AcDbEntity
  8
0
100
AcDbPolyline
370
-2
 62
3
  6
CONTINUOUS
 38
0
 90
3
 70
0
 10
0.609516730511669
 20
-3.26515392906645
 10
0.609516730511669
 20
-3.23635786305802
 10
0.609516730511669
 20
-3.23795764450293
  0
LWPOLYLINE
  5
10C9
100
AcDbEntity
  8
0
100
AcDbPolyline
370
-2
 62
3
  6
CONTINUOUS
 38
0
 90
3
 70
0
 10
0.849483947248546
 20
-3.26515392906645
 10
0.849483947248546
 20
-3.23635786305802
 10
0.849483947248546
 20
-3.23795764450293
  0
LWPOLYLINE
  5
10CD
100
AcDbEntity
  8
0
100
AcDbPolyline
370
-2
 62
3
  6
CONTINUOUS
 38
0
 90
3
 70
0
 10
0.643112140854832
 20
-3.25555524039697
 10
0.814288755460471
 20
-3.25555524039697
 10
0.814288755460471
 20
-3.25715502184188
  0
HATCH
  5
10D5
100
AcDbEntity
  8
0
100
AcDbHatch
370
-1
 62
3
 10
0
 20
0
 30
0
210
0
220
0
230
1
  2
SOLID
 70
1
 71
0
 91
1
 92
7
 72
0
 73
1
 93
3
 10
0.643112140854832
 20
-3.24915611461732
 10
0.643112140854832
 20
-3.26035458473171
 10
0.609516730511669
 20
-3.25555524039697
 97
0
 75
0
 76
1
 47
1E-6
 98
0
  0
TEXT
  5
10DA
100
AcDbEntity
  8
0
100
AcDbText
370
-1
 62
3
 10
0.67350798830817
 20
-3.23475808161311
 30
0
 40
0.0454897853860874
  1
150
 50
0
 41
1
 51
0
  7
Arial$001
 71
0
 72
0
 11
0
 21
0
 31
0
100
AcDbText
 73
0
  0
HATCH
  5
10DB
100
AcDbEntity
  8
0
100
AcDbHatch
370
-1
 62
3
 10
0
 20
0
 30
0
210
0
220
0
230
1
  2
SOLID
 70
1
 71
0
 91
1
 92
7
 72
0
 73
1
 93
3
 10
0.814288755460471
 20
-3.24915611461732
 10
0.814288755460471
 20
-3.26035458473171
 10
0.849483947248546
 20
-3.25555524039697
 97
0
 75
0
 76
1
 47
1E-6
 98
0
  0
POINT
  5
10DC
100
AcDbEntity
  8
0
100
AcDbPoint
370
-2
 62
3
  6
CONTINUOUS
 10
0.609516730511669
 20
-3.2843513064054
 30
0
  0
POINT
  5
10DD
100
AcDbEntity
  8
0
100
AcDbPoint
370
-2
 62
3
  6
CONTINUOUS
 10
0.849483947248546
 20
-3.2843513064054
 30
0
  0
POINT
  5
10DE
100
AcDbEntity
  8
0
100
AcDbPoint
370
-2
 62
3
  6
CONTINUOUS
 10
0.849483947248546
 20
-3.25555524039697
 30
0
  0
LWPOLYLINE
  5
10DF
100
AcDbEntity
  8
0
100
AcDbPolyline
370
-2
 62
3
  6
CONTINUOUS
 38
0
 90
3
 70
0
 10
0.710302961541158
 20
-3.38033819310015
 10
0.443139460240767
 20
-3.38033819310015
 10
0.443139460240767
 20
-3.38193797454506
  0
LWPOLYLINE
  5
10E3
100
AcDbEntity
  8
0
100
AcDbPolyline
370
-2
 62
3
  6
CONTINUOUS
 38
0
 90
3
 70
0
 10
0.465536400469542
 20
-4.18022891555641
 10
0.443139460240767
 20
-4.18022891555641
 10
0.443139460240767
 20
-4.18182869700132
  0
LWPOLYLINE
  5
10E7
100
AcDbEntity
  8
0
100
AcDbPolyline
370
-2
 62
3
  6
CONTINUOUS
 38
0
 90
3
 70
0
 10
0.462336837579717
 20
-3.41393360344331
 10
0.462336837579717
 20
-4.14503372376833
 10
0.462336837579717
 20
-4.14663350521324
  0
HATCH
  5
10EF
100
AcDbEntity
  8
0
100
AcDbHatch
370
-1
 62
3
 10
0
 20
0
 30
0
210
0
220
0
230
1
  2
SOLID
 70
1
 71
0
 91
1
 92
7
 72
0
 73
1
 93
3
 10
0.45753749324498
 20
-3.41393360344331
 10
0.468735963359367
 20
-3.41393360344331
 10
0.462336837579717
 20
-3.38033819310015
 97
0
 75
0
 76
1
 47
1E-6
 98
0
  0
TEXT
  5
10F4
100
AcDbEntity
  8
0
100
AcDbText
370
-1
 62
3
 10
0.443139460240767
 20
-3.83627590490022
 30
0
 40
0.0454897853860874
  1
500
 50
0
 41
1
 51
0
  7
Arial$001
 71
0
 72
0
 11
0
 21
0
 31
0
100
AcDbText
 73
0
  0
HATCH
  5
10F5
100
AcDbEntity
  8
0
100
AcDbHatch
370
-1
 62
3
 10
0
 20
0
 30
0
210
0
220
0
230
1
  2
SOLID
 70
1
 71
0
 91
1
 92
7
 72
0
 73
1
 93
3
 10
0.45753749324498
 20
-4.14503372376833
 10
0.468735963359367
 20
-4.14503372376833
 10
0.462336837579717
 20
-4.18022891555641
 97
0
 75
0
 76
1
 47
1E-6
 98
0
  0
POINT
  5
10F6
100
AcDbEntity
  8
0
100
AcDbPoint
370
-2
 62
3
  6
CONTINUOUS
 10
0.729500338880108
 20
-3.38033819310015
 30
0
  0
POINT
  5
10F7
100
AcDbEntity
  8
0
100
AcDbPoint
370
-2
 62
3
  6
CONTINUOUS
 10
0.484733777808493
 20
-4.18022891555641
 30
0
  0
POINT
  5
10F8
100
AcDbEntity
  8
0
100
AcDbPoint
370
-2
 62
3
  6
CONTINUOUS
 10
0.462336837579717
 20
-4.18022891555641
 30
0
  0
LWPOLYLINE
  5
10F9
100
AcDbEntity
  8
0
100
AcDbPolyline
370
-2
 62
3
  6
CONTINUOUS
 38
0
 90
3
 70
0
 10
0.590319353172719
 20
-3.2843513064054
 10
0.443139460240767
 20
-3.2843513064054
 10
0.443139460240767
 20
-3.28595108785031
  0
LWPOLYLINE
  5
10FD
100
AcDbEntity
  8
0
100
AcDbPolyline
370
-2
 62
3
  6
CONTINUOUS
 38
0
 90
3
 70
0
 10
0.710302961541158
 20
-3.38033819310015
 10
0.443139460240767
 20
-3.38033819310015
 10
0.443139460240767
 20
-3.38193797454506
  0
LWPOLYLINE
  5
1101
100
AcDbEntity
  8
0
100
AcDbPolyline
370
-2
 62
3
  6
CONTINUOUS
 38
0
 90
3
 70
0
 10
0.462336837579717
 20
-3.24915611461732
 10
0.462336837579717
 20
-3.21556070427416
 10
0.462336837579717
 20
-3.21716048571907
  0
LWPOLYLINE
  5
1105
100
AcDbEntity
  8
0
100
AcDbPolyline
370
-2
 62
3
  6
CONTINUOUS
 38
0
 90
3
 70
0
 10
0.462336837579717
 20
-3.41393360344331
 10
0.462336837579717
 20
-3.44912879523139
 10
0.462336837579717
 20
-3.4507285766763
  0
LWPOLYLINE
  5
1109
100
AcDbEntity
  8
0
100
AcDbPolyline
370
-2
 62
3
  6
CONTINUOUS
 38
0
 90
3
 70
0
 10
0.462336837579717
 20
-3.2843513064054
 10
0.462336837579717
 20
-3.38033819310015
 10
0.462336837579717
 20
-3.38193797454506
  0
HATCH
  5
1111
100
AcDbEntity
  8
0
100
AcDbHatch
370
-1
 62
3
 10
0
 20
0
 30
0
210
0
220
0
230
1
  2
SOLID
 70
1
 71
0
 91
1
 92
7
 72
0
 73
1
 93
3
 10
0.45753749324498
 20
-3.24915611461732
 10
0.468735963359367
 20
-3.24915611461732
 10
0.462336837579717
 20
-3.2843513064054
 97
0
 75
0
 76
1
 47
1E-6
 98
0
  0
TEXT
  5
1116
100
AcDbEntity
  8
0
100
AcDbText
370
-1
 62
3
 10
0.443139460240767
 20
-3.36913972298576
 30
0
 40
0.0454897853860874
  1
60
 50
0
 41
1
 51
0
  7
Arial$001
 71
0
 72
0
 11
0
 21
0
 31
0
100
AcDbText
 73
0
  0
HATCH
  5
1117
100
AcDbEntity
  8
0
100
AcDbHatch
370
-1
 62
3
 10
0
 20
0
 30
0
210
0
220
0
230
1
  2
SOLID
 70
1
 71
0
 91
1
 92
7
 72
0
 73
1
 93
3
 10
0.45753749324498
 20
-3.41393360344331
 10
0.468735963359367
 20
-3.41393360344331
 10
0.462336837579717
 20
-3.38033819310015
 97
0
 75
0
 76
1
 47
1E-6
 98
0
  0
POINT
  5
1118
100
AcDbEntity
  8
0
100
AcDbPoint
370
-2
 62
3
  6
CONTINUOUS
 10
0.609516730511669
 20
-3.2843513064054
 30
0
  0
POINT
  5
1119
100
AcDbEntity
  8
0
100
AcDbPoint
370
-2
 62
3
  6
CONTINUOUS
 10
0.729500338880108
 20
-3.38033819310015
 30
0
  0
POINT
  5
111A
100
AcDbEntity
  8
0
100
AcDbPoint
370
-2
 62
3
  6
CONTINUOUS
 10
0.462336837579717
 20
-3.38033819310015
 30
0
  0
ENDSEC
  0
SECTION
  2
OBJECTS
  0
DICTIONARY
  5
112C
100
AcDbDictionary
  3
ACAD_GROUP
350
112D
  3
ACAD_MATERIAL
350
112E
  3
ACAD_WIPEOUT_VARS
350
112F
  3
ACAD_MLINESTYLE
350
1130
  3
ACAD_LAYOUT
350
1131
  0
DICTIONARY
  5
112D
330
112C
100
AcDbDictionary
  0
DICTIONARY
  5
112E
330
112C
100
AcDbDictionary
  0
WIPEOUTVARIABLES
  5
112F
330
112C
100
AcDbWipeoutVariables
 70
1
  0
DICTIONARY
  5
1130
330
112C
100
AcDbDictionary
  3
STANDARD
350
1132
  0
MLINESTYLE
  5
1132
100
AcDbMlineStyle
  2
STANDARD
 70
0
  3

 62
256
 51
90
 52
90
 71
2
 49
0.5
 62
256
  6
ByLayer
 49
-0.5
 62
256
  6
ByLayer
  0
DICTIONARY
  5
1131
100
AcDbDictionary
281
1
  3
Model
350
111B
  0
LAYOUT
  5
111B
102
{ACAD_REACTORS
330
1131
102
}
330
1131
100
AcDbPlotSettings
  1

  2
none_device
  4
ISO_A4_(210.00_x_297.00_MM)
  6

 40
7.5
 41
20
 42
7.5
 43
20
 44
210
 45
297
 46
0
 47
0
 48
0
 49
0
 70
1712
 72
1
 73
1
 74
1
 75
0
 76
0
 77
0
 78
100
140
0
141
0
142
1
143
0.203794220740201
147
1
148
8.64028958921329
149
9.35872145273822
100
AcDbLayout
  1
Model
 70
1
 71
1
 10
-8.64028958921329
 20
-9.35872145273822
 11
43.7348251410184
 21
0
 12
0
 22
0
 32
0
 14
-8.64028958921329
 24
-9.35872145273822
 34
0
 15
43.7348251410184
 25
0
 35
0
146
0
 13
0
 23
0
 33
0
 16
1
 26
0
 36
0
 17
0
 27
1
 37
0
 76
0
330
14
  0
DICTIONARY
  5
1133
100
AcDbDictionary
280
1
  3
XINFO
360
1134
  0
XRECORD
  5
1134
102
{ACAD_REACTORS
330
1133
102
}
330
1133
100
AcDbXrecord
280
0
310
5900000001000E00
311
729FB67A4E9351F9
  0
ENDSEC
  0
EOF
